ISO-10303-21;
HEADER;
FILE_DESCRIPTION (( 'STEP AP214' ),
    '1' );
FILE_NAME ('83820.STEP',
    '2023-07-05T16:11:54',
    ( '' ),
    ( '' ),
    'SwSTEP 2.0',
    'SolidWorks 2023',
    '' );
FILE_SCHEMA (( 'AUTOMOTIVE_DESIGN' ));
ENDSEC;

DATA;
#1 = CLOSED_SHELL ( 'NONE', ( #241, #20, #182, #66 ) ) ;
#2 = CARTESIAN_POINT ( 'NONE',  ( 0.09375000000000001388, 0.05412658773652713473, 1.148106374200643863E-17 ) ) ;
#3 = PLANE ( 'NONE',  #211 ) ;
#4 =( NAMED_UNIT ( * ) SI_UNIT ( $, .STERADIAN. ) SOLID_ANGLE_UNIT ( ) );
#5 = CONICAL_SURFACE ( 'NONE', #50, 68.19097667594041923, 1.047197551196600074 ) ;
#6 = PRODUCT ( '83820', '83820', '', ( #13 ) ) ;
#7 = DIRECTION ( 'NONE',  ( 1.000000000000000000, 0.000000000000000000, 0.000000000000000000 ) ) ;
#8 = ORIENTED_EDGE ( 'NONE', *, *, #71, .F. ) ;
#9 = FACE_OUTER_BOUND ( 'NONE', #254, .T. ) ;
#10 = ORIENTED_EDGE ( 'NONE', *, *, #217, .F. ) ;
#11 = DIRECTION ( 'NONE',  ( -0.8660254037844397068, 0.4999999999999979461, 0.000000000000000000 ) ) ;
#12 = SURFACE_STYLE_USAGE ( .BOTH. , #114 ) ;
#13 = PRODUCT_CONTEXT ( 'NONE', #53, 'mechanical' ) ;
#14 = EDGE_LOOP ( 'NONE', ( #143, #77 ) ) ;
#15 =( NAMED_UNIT ( * ) SI_UNIT ( $, .STERADIAN. ) SOLID_ANGLE_UNIT ( ) );
#16 =( NAMED_UNIT ( * ) SI_UNIT ( $, .STERADIAN. ) SOLID_ANGLE_UNIT ( ) );
#17 = ORIENTED_EDGE ( 'NONE', *, *, #135, .F. ) ;
#18 = PRESENTATION_STYLE_ASSIGNMENT (( #181 ) ) ;
#19 =( GEOMETRIC_REPRESENTATION_CONTEXT ( 3 ) GLOBAL_UNCERTAINTY_ASSIGNED_CONTEXT ( ( #138 ) ) GLOBAL_UNIT_ASSIGNED_CONTEXT ( ( #139, #37, #16 ) ) REPRESENTATION_CONTEXT ( 'NONE', 'WORKASPACE' ) );
#20 = ADVANCED_FACE ( 'NONE', ( #81 ), #225, .F. ) ;
#21 = DIRECTION ( 'NONE',  ( -1.214063312457127427E-16, 1.000000000000000000, -0.000000000000000000 ) ) ;
#22 = SURFACE_STYLE_USAGE ( .BOTH. , #59 ) ;
#23 = STYLED_ITEM ( 'NONE', ( #155 ), #51 ) ;
#24 = MECHANICAL_DESIGN_GEOMETRIC_PRESENTATION_REPRESENTATION (  '', ( #145 ), #55 ) ;
#25 = SURFACE_SIDE_STYLE ('',( #85 ) ) ;
#26 = CARTESIAN_POINT ( 'NONE',  ( 7.870206804039944582E-19, 0.05412658773652713473, 0.000000000000000000 ) ) ;
#27 = DIMENSIONAL_EXPONENTS ( 1.000000000000000000, 0.000000000000000000, 0.000000000000000000, 0.000000000000000000, 0.000000000000000000, 0.000000000000000000, 0.000000000000000000 ) ;
#28 = AXIS2_PLACEMENT_3D ( 'NONE', #234, #21, #230 ) ;
#29 = ORIENTED_EDGE ( 'NONE', *, *, #71, .T. ) ;
#30 = DIRECTION ( 'NONE',  ( 1.454037125404963195E-17, 1.000000000000000000, 0.000000000000000000 ) ) ;
#31 = CARTESIAN_POINT ( 'NONE',  ( -0.09375000000000001388, 0.05412658773652713473, 0.000000000000000000 ) ) ;
#32 = EDGE_LOOP ( 'NONE', ( #158, #17 ) ) ;
#33 = CARTESIAN_POINT ( 'NONE',  ( 0.09374999999999998612, 2.000000000000000000, 1.148106374200643555E-17 ) ) ;
#34 = CIRCLE ( 'NONE', #250, 0.09375000000000001388 ) ;
#35 = EDGE_LOOP ( 'NONE', ( #8, #221, #74 ) ) ;
#36 = UNCERTAINTY_MEASURE_WITH_UNIT (LENGTH_MEASURE( 1.000000000000000082E-05 ), #84, 'distance_accuracy_value', 'NONE');
#37 =( NAMED_UNIT ( * ) PLANE_ANGLE_UNIT ( ) SI_UNIT ( $, .RADIAN. ) );
#38 = DIRECTION ( 'NONE',  ( 1.000000000000000000, 0.000000000000000000, 0.000000000000000000 ) ) ;
#39 = FILL_AREA_STYLE ('',( #161 ) ) ;
#40 =( NAMED_UNIT ( * ) SI_UNIT ( $, .STERADIAN. ) SOLID_ANGLE_UNIT ( ) );
#41 = CIRCLE ( 'NONE', #136, 0.09375000000000005551 ) ;
#42 = PRESENTATION_STYLE_ASSIGNMENT (( #22 ) ) ;
#43 = CARTESIAN_POINT ( 'NONE',  ( 7.870206804039944582E-19, 0.05412658773652713473, 0.000000000000000000 ) ) ;
#44 = COLOUR_RGB ( '',0.7921568627450980005, 0.8196078431372548767, 0.9333333333333333481 ) ;
#45 = DIRECTION ( 'NONE',  ( 1.000000000000000000, 0.000000000000000000, 0.000000000000000000 ) ) ;
#46 = CARTESIAN_POINT ( 'NONE',  ( -6.123233995736763571E-17, 2.000000000000000000, 0.000000000000000000 ) ) ;
#47 =( LENGTH_UNIT ( ) NAMED_UNIT ( * ) SI_UNIT ( $, .METRE. ) );
#48 =( GEOMETRIC_REPRESENTATION_CONTEXT ( 3 ) GLOBAL_UNCERTAINTY_ASSIGNED_CONTEXT ( ( #36 ) ) GLOBAL_UNIT_ASSIGNED_CONTEXT ( ( #84, #108, #207 ) ) REPRESENTATION_CONTEXT ( 'NONE', 'WORKASPACE' ) );
#49 = SURFACE_STYLE_FILL_AREA ( #129 ) ;
#50 = AXIS2_PLACEMENT_3D ( 'NONE', #73, #263, #99 ) ;
#51 = MANIFOLD_SOLID_BREP ( 'Revolve - Cutting Edge', #223 ) ;
#52 = MANIFOLD_SOLID_BREP ( 'Revolve - Tool Body (Pointed)', #1 ) ;
#53 = APPLICATION_CONTEXT ( 'automotive_design' ) ;
#54 =( NAMED_UNIT ( * ) PLANE_ANGLE_UNIT ( ) SI_UNIT ( $, .RADIAN. ) );
#55 =( GEOMETRIC_REPRESENTATION_CONTEXT ( 3 ) GLOBAL_UNCERTAINTY_ASSIGNED_CONTEXT ( ( #203 ) ) GLOBAL_UNIT_ASSIGNED_CONTEXT ( ( #127, #167, #149 ) ) REPRESENTATION_CONTEXT ( 'NONE', 'WORKASPACE' ) );
#56 = APPLICATION_PROTOCOL_DEFINITION ( 'draft international standard', 'automotive_design', 1998, #53 ) ;
#57 = CARTESIAN_POINT ( 'NONE',  ( 0.09374999999999998612, 2.000000000000000000, 0.000000000000000000 ) ) ;
#58 = SURFACE_STYLE_FILL_AREA ( #39 ) ;
#59 = SURFACE_SIDE_STYLE ('',( #231 ) ) ;
#60 = AXIS2_PLACEMENT_3D ( 'NONE', #43, #82, #45 ) ;
#61 = DIRECTION ( 'NONE',  ( 0.8660254037844397068, 0.4999999999999979461, 1.060575238724908024E-16 ) ) ;
#62 = DIRECTION ( 'NONE',  ( 1.454037125404963195E-17, 1.000000000000000000, 0.000000000000000000 ) ) ;
#63 = STYLED_ITEM ( 'NONE', ( #213 ), #257 ) ;
#64 = FILL_AREA_STYLE ('',( #187 ) ) ;
#65 = DIMENSIONAL_EXPONENTS ( 1.000000000000000000, 0.000000000000000000, 0.000000000000000000, 0.000000000000000000, 0.000000000000000000, 0.000000000000000000, 0.000000000000000000 ) ;
#66 = ADVANCED_FACE ( 'NONE', ( #264 ), #76, .F. ) ;
#67 = LINE ( 'NONE', #169, #109 ) ;
#68 = FACE_OUTER_BOUND ( 'NONE', #261, .T. ) ;
#69 = MECHANICAL_DESIGN_GEOMETRIC_PRESENTATION_REPRESENTATION (  '', ( #197 ), #19 ) ;
#70 = FACE_OUTER_BOUND ( 'NONE', #35, .T. ) ;
#71 = EDGE_CURVE ( 'NONE', #256, #95, #166, .T. ) ;
#72 = ORIENTED_EDGE ( 'NONE', *, *, #135, .T. ) ;
#73 = CARTESIAN_POINT ( 'NONE',  ( 5.724555611830564233E-16, 39.37007874015748143, 0.000000000000000000 ) ) ;
#74 = ORIENTED_EDGE ( 'NONE', *, *, #121, .T. ) ;
#75 = ORIENTED_EDGE ( 'NONE', *, *, #208, .F. ) ;
#76 = PLANE ( 'NONE',  #232 ) ;
#77 = ORIENTED_EDGE ( 'NONE', *, *, #226, .F. ) ;
#78 =( CONVERSION_BASED_UNIT ( 'INCH', #178 ) LENGTH_UNIT ( ) NAMED_UNIT ( #180 ) );
#79 =( GEOMETRIC_REPRESENTATION_CONTEXT ( 3 ) GLOBAL_UNCERTAINTY_ASSIGNED_CONTEXT ( ( #118 ) ) GLOBAL_UNIT_ASSIGNED_CONTEXT ( ( #244, #54, #40 ) ) REPRESENTATION_CONTEXT ( 'NONE', 'WORKASPACE' ) );
#80 =( LENGTH_UNIT ( ) NAMED_UNIT ( * ) SI_UNIT ( $, .METRE. ) );
#81 = FACE_OUTER_BOUND ( 'NONE', #32, .T. ) ;
#82 = DIRECTION ( 'NONE',  ( -1.454037125404963195E-17, -1.000000000000000000, -0.000000000000000000 ) ) ;
#83 = FILL_AREA_STYLE_COLOUR ( '', #113 ) ;
#84 =( CONVERSION_BASED_UNIT ( 'INCH', #123 ) LENGTH_UNIT ( ) NAMED_UNIT ( #243 ) );
#85 = SURFACE_STYLE_FILL_AREA ( #105 ) ;
#86 = ADVANCED_FACE ( 'NONE', ( #229 ), #93, .T. ) ;
#87 = PRESENTATION_LAYER_ASSIGNMENT (  '', '', ( #215 ) ) ;
#88 = CARTESIAN_POINT ( 'NONE',  ( -6.123233995736763571E-17, 2.000000000000000000, 0.000000000000000000 ) ) ;
#89 = ORIENTED_EDGE ( 'NONE', *, *, #115, .T. ) ;
#90 = PRODUCT_DEFINITION_SHAPE ( 'NONE', 'NONE',  #198 ) ;
#91 = CARTESIAN_POINT ( 'NONE',  ( -0.09375000000000012490, 2.000000000000000000, 0.000000000000000000 ) ) ;
#92 = VERTEX_POINT ( 'NONE', #210 ) ;
#93 = CONICAL_SURFACE ( 'NONE', #224, 68.19097667594041923, 1.047197551196600074 ) ;
#94 = CYLINDRICAL_SURFACE ( 'NONE', #247, 0.09374999999999994449 ) ;
#95 = VERTEX_POINT ( 'NONE', #2 ) ;
#96 = LENGTH_MEASURE_WITH_UNIT ( LENGTH_MEASURE( 0.02539999999999999897 ), #47 );
#97 = SURFACE_SIDE_STYLE ('',( #58 ) ) ;
#98 = PRODUCT_RELATED_PRODUCT_CATEGORY ( 'part', '', ( #6 ) ) ;
#99 = DIRECTION ( 'NONE',  ( -1.000000000000000000, 0.000000000000000000, 0.000000000000000000 ) ) ;
#100 = CARTESIAN_POINT ( 'NONE',  ( 1.750090120941168532E-16, 0.05412658773652711391, 0.000000000000000000 ) ) ;
#101 = UNCERTAINTY_MEASURE_WITH_UNIT (LENGTH_MEASURE( 1.000000000000000082E-05 ), #176, 'distance_accuracy_value', 'NONE');
#102 = DIRECTION ( 'NONE',  ( 0.000000000000000000, 0.000000000000000000, 1.000000000000000000 ) ) ;
#103 =( LENGTH_UNIT ( ) NAMED_UNIT ( * ) SI_UNIT ( $, .METRE. ) );
#104 =( LENGTH_UNIT ( ) NAMED_UNIT ( * ) SI_UNIT ( $, .METRE. ) );
#105 = FILL_AREA_STYLE ('',( #83 ) ) ;
#106 = AXIS2_PLACEMENT_3D ( 'NONE', #100, #116, #122 ) ;
#107 = CIRCLE ( 'NONE', #60, 0.09375000000000001388 ) ;
#108 =( NAMED_UNIT ( * ) PLANE_ANGLE_UNIT ( ) SI_UNIT ( $, .RADIAN. ) );
#109 = VECTOR ( 'NONE', #218, 39.37007874015748143 ) ;
#110 = DIRECTION ( 'NONE',  ( -1.214063312457127427E-16, 1.000000000000000000, -0.000000000000000000 ) ) ;
#111 = CARTESIAN_POINT ( 'NONE',  ( -0.09374999999999965306, 0.05412658773652723188, 0.000000000000000000 ) ) ;
#112 = CYLINDRICAL_SURFACE ( 'NONE', #185, 0.09374999999999994449 ) ;
#113 = COLOUR_RGB ( '',1.000000000000000000, 0.000000000000000000, 0.000000000000000000 ) ;
#114 = SURFACE_SIDE_STYLE ('',( #49 ) ) ;
#115 = EDGE_CURVE ( 'NONE', #196, #184, #148, .T. ) ;
#116 = DIRECTION ( 'NONE',  ( -1.214063312457127427E-16, 1.000000000000000000, 0.000000000000000000 ) ) ;
#117 = COLOUR_RGB ( '',1.000000000000000000, 0.000000000000000000, 0.000000000000000000 ) ;
#118 = UNCERTAINTY_MEASURE_WITH_UNIT (LENGTH_MEASURE( 1.000000000000000082E-05 ), #244, 'distance_accuracy_value', 'NONE');
#119 = CARTESIAN_POINT ( 'NONE',  ( 0.000000000000000000, 0.000000000000000000, 0.000000000000000000 ) ) ;
#120 = FILL_AREA_STYLE_COLOUR ( '', #44 ) ;
#121 = EDGE_CURVE ( 'NONE', #242, #95, #107, .T. ) ;
#122 = DIRECTION ( 'NONE',  ( -1.000000000000000000, -1.214063312457127427E-16, 0.000000000000000000 ) ) ;
#123 = LENGTH_MEASURE_WITH_UNIT ( LENGTH_MEASURE( 0.02539999999999999897 ), #144 );
#124 =( GEOMETRIC_REPRESENTATION_CONTEXT ( 3 ) GLOBAL_UNCERTAINTY_ASSIGNED_CONTEXT ( ( #101 ) ) GLOBAL_UNIT_ASSIGNED_CONTEXT ( ( #176, #128, #4 ) ) REPRESENTATION_CONTEXT ( 'NONE', 'WORKASPACE' ) );
#125 = CARTESIAN_POINT ( 'NONE',  ( 0.000000000000000000, 0.000000000000000000, 0.000000000000000000 ) ) ;
#126 = MECHANICAL_DESIGN_GEOMETRIC_PRESENTATION_REPRESENTATION (  '', ( #23 ), #79 ) ;
#127 =( CONVERSION_BASED_UNIT ( 'INCH', #147 ) LENGTH_UNIT ( ) NAMED_UNIT ( #239 ) );
#128 =( NAMED_UNIT ( * ) PLANE_ANGLE_UNIT ( ) SI_UNIT ( $, .RADIAN. ) );
#129 = FILL_AREA_STYLE ('',( #240 ) ) ;
#130 = VECTOR ( 'NONE', #11, 39.37007874015748854 ) ;
#131 =( GEOMETRIC_REPRESENTATION_CONTEXT ( 3 ) GLOBAL_UNCERTAINTY_ASSIGNED_CONTEXT ( ( #259 ) ) GLOBAL_UNIT_ASSIGNED_CONTEXT ( ( #78, #200, #15 ) ) REPRESENTATION_CONTEXT ( 'NONE', 'WORKASPACE' ) );
#132 = DIRECTION ( 'NONE',  ( -1.000000000000000000, 1.454037125404963195E-17, 0.000000000000000000 ) ) ;
#133 = ORIENTED_EDGE ( 'NONE', *, *, #115, .F. ) ;
#134 = CARTESIAN_POINT ( 'NONE',  ( -0.09375000000000001388, 2.000000000000000000, 0.000000000000000000 ) ) ;
#135 = EDGE_CURVE ( 'NONE', #92, #177, #204, .T. ) ;
#136 = AXIS2_PLACEMENT_3D ( 'NONE', #46, #236, #255 ) ;
#137 = SURFACE_STYLE_USAGE ( .BOTH. , #97 ) ;
#138 = UNCERTAINTY_MEASURE_WITH_UNIT (LENGTH_MEASURE( 1.000000000000000082E-05 ), #139, 'distance_accuracy_value', 'NONE');
#139 =( CONVERSION_BASED_UNIT ( 'INCH', #186 ) LENGTH_UNIT ( ) NAMED_UNIT ( #173 ) );
#140 = AXIS2_PLACEMENT_3D ( 'NONE', #212, #191, #163 ) ;
#141 = PRESENTATION_LAYER_ASSIGNMENT (  '', '', ( #197 ) ) ;
#142 = PRODUCT_DEFINITION_FORMATION_WITH_SPECIFIED_SOURCE ( 'ANY', '', #6, .NOT_KNOWN. ) ;
#143 = ORIENTED_EDGE ( 'NONE', *, *, #121, .F. ) ;
#144 =( LENGTH_UNIT ( ) NAMED_UNIT ( * ) SI_UNIT ( $, .METRE. ) );
#145 = STYLED_ITEM ( 'NONE', ( #249 ), #157 ) ;
#146 = SURFACE_STYLE_USAGE ( .BOTH. , #25 ) ;
#147 = LENGTH_MEASURE_WITH_UNIT ( LENGTH_MEASURE( 0.02539999999999999897 ), #190 );
#148 = CIRCLE ( 'NONE', #140, 0.09375000000000005551 ) ;
#149 =( NAMED_UNIT ( * ) SI_UNIT ( $, .STERADIAN. ) SOLID_ANGLE_UNIT ( ) );
#150 = LINE ( 'NONE', #193, #130 ) ;
#151 = DIRECTION ( 'NONE',  ( -1.000000000000000000, 0.000000000000000000, 0.000000000000000000 ) ) ;
#152 = ORIENTED_EDGE ( 'NONE', *, *, #246, .F. ) ;
#153 = DIRECTION ( 'NONE',  ( -1.000000000000000000, 0.000000000000000000, 0.000000000000000000 ) ) ;
#154 = PRESENTATION_LAYER_ASSIGNMENT (  '', '', ( #145 ) ) ;
#155 = PRESENTATION_STYLE_ASSIGNMENT (( #137 ) ) ;
#156 = LENGTH_MEASURE_WITH_UNIT ( LENGTH_MEASURE( 0.02539999999999999897 ), #103 );
#157 = ADVANCED_FACE ( 'NONE', ( #164 ), #3, .T. ) ;
#158 = ORIENTED_EDGE ( 'NONE', *, *, #192, .F. ) ;
#159 = CIRCLE ( 'NONE', #262, 0.09374999999999981959 ) ;
#160 = ORIENTED_EDGE ( 'NONE', *, *, #192, .T. ) ;
#161 = FILL_AREA_STYLE_COLOUR ( '', #253 ) ;
#162 = EDGE_CURVE ( 'NONE', #92, #184, #67, .T. ) ;
#163 = DIRECTION ( 'NONE',  ( -1.000000000000000000, 0.000000000000000000, 0.000000000000000000 ) ) ;
#164 = FACE_OUTER_BOUND ( 'NONE', #14, .T. ) ;
#165 = VECTOR ( 'NONE', #61, 39.37007874015748854 ) ;
#166 = LINE ( 'NONE', #125, #165 ) ;
#167 =( NAMED_UNIT ( * ) PLANE_ANGLE_UNIT ( ) SI_UNIT ( $, .RADIAN. ) );
#168 = MECHANICAL_DESIGN_GEOMETRIC_PRESENTATION_REPRESENTATION (  '', ( #63 ), #124 ) ;
#169 = CARTESIAN_POINT ( 'NONE',  ( 0.09374999999999987510, 2.000000000000000000, 1.148106374200642938E-17 ) ) ;
#170 = DIRECTION ( 'NONE',  ( -1.000000000000000000, -9.106159978880894651E-17, 0.000000000000000000 ) ) ;
#171 = DIRECTION ( 'NONE',  ( -1.454037125404963195E-17, -1.000000000000000000, -0.000000000000000000 ) ) ;
#172 = ORIENTED_EDGE ( 'NONE', *, *, #162, .T. ) ;
#173 = DIMENSIONAL_EXPONENTS ( 1.000000000000000000, 0.000000000000000000, 0.000000000000000000, 0.000000000000000000, 0.000000000000000000, 0.000000000000000000, 0.000000000000000000 ) ;
#174 = DIRECTION ( 'NONE',  ( -1.214063312457127427E-16, 1.000000000000000000, -0.000000000000000000 ) ) ;
#175 = ADVANCED_BREP_SHAPE_REPRESENTATION ( '83820', ( #51, #52, #233 ), #131 ) ;
#176 =( CONVERSION_BASED_UNIT ( 'INCH', #96 ) LENGTH_UNIT ( ) NAMED_UNIT ( #65 ) );
#177 = VERTEX_POINT ( 'NONE', #111 ) ;
#178 = LENGTH_MEASURE_WITH_UNIT ( LENGTH_MEASURE( 0.02539999999999999897 ), #80 );
#179 = SURFACE_SIDE_STYLE ('',( #206 ) ) ;
#180 = DIMENSIONAL_EXPONENTS ( 1.000000000000000000, 0.000000000000000000, 0.000000000000000000, 0.000000000000000000, 0.000000000000000000, 0.000000000000000000, 0.000000000000000000 ) ;
#181 = SURFACE_STYLE_USAGE ( .BOTH. , #179 ) ;
#182 = ADVANCED_FACE ( 'NONE', ( #9 ), #94, .T. ) ;
#183 = ORIENTED_EDGE ( 'NONE', *, *, #246, .T. ) ;
#184 = VERTEX_POINT ( 'NONE', #33 ) ;
#185 = AXIS2_PLACEMENT_3D ( 'NONE', #88, #110, #153 ) ;
#186 = LENGTH_MEASURE_WITH_UNIT ( LENGTH_MEASURE( 0.02539999999999999897 ), #104 );
#187 = FILL_AREA_STYLE_COLOUR ( '', #189 ) ;
#188 = CARTESIAN_POINT ( 'NONE',  ( 5.724555611830564233E-16, 39.37007874015748143, 0.000000000000000000 ) ) ;
#189 = COLOUR_RGB ( '',1.000000000000000000, 0.000000000000000000, 0.000000000000000000 ) ;
#190 =( LENGTH_UNIT ( ) NAMED_UNIT ( * ) SI_UNIT ( $, .METRE. ) );
#191 = DIRECTION ( 'NONE',  ( -1.214063312457127427E-16, 1.000000000000000000, -0.000000000000000000 ) ) ;
#192 = EDGE_CURVE ( 'NONE', #177, #92, #159, .T. ) ;
#193 = CARTESIAN_POINT ( 'NONE',  ( 0.000000000000000000, 0.000000000000000000, 0.000000000000000000 ) ) ;
#194 = ORIENTED_EDGE ( 'NONE', *, *, #162, .F. ) ;
#195 = CARTESIAN_POINT ( 'NONE',  ( 0.000000000000000000, 0.000000000000000000, 0.000000000000000000 ) ) ;
#196 = VERTEX_POINT ( 'NONE', #91 ) ;
#197 = STYLED_ITEM ( 'NONE', ( #18 ), #52 ) ;
#198 = PRODUCT_DEFINITION ( 'UNKNOWN', '', #142, #222 ) ;
#199 = CARTESIAN_POINT ( 'NONE',  ( -6.123233995736763571E-17, 2.000000000000000000, 0.000000000000000000 ) ) ;
#200 =( NAMED_UNIT ( * ) PLANE_ANGLE_UNIT ( ) SI_UNIT ( $, .RADIAN. ) );
#201 = ORIENTED_EDGE ( 'NONE', *, *, #217, .T. ) ;
#202 = APPLICATION_CONTEXT ( 'automotive_design' ) ;
#203 = UNCERTAINTY_MEASURE_WITH_UNIT (LENGTH_MEASURE( 1.000000000000000082E-05 ), #127, 'distance_accuracy_value', 'NONE');
#204 = CIRCLE ( 'NONE', #28, 0.09374999999999981959 ) ;
#205 = FILL_AREA_STYLE ('',( #120 ) ) ;
#206 = SURFACE_STYLE_FILL_AREA ( #205 ) ;
#207 =( NAMED_UNIT ( * ) SI_UNIT ( $, .STERADIAN. ) SOLID_ANGLE_UNIT ( ) );
#208 = EDGE_CURVE ( 'NONE', #256, #242, #150, .T. ) ;
#209 = PRESENTATION_LAYER_ASSIGNMENT (  '', '', ( #23 ) ) ;
#210 = CARTESIAN_POINT ( 'NONE',  ( 0.09374999999999998612, 0.05412658773652724575, 1.148106374200643555E-17 ) ) ;
#211 = AXIS2_PLACEMENT_3D ( 'NONE', #252, #30, #132 ) ;
#212 = CARTESIAN_POINT ( 'NONE',  ( -6.123233995736763571E-17, 2.000000000000000000, 0.000000000000000000 ) ) ;
#213 = PRESENTATION_STYLE_ASSIGNMENT (( #12 ) ) ;
#214 = ORIENTED_EDGE ( 'NONE', *, *, #226, .T. ) ;
#215 = STYLED_ITEM ( 'NONE', ( #42 ), #86 ) ;
#216 = LINE ( 'NONE', #134, #237 ) ;
#217 = EDGE_CURVE ( 'NONE', #177, #196, #216, .T. ) ;
#218 = DIRECTION ( 'NONE',  ( -1.214063312457127427E-16, 1.000000000000000000, -0.000000000000000000 ) ) ;
#219 = PRESENTATION_LAYER_ASSIGNMENT (  '', '', ( #63 ) ) ;
#220 = APPLICATION_PROTOCOL_DEFINITION ( 'draft international standard', 'automotive_design', 1998, #202 ) ;
#221 = ORIENTED_EDGE ( 'NONE', *, *, #208, .T. ) ;
#222 = PRODUCT_DEFINITION_CONTEXT ( 'detailed design', #202, 'design' ) ;
#223 = CLOSED_SHELL ( 'NONE', ( #86, #157, #257 ) ) ;
#224 = AXIS2_PLACEMENT_3D ( 'NONE', #188, #62, #265 ) ;
#225 = PLANE ( 'NONE',  #106 ) ;
#226 = EDGE_CURVE ( 'NONE', #95, #242, #34, .T. ) ;
#227 = EDGE_LOOP ( 'NONE', ( #75, #29, #214 ) ) ;
#228 = MECHANICAL_DESIGN_GEOMETRIC_PRESENTATION_REPRESENTATION (  '', ( #215 ), #48 ) ;
#229 = FACE_OUTER_BOUND ( 'NONE', #227, .T. ) ;
#230 = DIRECTION ( 'NONE',  ( -1.000000000000000000, -9.106159978880894651E-17, 0.000000000000000000 ) ) ;
#231 = SURFACE_STYLE_FILL_AREA ( #64 ) ;
#232 = AXIS2_PLACEMENT_3D ( 'NONE', #57, #248, #245 ) ;
#233 = AXIS2_PLACEMENT_3D ( 'NONE', #119, #102, #38 ) ;
#234 = CARTESIAN_POINT ( 'NONE',  ( 1.750090120941169025E-16, 0.05412658773652723881, 0.000000000000000000 ) ) ;
#235 = CARTESIAN_POINT ( 'NONE',  ( 1.750090120941169025E-16, 0.05412658773652723881, 0.000000000000000000 ) ) ;
#236 = DIRECTION ( 'NONE',  ( -1.214063312457127427E-16, 1.000000000000000000, -0.000000000000000000 ) ) ;
#237 = VECTOR ( 'NONE', #238, 39.37007874015748143 ) ;
#238 = DIRECTION ( 'NONE',  ( -1.214063312457127427E-16, 1.000000000000000000, -0.000000000000000000 ) ) ;
#239 = DIMENSIONAL_EXPONENTS ( 1.000000000000000000, 0.000000000000000000, 0.000000000000000000, 0.000000000000000000, 0.000000000000000000, 0.000000000000000000, 0.000000000000000000 ) ;
#240 = FILL_AREA_STYLE_COLOUR ( '', #117 ) ;
#241 = ADVANCED_FACE ( 'NONE', ( #68 ), #112, .T. ) ;
#242 = VERTEX_POINT ( 'NONE', #31 ) ;
#243 = DIMENSIONAL_EXPONENTS ( 1.000000000000000000, 0.000000000000000000, 0.000000000000000000, 0.000000000000000000, 0.000000000000000000, 0.000000000000000000, 0.000000000000000000 ) ;
#244 =( CONVERSION_BASED_UNIT ( 'INCH', #156 ) LENGTH_UNIT ( ) NAMED_UNIT ( #27 ) );
#245 = DIRECTION ( 'NONE',  ( 1.000000000000000000, 1.214063312457127427E-16, 0.000000000000000000 ) ) ;
#246 = EDGE_CURVE ( 'NONE', #184, #196, #41, .T. ) ;
#247 = AXIS2_PLACEMENT_3D ( 'NONE', #199, #251, #151 ) ;
#248 = DIRECTION ( 'NONE',  ( 1.214063312457127427E-16, -1.000000000000000000, 0.000000000000000000 ) ) ;
#249 = PRESENTATION_STYLE_ASSIGNMENT (( #146 ) ) ;
#250 = AXIS2_PLACEMENT_3D ( 'NONE', #26, #171, #7 ) ;
#251 = DIRECTION ( 'NONE',  ( -1.214063312457127427E-16, 1.000000000000000000, -0.000000000000000000 ) ) ;
#252 = CARTESIAN_POINT ( 'NONE',  ( 7.870206804039944582E-19, 0.05412658773652712779, 0.000000000000000000 ) ) ;
#253 = COLOUR_RGB ( '',0.7921568627450980005, 0.8196078431372548767, 0.9333333333333333481 ) ;
#254 = EDGE_LOOP ( 'NONE', ( #194, #72, #201, #152 ) ) ;
#255 = DIRECTION ( 'NONE',  ( -1.000000000000000000, 0.000000000000000000, 0.000000000000000000 ) ) ;
#256 = VERTEX_POINT ( 'NONE', #195 ) ;
#257 = ADVANCED_FACE ( 'NONE', ( #70 ), #5, .T. ) ;
#258 = EDGE_LOOP ( 'NONE', ( #89, #183 ) ) ;
#259 = UNCERTAINTY_MEASURE_WITH_UNIT (LENGTH_MEASURE( 1.000000000000000082E-05 ), #78, 'distance_accuracy_value', 'NONE');
#260 = SHAPE_DEFINITION_REPRESENTATION ( #90, #175 ) ;
#261 = EDGE_LOOP ( 'NONE', ( #160, #172, #133, #10 ) ) ;
#262 = AXIS2_PLACEMENT_3D ( 'NONE', #235, #174, #170 ) ;
#263 = DIRECTION ( 'NONE',  ( 1.454037125404963195E-17, 1.000000000000000000, 0.000000000000000000 ) ) ;
#264 = FACE_OUTER_BOUND ( 'NONE', #258, .T. ) ;
#265 = DIRECTION ( 'NONE',  ( -1.000000000000000000, 0.000000000000000000, 0.000000000000000000 ) ) ;
ENDSEC;
END-ISO-10303-21;
