ISO-10303-21;
HEADER;
FILE_DESCRIPTION (( 'STEP AP214' ),
    '1' );
FILE_NAME ('Micro_GEM-125-3X.STEP',
    '2021-09-01T19:36:21',
    ( '' ),
    ( '' ),
    'SwSTEP 2.0',
    'SolidWorks 2020',
    '' );
FILE_SCHEMA (( 'AUTOMOTIVE_DESIGN' ));
ENDSEC;

DATA;
#1 = FACE_OUTER_BOUND ( 'NONE', #38, .T. ) ;
#2 = ORIENTED_EDGE ( 'NONE', *, *, #231, .F. ) ;
#3 = DIRECTION ( 'NONE',  ( -1.000000000000000000, 0.0000000000000000000, 0.0000000000000000000 ) ) ;
#4 = ORIENTED_EDGE ( 'NONE', *, *, #103, .F. ) ;
#5 = PRODUCT_DEFINITION_CONTEXT ( 'detailed design', #65, 'design' ) ;
#6 = EDGE_CURVE ( 'NONE', #226, #155, #249, .T. ) ;
#7 = AXIS2_PLACEMENT_3D ( 'NONE', #212, #232, #106 ) ;
#8 = CARTESIAN_POINT ( 'NONE',  ( 0.06243749999999999994, 7.646388452176287375E-18, -7.646388452176290456E-18 ) ) ;
#9 = LENGTH_MEASURE_WITH_UNIT ( LENGTH_MEASURE( 0.02539999999999999897 ), #194 );
#10 = AXIS2_PLACEMENT_3D ( 'NONE', #296, #275, #137 ) ;
#11 = DIMENSIONAL_EXPONENTS ( 1.000000000000000000, 0.0000000000000000000, 0.0000000000000000000, 0.0000000000000000000, 0.0000000000000000000, 0.0000000000000000000, 0.0000000000000000000 ) ;
#12 = SURFACE_SIDE_STYLE ('',( #129 ) ) ;
#13 = ADVANCED_FACE ( 'NONE', ( #253 ), #60, .T. ) ;
#14 = MANIFOLD_SOLID_BREP ( 'Cut-Revolve1', #85 ) ;
#15 = COLOUR_RGB ( '',0.7921568627450980005, 0.8196078431372548767, 0.9333333333333333481 ) ;
#16 = CONICAL_SURFACE ( 'NONE', #244, 0.04750000000000064587, 0.7853981633974466137 ) ;
#17 = ORIENTED_EDGE ( 'NONE', *, *, #267, .F. ) ;
#18 = ORIENTED_EDGE ( 'NONE', *, *, #231, .T. ) ;
#19 = CARTESIAN_POINT ( 'NONE',  ( 0.06250000000000002776, 7.654042494670959086E-18, 1.500000000000000222 ) ) ;
#20 = AXIS2_PLACEMENT_3D ( 'NONE', #121, #115, #26 ) ;
#21 = CIRCLE ( 'NONE', #167, 0.06250000000000002776 ) ;
#22 = ORIENTED_EDGE ( 'NONE', *, *, #110, .T. ) ;
#23 =( CONVERSION_BASED_UNIT ( 'INCH', #230 ) LENGTH_UNIT ( ) NAMED_UNIT ( #102 ) );
#24 = EDGE_CURVE ( 'NONE', #155, #206, #173, .T. ) ;
#25 = CARTESIAN_POINT ( 'NONE',  ( 0.0000000000000000000, 0.0000000000000000000, 1.500000000000000222 ) ) ;
#26 = DIRECTION ( 'NONE',  ( 1.000000000000000000, 0.0000000000000000000, -0.0000000000000000000 ) ) ;
#27 =( GEOMETRIC_REPRESENTATION_CONTEXT ( 3 ) GLOBAL_UNCERTAINTY_ASSIGNED_CONTEXT ( ( #40 ) ) GLOBAL_UNIT_ASSIGNED_CONTEXT ( ( #23, #87, #165 ) ) REPRESENTATION_CONTEXT ( 'NONE', 'WORKASPACE' ) );
#28 = CYLINDRICAL_SURFACE ( 'NONE', #288, 0.06250000000000002776 ) ;
#29 = DIRECTION ( 'NONE',  ( -1.000000000000000000, 0.0000000000000000000, 0.0000000000000000000 ) ) ;
#30 = ORIENTED_EDGE ( 'NONE', *, *, #266, .T. ) ;
#31 = FACE_OUTER_BOUND ( 'NONE', #214, .T. ) ;
#32 =( GEOMETRIC_REPRESENTATION_CONTEXT ( 3 ) GLOBAL_UNCERTAINTY_ASSIGNED_CONTEXT ( ( #290 ) ) GLOBAL_UNIT_ASSIGNED_CONTEXT ( ( #154, #246, #39 ) ) REPRESENTATION_CONTEXT ( 'NONE', 'WORKASPACE' ) );
#33 = LINE ( 'NONE', #51, #64 ) ;
#34 = PRODUCT_DEFINITION_SHAPE ( 'NONE', 'NONE',  #142 ) ;
#35 = DIRECTION ( 'NONE',  ( 1.000000000000000000, 0.0000000000000000000, 0.0000000000000000000 ) ) ;
#36 = ORIENTED_EDGE ( 'NONE', *, *, #267, .T. ) ;
#37 = CONICAL_SURFACE ( 'NONE', #227, 0.04750000000000064587, 0.7853981633974466137 ) ;
#38 = EDGE_LOOP ( 'NONE', ( #277, #83, #229, #77 ) ) ;
#39 =( NAMED_UNIT ( * ) SI_UNIT ( $, .STERADIAN. ) SOLID_ANGLE_UNIT ( ) );
#40 = UNCERTAINTY_MEASURE_WITH_UNIT (LENGTH_MEASURE( 1.000000000000000082E-05 ), #23, 'distance_accuracy_value', 'NONE');
#41 = DIRECTION ( 'NONE',  ( 0.0000000000000000000, 0.0000000000000000000, 1.000000000000000000 ) ) ;
#42 = CARTESIAN_POINT ( 'NONE',  ( 9.364125142994982608E-34, 0.0000000000000000000, 7.646388452176290456E-18 ) ) ;
#43 = ORIENTED_EDGE ( 'NONE', *, *, #280, .F. ) ;
#44 = DIMENSIONAL_EXPONENTS ( 1.000000000000000000, 0.0000000000000000000, 0.0000000000000000000, 0.0000000000000000000, 0.0000000000000000000, 0.0000000000000000000, 0.0000000000000000000 ) ;
#45 = ADVANCED_FACE ( 'NONE', ( #62 ), #204, .T. ) ;
#46 = CARTESIAN_POINT ( 'NONE',  ( 0.0000000000000000000, 0.0000000000000000000, 1.500000000000000222 ) ) ;
#47 = STYLED_ITEM ( 'NONE', ( #66 ), #14 ) ;
#48 = MECHANICAL_DESIGN_GEOMETRIC_PRESENTATION_REPRESENTATION (  '', ( #269 ), #32 ) ;
#49 = DIRECTION ( 'NONE',  ( -1.000000000000000000, 0.0000000000000000000, 0.0000000000000000000 ) ) ;
#50 = CYLINDRICAL_SURFACE ( 'NONE', #111, 0.06243749999999999994 ) ;
#51 = CARTESIAN_POINT ( 'NONE',  ( 0.04750000000000064587, 5.817072295950006528E-18, 1.500000000000000222 ) ) ;
#52 = CIRCLE ( 'NONE', #205, 0.04750000000000064587 ) ;
#53 = CARTESIAN_POINT ( 'NONE',  ( -0.06243749999999999994, 0.0000000000000000000, 1.529277690435258091E-17 ) ) ;
#54 = DIRECTION ( 'NONE',  ( -1.224646799147353700E-16, -0.0000000000000000000, -1.000000000000000000 ) ) ;
#55 = DIRECTION ( 'NONE',  ( -1.224646799147353700E-16, -0.0000000000000000000, -1.000000000000000000 ) ) ;
#56 = SHAPE_DEFINITION_REPRESENTATION ( #34, #223 ) ;
#57 = EDGE_CURVE ( 'NONE', #140, #226, #271, .T. ) ;
#58 = VERTEX_POINT ( 'NONE', #293 ) ;
#59 = EDGE_CURVE ( 'NONE', #251, #58, #84, .T. ) ;
#60 = CONICAL_SURFACE ( 'NONE', #259, 0.06243749999999999994, 0.1745329251994337527 ) ;
#61 = SURFACE_STYLE_USAGE ( .BOTH. , #12 ) ;
#62 = FACE_OUTER_BOUND ( 'NONE', #298, .T. ) ;
#63 = CARTESIAN_POINT ( 'NONE',  ( 0.0000000000000000000, 0.0000000000000000000, 1.500000000000000222 ) ) ;
#64 = VECTOR ( 'NONE', #123, 39.37007874015748854 ) ;
#65 = APPLICATION_CONTEXT ( 'automotive_design' ) ;
#66 = PRESENTATION_STYLE_ASSIGNMENT (( #139 ) ) ;
#67 = ORIENTED_EDGE ( 'NONE', *, *, #201, .T. ) ;
#68 = DIRECTION ( 'NONE',  ( -0.7071067811865462405, 0.0000000000000000000, -0.7071067811865486830 ) ) ;
#69 = AXIS2_PLACEMENT_3D ( 'NONE', #278, #98, #172 ) ;
#70 = LINE ( 'NONE', #117, #151 ) ;
#71 = APPLICATION_CONTEXT ( 'automotive_design' ) ;
#72 = ORIENTED_EDGE ( 'NONE', *, *, #6, .T. ) ;
#73 = DIRECTION ( 'NONE',  ( -1.000000000000000000, 0.0000000000000000000, 1.224646799147353947E-16 ) ) ;
#74 = CARTESIAN_POINT ( 'NONE',  ( 0.0000000000000000000, 0.0000000000000000000, 1.500000000000000222 ) ) ;
#75 = CIRCLE ( 'NONE', #91, 0.06243749999999999994 ) ;
#76 = CARTESIAN_POINT ( 'NONE',  ( 0.0000000000000000000, 0.0000000000000000000, 1.500000000000000222 ) ) ;
#77 = ORIENTED_EDGE ( 'NONE', *, *, #57, .F. ) ;
#78 = DIRECTION ( 'NONE',  ( -1.000000000000000000, 0.0000000000000000000, 1.224646799147353947E-16 ) ) ;
#79 = PRESENTATION_STYLE_ASSIGNMENT (( #61 ) ) ;
#80 = PRODUCT ( 'Micro_GEM-125-3X', 'Micro_GEM-125-3X', '', ( #130 ) ) ;
#81 = VECTOR ( 'NONE', #282, 39.37007874015748143 ) ;
#82 =( NAMED_UNIT ( * ) SI_UNIT ( $, .STERADIAN. ) SOLID_ANGLE_UNIT ( ) );
#83 = ORIENTED_EDGE ( 'NONE', *, *, #280, .T. ) ;
#84 = CIRCLE ( 'NONE', #10, 0.06243749999999999994 ) ;
#85 = CLOSED_SHELL ( 'NONE', ( #211, #118, #153, #45, #180, #216, #93, #13, #143, #99 ) ) ;
#86 = CARTESIAN_POINT ( 'NONE',  ( 6.127574818941430966E-17, 0.0000000000000000000, 0.5003544551137262264 ) ) ;
#87 =( NAMED_UNIT ( * ) PLANE_ANGLE_UNIT ( ) SI_UNIT ( $, .RADIAN. ) );
#88 = DIRECTION ( 'NONE',  ( -1.000000000000000000, 0.0000000000000000000, 1.224646799147353947E-16 ) ) ;
#89 = DIRECTION ( 'NONE',  ( -1.000000000000000000, 0.0000000000000000000, 0.0000000000000000000 ) ) ;
#90 = FACE_OUTER_BOUND ( 'NONE', #198, .T. ) ;
#91 = AXIS2_PLACEMENT_3D ( 'NONE', #188, #240, #29 ) ;
#92 = EDGE_LOOP ( 'NONE', ( #43, #108, #283, #109 ) ) ;
#93 = ADVANCED_FACE ( 'NONE', ( #272 ), #16, .T. ) ;
#94 = CARTESIAN_POINT ( 'NONE',  ( 0.06250000000000002776, 7.654042494670959086E-18, 1.485000000000000764 ) ) ;
#95 = DIRECTION ( 'NONE',  ( -1.000000000000000000, 0.0000000000000000000, 0.0000000000000000000 ) ) ;
#96 = CARTESIAN_POINT ( 'NONE',  ( -0.06243749999999994443, 7.646388452176287375E-18, 0.5000000000000000000 ) ) ;
#97 = CIRCLE ( 'NONE', #238, 0.04750000000000064587 ) ;
#98 = DIRECTION ( 'NONE',  ( -1.224646799147353700E-16, -0.0000000000000000000, -1.000000000000000000 ) ) ;
#99 = ADVANCED_FACE ( 'NONE', ( #297 ), #141, .F. ) ;
#100 = APPLICATION_PROTOCOL_DEFINITION ( 'draft international standard', 'automotive_design', 1998, #65 ) ;
#101 = COLOUR_RGB ( '',0.7921568627450980005, 0.8196078431372548767, 0.9333333333333333481 ) ;
#102 = DIMENSIONAL_EXPONENTS ( 1.000000000000000000, 0.0000000000000000000, 0.0000000000000000000, 0.0000000000000000000, 0.0000000000000000000, 0.0000000000000000000, 0.0000000000000000000 ) ;
#103 = EDGE_CURVE ( 'NONE', #289, #206, #247, .T. ) ;
#104 = UNCERTAINTY_MEASURE_WITH_UNIT (LENGTH_MEASURE( 1.000000000000000082E-05 ), #221, 'distance_accuracy_value', 'NONE');
#105 = VECTOR ( 'NONE', #281, 39.37007874015748854 ) ;
#106 = DIRECTION ( 'NONE',  ( 1.000000000000000000, 0.0000000000000000000, -0.0000000000000000000 ) ) ;
#107 = ORIENTED_EDGE ( 'NONE', *, *, #166, .T. ) ;
#108 = ORIENTED_EDGE ( 'NONE', *, *, #110, .F. ) ;
#109 = ORIENTED_EDGE ( 'NONE', *, *, #166, .F. ) ;
#110 = EDGE_CURVE ( 'NONE', #140, #191, #97, .T. ) ;
#111 = AXIS2_PLACEMENT_3D ( 'NONE', #187, #217, #78 ) ;
#112 = DIRECTION ( 'NONE',  ( 1.000000000000000000, 0.0000000000000000000, 0.0000000000000000000 ) ) ;
#113 = CARTESIAN_POINT ( 'NONE',  ( -0.04750000000000064587, 0.0000000000000000000, 1.500000000000000222 ) ) ;
#114 = EDGE_LOOP ( 'NONE', ( #235, #224, #273, #17 ) ) ;
#115 = DIRECTION ( 'NONE',  ( 0.0000000000000000000, 0.0000000000000000000, 1.000000000000000000 ) ) ;
#116 = ORIENTED_EDGE ( 'NONE', *, *, #147, .F. ) ;
#117 = CARTESIAN_POINT ( 'NONE',  ( -0.06243749999999999994, 0.0000000000000000000, 7.646388452176290456E-18 ) ) ;
#118 = ADVANCED_FACE ( 'NONE', ( #160 ), #222, .T. ) ;
#119 = DIRECTION ( 'NONE',  ( 1.000000000000000000, 0.0000000000000000000, 0.0000000000000000000 ) ) ;
#120 = EDGE_LOOP ( 'NONE', ( #170, #200, #36, #30 ) ) ;
#121 = CARTESIAN_POINT ( 'NONE',  ( 0.0000000000000000000, 0.0000000000000000000, 1.500000000000000222 ) ) ;
#122 = AXIS2_PLACEMENT_3D ( 'NONE', #125, #225, #197 ) ;
#123 = DIRECTION ( 'NONE',  ( 0.7071067811865462405, 8.659560562354916834E-17, -0.7071067811865486830 ) ) ;
#124 = VECTOR ( 'NONE', #234, 39.37007874015748143 ) ;
#125 = CARTESIAN_POINT ( 'NONE',  ( 0.0000000000000000000, 0.0000000000000000000, 0.0000000000000000000 ) ) ;
#126 = EDGE_CURVE ( 'NONE', #196, #203, #182, .T. ) ;
#127 = MECHANICAL_DESIGN_GEOMETRIC_PRESENTATION_REPRESENTATION (  '', ( #47 ), #27 ) ;
#128 = PRODUCT_DEFINITION_FORMATION_WITH_SPECIFIED_SOURCE ( 'ANY', '', #80, .NOT_KNOWN. ) ;
#129 = SURFACE_STYLE_FILL_AREA ( #286 ) ;
#130 = PRODUCT_CONTEXT ( 'NONE', #71, 'mechanical' ) ;
#131 = AXIS2_PLACEMENT_3D ( 'NONE', #220, #185, #279 ) ;
#132 = DIRECTION ( 'NONE',  ( 1.000000000000000000, 0.0000000000000000000, 0.0000000000000000000 ) ) ;
#133 = EDGE_LOOP ( 'NONE', ( #164, #67 ) ) ;
#134 = ORIENTED_EDGE ( 'NONE', *, *, #291, .T. ) ;
#135 = DIRECTION ( 'NONE',  ( -1.224646799147353700E-16, -0.0000000000000000000, -1.000000000000000000 ) ) ;
#136 = EDGE_LOOP ( 'NONE', ( #138, #18, #213, #116 ) ) ;
#137 = DIRECTION ( 'NONE',  ( -1.000000000000000000, 0.0000000000000000000, 0.0000000000000000000 ) ) ;
#138 = ORIENTED_EDGE ( 'NONE', *, *, #59, .T. ) ;
#139 = SURFACE_STYLE_USAGE ( .BOTH. , #228 ) ;
#140 = VERTEX_POINT ( 'NONE', #148 ) ;
#141 = PLANE ( 'NONE',  #7 ) ;
#142 = PRODUCT_DEFINITION ( 'UNKNOWN', '', #128, #5 ) ;
#143 = ADVANCED_FACE ( 'NONE', ( #90 ), #50, .T. ) ;
#144 = ORIENTED_EDGE ( 'NONE', *, *, #103, .T. ) ;
#145 = CARTESIAN_POINT ( 'NONE',  ( 0.06250000000000008327, 7.654042494670966789E-18, 0.5003544551137262264 ) ) ;
#146 = DIRECTION ( 'NONE',  ( -0.0000000000000000000, -0.0000000000000000000, -1.000000000000000000 ) ) ;
#147 = EDGE_CURVE ( 'NONE', #251, #196, #70, .T. ) ;
#148 = CARTESIAN_POINT ( 'NONE',  ( -0.04750000000000064587, 0.0000000000000000000, 1.500000000000000222 ) ) ;
#149 = CARTESIAN_POINT ( 'NONE',  ( 0.0000000000000000000, 0.0000000000000000000, 0.0000000000000000000 ) ) ;
#150 = CARTESIAN_POINT ( 'NONE',  ( 0.06243750000000006239, 0.0000000000000000000, 0.5000000000000000000 ) ) ;
#151 = VECTOR ( 'NONE', #54, 39.37007874015748143 ) ;
#152 =( NAMED_UNIT ( * ) PLANE_ANGLE_UNIT ( ) SI_UNIT ( $, .RADIAN. ) );
#153 = ADVANCED_FACE ( 'NONE', ( #1 ), #37, .T. ) ;
#154 =( CONVERSION_BASED_UNIT ( 'INCH', #156 ) LENGTH_UNIT ( ) NAMED_UNIT ( #11 ) );
#155 = VERTEX_POINT ( 'NONE', #171 ) ;
#156 = LENGTH_MEASURE_WITH_UNIT ( LENGTH_MEASURE( 0.02539999999999999897 ), #245 );
#157 = AXIS2_PLACEMENT_3D ( 'NONE', #149, #242, #73 ) ;
#158 = EDGE_CURVE ( 'NONE', #191, #140, #52, .T. ) ;
#159 = ORIENTED_EDGE ( 'NONE', *, *, #147, .T. ) ;
#160 = FACE_OUTER_BOUND ( 'NONE', #114, .T. ) ;
#161 = ORIENTED_EDGE ( 'NONE', *, *, #6, .F. ) ;
#162 = EDGE_LOOP ( 'NONE', ( #4, #107, #72, #233 ) ) ;
#163 =( LENGTH_UNIT ( ) NAMED_UNIT ( * ) SI_UNIT ( $, .METRE. ) );
#164 = ORIENTED_EDGE ( 'NONE', *, *, #126, .T. ) ;
#165 =( NAMED_UNIT ( * ) SI_UNIT ( $, .STERADIAN. ) SOLID_ANGLE_UNIT ( ) );
#166 = EDGE_CURVE ( 'NONE', #289, #226, #264, .T. ) ;
#167 = AXIS2_PLACEMENT_3D ( 'NONE', #237, #55, #257 ) ;
#168 = DIRECTION ( 'NONE',  ( 0.0000000000000000000, 0.0000000000000000000, -1.000000000000000000 ) ) ;
#169 = CARTESIAN_POINT ( 'NONE',  ( -0.06250000000000002776, 0.0000000000000000000, 1.485000000000000764 ) ) ;
#170 = ORIENTED_EDGE ( 'NONE', *, *, #209, .F. ) ;
#171 = CARTESIAN_POINT ( 'NONE',  ( -0.06249999999999996531, 0.0000000000000000000, 0.5003544551137262264 ) ) ;
#172 = DIRECTION ( 'NONE',  ( -1.000000000000000000, 0.0000000000000000000, 1.224646799147353947E-16 ) ) ;
#173 = CIRCLE ( 'NONE', #192, 0.06250000000000002776 ) ;
#174 = CARTESIAN_POINT ( 'NONE',  ( 0.06243749999999999994, 7.646388452176287375E-18, 0.0000000000000000000 ) ) ;
#175 = ORIENTED_EDGE ( 'NONE', *, *, #177, .T. ) ;
#176 = CARTESIAN_POINT ( 'NONE',  ( -0.06243749999999994443, 7.650215473423623230E-18, 0.5000000000000000000 ) ) ;
#177 = EDGE_CURVE ( 'NONE', #58, #251, #75, .T. ) ;
#178 = FILL_AREA_STYLE_COLOUR ( '', #101 ) ;
#179 = FILL_AREA_STYLE ('',( #274 ) ) ;
#180 = ADVANCED_FACE ( 'NONE', ( #218 ), #28, .T. ) ;
#181 = DIRECTION ( 'NONE',  ( 1.224646799147353700E-16, 0.0000000000000000000, 1.000000000000000000 ) ) ;
#182 = CIRCLE ( 'NONE', #268, 0.06243749999999999994 ) ;
#183 = DIRECTION ( 'NONE',  ( -0.0000000000000000000, -0.0000000000000000000, -1.000000000000000000 ) ) ;
#184 = ORIENTED_EDGE ( 'NONE', *, *, #201, .F. ) ;
#185 = DIRECTION ( 'NONE',  ( 0.0000000000000000000, 0.0000000000000000000, -1.000000000000000000 ) ) ;
#186 = CARTESIAN_POINT ( 'NONE',  ( 0.0000000000000000000, 0.0000000000000000000, 1.485000000000000764 ) ) ;
#187 = CARTESIAN_POINT ( 'NONE',  ( 0.0000000000000000000, 0.0000000000000000000, 0.0000000000000000000 ) ) ;
#188 = CARTESIAN_POINT ( 'NONE',  ( 6.123233995736768501E-17, 0.0000000000000000000, 0.5000000000000000000 ) ) ;
#189 = LINE ( 'NONE', #8, #81 ) ;
#190 = ORIENTED_EDGE ( 'NONE', *, *, #158, .T. ) ;
#191 = VERTEX_POINT ( 'NONE', #299 ) ;
#192 = AXIS2_PLACEMENT_3D ( 'NONE', #86, #210, #236 ) ;
#193 = VECTOR ( 'NONE', #243, 39.37007874015748143 ) ;
#194 =( LENGTH_UNIT ( ) NAMED_UNIT ( * ) SI_UNIT ( $, .METRE. ) );
#195 = DIRECTION ( 'NONE',  ( 0.0000000000000000000, 0.0000000000000000000, -1.000000000000000000 ) ) ;
#196 = VERTEX_POINT ( 'NONE', #53 ) ;
#197 = DIRECTION ( 'NONE',  ( 1.000000000000000000, 0.0000000000000000000, 0.0000000000000000000 ) ) ;
#198 = EDGE_LOOP ( 'NONE', ( #2, #175, #159, #184 ) ) ;
#199 = AXIS2_PLACEMENT_3D ( 'NONE', #25, #183, #89 ) ;
#200 = ORIENTED_EDGE ( 'NONE', *, *, #177, .F. ) ;
#201 = EDGE_CURVE ( 'NONE', #203, #196, #287, .T. ) ;
#202 = CARTESIAN_POINT ( 'NONE',  ( 6.123233995736768501E-17, 0.0000000000000000000, 0.5000000000000000000 ) ) ;
#203 = VERTEX_POINT ( 'NONE', #174 ) ;
#204 = CYLINDRICAL_SURFACE ( 'NONE', #199, 0.06250000000000002776 ) ;
#205 = AXIS2_PLACEMENT_3D ( 'NONE', #76, #215, #119 ) ;
#206 = VERTEX_POINT ( 'NONE', #145 ) ;
#207 = PRESENTATION_LAYER_ASSIGNMENT (  '', '', ( #269 ) ) ;
#208 = CARTESIAN_POINT ( 'NONE',  ( 6.123233995736768501E-17, 0.0000000000000000000, 0.5000000000000000000 ) ) ;
#209 = EDGE_CURVE ( 'NONE', #251, #155, #260, .T. ) ;
#210 = DIRECTION ( 'NONE',  ( -1.224646799147353700E-16, -0.0000000000000000000, -1.000000000000000000 ) ) ;
#211 = ADVANCED_FACE ( 'NONE', ( #261 ), #276, .T. ) ;
#212 = CARTESIAN_POINT ( 'NONE',  ( 0.0000000000000000000, 0.0000000000000000000, 0.0000000000000000000 ) ) ;
#213 = ORIENTED_EDGE ( 'NONE', *, *, #126, .F. ) ;
#214 = EDGE_LOOP ( 'NONE', ( #22, #190 ) ) ;
#215 = DIRECTION ( 'NONE',  ( 0.0000000000000000000, 0.0000000000000000000, 1.000000000000000000 ) ) ;
#216 = ADVANCED_FACE ( 'NONE', ( #31 ), #258, .T. ) ;
#217 = DIRECTION ( 'NONE',  ( -1.224646799147353700E-16, -0.0000000000000000000, -1.000000000000000000 ) ) ;
#218 = FACE_OUTER_BOUND ( 'NONE', #162, .T. ) ;
#219 = DIRECTION ( 'NONE',  ( 0.0000000000000000000, 0.0000000000000000000, -1.000000000000000000 ) ) ;
#220 = CARTESIAN_POINT ( 'NONE',  ( 0.0000000000000000000, 0.0000000000000000000, 1.485000000000000764 ) ) ;
#221 =( CONVERSION_BASED_UNIT ( 'INCH', #9 ) LENGTH_UNIT ( ) NAMED_UNIT ( #44 ) );
#222 = CONICAL_SURFACE ( 'NONE', #254, 0.06243749999999999994, 0.1745329251994337527 ) ;
#223 = ADVANCED_BREP_SHAPE_REPRESENTATION ( 'Micro_GEM-125-3X', ( #14, #122 ), #265 ) ;
#224 = ORIENTED_EDGE ( 'NONE', *, *, #209, .T. ) ;
#225 = DIRECTION ( 'NONE',  ( 0.0000000000000000000, 0.0000000000000000000, 1.000000000000000000 ) ) ;
#226 = VERTEX_POINT ( 'NONE', #169 ) ;
#227 = AXIS2_PLACEMENT_3D ( 'NONE', #241, #219, #95 ) ;
#228 = SURFACE_SIDE_STYLE ('',( #256 ) ) ;
#229 = ORIENTED_EDGE ( 'NONE', *, *, #291, .F. ) ;
#230 = LENGTH_MEASURE_WITH_UNIT ( LENGTH_MEASURE( 0.02539999999999999897 ), #163 );
#231 = EDGE_CURVE ( 'NONE', #58, #203, #189, .T. ) ;
#232 = DIRECTION ( 'NONE',  ( 0.0000000000000000000, 0.0000000000000000000, 1.000000000000000000 ) ) ;
#233 = ORIENTED_EDGE ( 'NONE', *, *, #266, .F. ) ;
#234 = DIRECTION ( 'NONE',  ( -0.0000000000000000000, -0.0000000000000000000, -1.000000000000000000 ) ) ;
#235 = ORIENTED_EDGE ( 'NONE', *, *, #59, .F. ) ;
#236 = DIRECTION ( 'NONE',  ( 1.000000000000000000, 0.0000000000000000000, 0.0000000000000000000 ) ) ;
#237 = CARTESIAN_POINT ( 'NONE',  ( 6.127574818941430966E-17, 0.0000000000000000000, 0.5003544551137262264 ) ) ;
#238 = AXIS2_PLACEMENT_3D ( 'NONE', #63, #41, #112 ) ;
#239 = AXIS2_PLACEMENT_3D ( 'NONE', #186, #195, #35 ) ;
#240 = DIRECTION ( 'NONE',  ( -1.224646799147353700E-16, -0.0000000000000000000, -1.000000000000000000 ) ) ;
#241 = CARTESIAN_POINT ( 'NONE',  ( 0.0000000000000000000, 0.0000000000000000000, 1.500000000000000222 ) ) ;
#242 = DIRECTION ( 'NONE',  ( -1.224646799147353700E-16, -0.0000000000000000000, -1.000000000000000000 ) ) ;
#243 = DIRECTION ( 'NONE',  ( 0.1736481776669312471, 0.0000000000000000000, 0.9848077530122077983 ) ) ;
#244 = AXIS2_PLACEMENT_3D ( 'NONE', #46, #168, #49 ) ;
#245 =( LENGTH_UNIT ( ) NAMED_UNIT ( * ) SI_UNIT ( $, .METRE. ) );
#246 =( NAMED_UNIT ( * ) PLANE_ANGLE_UNIT ( ) SI_UNIT ( $, .RADIAN. ) );
#247 = LINE ( 'NONE', #19, #294 ) ;
#248 = VECTOR ( 'NONE', #68, 39.37007874015748854 ) ;
#249 = LINE ( 'NONE', #262, #124 ) ;
#250 = DIRECTION ( 'NONE',  ( 1.224646799147353700E-16, 0.0000000000000000000, 1.000000000000000000 ) ) ;
#251 = VERTEX_POINT ( 'NONE', #176 ) ;
#252 = ORIENTED_EDGE ( 'NONE', *, *, #24, .F. ) ;
#253 = FACE_OUTER_BOUND ( 'NONE', #120, .T. ) ;
#254 = AXIS2_PLACEMENT_3D ( 'NONE', #208, #250, #295 ) ;
#255 = CIRCLE ( 'NONE', #239, 0.06250000000000002776 ) ;
#256 = SURFACE_STYLE_FILL_AREA ( #179 ) ;
#257 = DIRECTION ( 'NONE',  ( 1.000000000000000000, 0.0000000000000000000, 0.0000000000000000000 ) ) ;
#258 = PLANE ( 'NONE',  #20 ) ;
#259 = AXIS2_PLACEMENT_3D ( 'NONE', #202, #181, #132 ) ;
#260 = LINE ( 'NONE', #96, #105 ) ;
#261 = FACE_OUTER_BOUND ( 'NONE', #136, .T. ) ;
#262 = CARTESIAN_POINT ( 'NONE',  ( -0.06250000000000002776, 0.0000000000000000000, 1.500000000000000222 ) ) ;
#263 = LINE ( 'NONE', #150, #193 ) ;
#264 = CIRCLE ( 'NONE', #131, 0.06250000000000002776 ) ;
#265 =( GEOMETRIC_REPRESENTATION_CONTEXT ( 3 ) GLOBAL_UNCERTAINTY_ASSIGNED_CONTEXT ( ( #104 ) ) GLOBAL_UNIT_ASSIGNED_CONTEXT ( ( #221, #152, #82 ) ) REPRESENTATION_CONTEXT ( 'NONE', 'WORKASPACE' ) );
#266 = EDGE_CURVE ( 'NONE', #206, #155, #21, .T. ) ;
#267 = EDGE_CURVE ( 'NONE', #58, #206, #263, .T. ) ;
#268 = AXIS2_PLACEMENT_3D ( 'NONE', #42, #135, #88 ) ;
#269 = STYLED_ITEM ( 'NONE', ( #79 ), #223 ) ;
#270 = PRODUCT_RELATED_PRODUCT_CATEGORY ( 'part', '', ( #80 ) ) ;
#271 = LINE ( 'NONE', #113, #248 ) ;
#272 = FACE_OUTER_BOUND ( 'NONE', #92, .T. ) ;
#273 = ORIENTED_EDGE ( 'NONE', *, *, #24, .T. ) ;
#274 = FILL_AREA_STYLE_COLOUR ( '', #15 ) ;
#275 = DIRECTION ( 'NONE',  ( -1.224646799147353700E-16, -0.0000000000000000000, -1.000000000000000000 ) ) ;
#276 = CYLINDRICAL_SURFACE ( 'NONE', #157, 0.06243749999999999994 ) ;
#277 = ORIENTED_EDGE ( 'NONE', *, *, #158, .F. ) ;
#278 = CARTESIAN_POINT ( 'NONE',  ( 9.364125142994982608E-34, 0.0000000000000000000, 7.646388452176290456E-18 ) ) ;
#279 = DIRECTION ( 'NONE',  ( 1.000000000000000000, 0.0000000000000000000, 0.0000000000000000000 ) ) ;
#280 = EDGE_CURVE ( 'NONE', #191, #289, #33, .T. ) ;
#281 = DIRECTION ( 'NONE',  ( -0.1736481776669310251, 2.126576849575781468E-17, 0.9848077530122080203 ) ) ;
#282 = DIRECTION ( 'NONE',  ( -1.224646799147353700E-16, -0.0000000000000000000, -1.000000000000000000 ) ) ;
#283 = ORIENTED_EDGE ( 'NONE', *, *, #57, .T. ) ;
#284 = PRESENTATION_LAYER_ASSIGNMENT (  '', '', ( #47 ) ) ;
#285 = APPLICATION_PROTOCOL_DEFINITION ( 'draft international standard', 'automotive_design', 1998, #71 ) ;
#286 = FILL_AREA_STYLE ('',( #178 ) ) ;
#287 = CIRCLE ( 'NONE', #69, 0.06243749999999999994 ) ;
#288 = AXIS2_PLACEMENT_3D ( 'NONE', #74, #146, #3 ) ;
#289 = VERTEX_POINT ( 'NONE', #94 ) ;
#290 = UNCERTAINTY_MEASURE_WITH_UNIT (LENGTH_MEASURE( 1.000000000000000082E-05 ), #154, 'distance_accuracy_value', 'NONE');
#291 = EDGE_CURVE ( 'NONE', #226, #289, #255, .T. ) ;
#292 = DIRECTION ( 'NONE',  ( -0.0000000000000000000, -0.0000000000000000000, -1.000000000000000000 ) ) ;
#293 = CARTESIAN_POINT ( 'NONE',  ( 0.06243750000000006239, 0.0000000000000000000, 0.5000000000000000000 ) ) ;
#294 = VECTOR ( 'NONE', #292, 39.37007874015748143 ) ;
#295 = DIRECTION ( 'NONE',  ( 1.000000000000000000, 0.0000000000000000000, 0.0000000000000000000 ) ) ;
#296 = CARTESIAN_POINT ( 'NONE',  ( 6.123233995736768501E-17, 0.0000000000000000000, 0.5000000000000000000 ) ) ;
#297 = FACE_OUTER_BOUND ( 'NONE', #133, .T. ) ;
#298 = EDGE_LOOP ( 'NONE', ( #134, #144, #252, #161 ) ) ;
#299 = CARTESIAN_POINT ( 'NONE',  ( 0.04750000000000064587, 6.735557395310483192E-18, 1.500000000000000222 ) ) ;
ENDSEC;
END-ISO-10303-21;
