ISO-10303-21;
HEADER;
FILE_DESCRIPTION (( 'STEP AP214' ),
    '1' );
FILE_NAME ('Micro_GEM-125-2X.STEP',
    '2021-09-01T19:33:30',
    ( '' ),
    ( '' ),
    'SwSTEP 2.0',
    'SolidWorks 2020',
    '' );
FILE_SCHEMA (( 'AUTOMOTIVE_DESIGN' ));
ENDSEC;

DATA;
#1 =( NAMED_UNIT ( * ) PLANE_ANGLE_UNIT ( ) SI_UNIT ( $, .RADIAN. ) );
#2 = DIRECTION ( 'NONE',  ( -1.000000000000000000, 0.0000000000000000000, 0.0000000000000000000 ) ) ;
#3 = DIRECTION ( 'NONE',  ( 0.0000000000000000000, 0.0000000000000000000, 1.000000000000000000 ) ) ;
#4 = PRESENTATION_STYLE_ASSIGNMENT (( #24 ) ) ;
#5 = CONICAL_SURFACE ( 'NONE', #231, 0.06243749999999999994, 0.1745329251994337527 ) ;
#6 = AXIS2_PLACEMENT_3D ( 'NONE', #187, #215, #296 ) ;
#7 = DIRECTION ( 'NONE',  ( -1.224646799147353700E-16, -0.0000000000000000000, -1.000000000000000000 ) ) ;
#8 = DIRECTION ( 'NONE',  ( 1.224646799147353700E-16, 0.0000000000000000000, 1.000000000000000000 ) ) ;
#9 = ORIENTED_EDGE ( 'NONE', *, *, #52, .F. ) ;
#10 = LINE ( 'NONE', #287, #51 ) ;
#11 = PLANE ( 'NONE',  #158 ) ;
#12 = AXIS2_PLACEMENT_3D ( 'NONE', #237, #122, #170 ) ;
#13 = DIRECTION ( 'NONE',  ( 0.0000000000000000000, 0.0000000000000000000, -1.000000000000000000 ) ) ;
#14 = VERTEX_POINT ( 'NONE', #154 ) ;
#15 = CARTESIAN_POINT ( 'NONE',  ( 0.04750000000000064587, 5.817072295950006528E-18, 1.500000000000000222 ) ) ;
#16 = EDGE_CURVE ( 'NONE', #14, #268, #38, .T. ) ;
#17 = FACE_OUTER_BOUND ( 'NONE', #67, .T. ) ;
#18 = DIRECTION ( 'NONE',  ( 1.224646799147353700E-16, 0.0000000000000000000, 1.000000000000000000 ) ) ;
#19 = DIRECTION ( 'NONE',  ( 1.000000000000000000, 0.0000000000000000000, 0.0000000000000000000 ) ) ;
#20 = CIRCLE ( 'NONE', #26, 0.06243749999999999994 ) ;
#21 =( GEOMETRIC_REPRESENTATION_CONTEXT ( 3 ) GLOBAL_UNCERTAINTY_ASSIGNED_CONTEXT ( ( #266 ) ) GLOBAL_UNIT_ASSIGNED_CONTEXT ( ( #165, #298, #235 ) ) REPRESENTATION_CONTEXT ( 'NONE', 'WORKASPACE' ) );
#22 = FILL_AREA_STYLE_COLOUR ( '', #103 ) ;
#23 = LENGTH_MEASURE_WITH_UNIT ( LENGTH_MEASURE( 0.02539999999999999897 ), #185 );
#24 = SURFACE_STYLE_USAGE ( .BOTH. , #78 ) ;
#25 =( CONVERSION_BASED_UNIT ( 'INCH', #23 ) LENGTH_UNIT ( ) NAMED_UNIT ( #34 ) );
#26 = AXIS2_PLACEMENT_3D ( 'NONE', #69, #7, #111 ) ;
#27 = APPLICATION_CONTEXT ( 'automotive_design' ) ;
#28 = EDGE_CURVE ( 'NONE', #173, #112, #66, .T. ) ;
#29 = ORIENTED_EDGE ( 'NONE', *, *, #113, .T. ) ;
#30 = AXIS2_PLACEMENT_3D ( 'NONE', #144, #101, #118 ) ;
#31 = ORIENTED_EDGE ( 'NONE', *, *, #253, .T. ) ;
#32 = ADVANCED_FACE ( 'NONE', ( #132 ), #11, .T. ) ;
#33 = DIRECTION ( 'NONE',  ( 0.0000000000000000000, 0.0000000000000000000, -1.000000000000000000 ) ) ;
#34 = DIMENSIONAL_EXPONENTS ( 1.000000000000000000, 0.0000000000000000000, 0.0000000000000000000, 0.0000000000000000000, 0.0000000000000000000, 0.0000000000000000000, 0.0000000000000000000 ) ;
#35 = VERTEX_POINT ( 'NONE', #246 ) ;
#36 = DIRECTION ( 'NONE',  ( -0.0000000000000000000, -0.0000000000000000000, -1.000000000000000000 ) ) ;
#37 = CONICAL_SURFACE ( 'NONE', #272, 0.06243749999999999994, 0.1745329251994337527 ) ;
#38 = LINE ( 'NONE', #292, #242 ) ;
#39 = PRODUCT_DEFINITION_CONTEXT ( 'detailed design', #81, 'design' ) ;
#40 = ORIENTED_EDGE ( 'NONE', *, *, #186, .F. ) ;
#41 = ORIENTED_EDGE ( 'NONE', *, *, #189, .F. ) ;
#42 = FACE_OUTER_BOUND ( 'NONE', #109, .T. ) ;
#43 = CIRCLE ( 'NONE', #50, 0.06243749999999999994 ) ;
#44 = ADVANCED_FACE ( 'NONE', ( #42 ), #135, .T. ) ;
#45 =( GEOMETRIC_REPRESENTATION_CONTEXT ( 3 ) GLOBAL_UNCERTAINTY_ASSIGNED_CONTEXT ( ( #289 ) ) GLOBAL_UNIT_ASSIGNED_CONTEXT ( ( #169, #280, #238 ) ) REPRESENTATION_CONTEXT ( 'NONE', 'WORKASPACE' ) );
#46 = CARTESIAN_POINT ( 'NONE',  ( 0.0000000000000000000, 0.0000000000000000000, 1.500000000000000222 ) ) ;
#47 = DIRECTION ( 'NONE',  ( 1.000000000000000000, 0.0000000000000000000, 0.0000000000000000000 ) ) ;
#48 = CARTESIAN_POINT ( 'NONE',  ( 6.123233995736768501E-17, 0.0000000000000000000, 0.5000000000000000000 ) ) ;
#49 = DIRECTION ( 'NONE',  ( -1.224646799147353700E-16, -0.0000000000000000000, -1.000000000000000000 ) ) ;
#50 = AXIS2_PLACEMENT_3D ( 'NONE', #212, #49, #97 ) ;
#51 = VECTOR ( 'NONE', #114, 39.37007874015748854 ) ;
#52 = EDGE_CURVE ( 'NONE', #112, #63, #182, .T. ) ;
#53 = DIRECTION ( 'NONE',  ( -0.0000000000000000000, -0.0000000000000000000, -1.000000000000000000 ) ) ;
#54 = LENGTH_MEASURE_WITH_UNIT ( LENGTH_MEASURE( 0.02539999999999999897 ), #218 );
#55 = FILL_AREA_STYLE_COLOUR ( '', #259 ) ;
#56 = PRODUCT_CONTEXT ( 'NONE', #27, 'mechanical' ) ;
#57 = EDGE_CURVE ( 'NONE', #35, #268, #20, .T. ) ;
#58 = VECTOR ( 'NONE', #71, 39.37007874015748143 ) ;
#59 = AXIS2_PLACEMENT_3D ( 'NONE', #124, #3, #145 ) ;
#60 = ADVANCED_FACE ( 'NONE', ( #198 ), #5, .T. ) ;
#61 = CONICAL_SURFACE ( 'NONE', #249, 0.04750000000000064587, 0.7853981633974466137 ) ;
#62 = CARTESIAN_POINT ( 'NONE',  ( 0.0000000000000000000, 0.0000000000000000000, 1.485000000000000764 ) ) ;
#63 = VERTEX_POINT ( 'NONE', #279 ) ;
#64 = PRODUCT_DEFINITION_SHAPE ( 'NONE', 'NONE',  #92 ) ;
#65 = ADVANCED_FACE ( 'NONE', ( #104 ), #234, .T. ) ;
#66 = CIRCLE ( 'NONE', #216, 0.06250000000000002776 ) ;
#67 = EDGE_LOOP ( 'NONE', ( #29, #106 ) ) ;
#68 = ORIENTED_EDGE ( 'NONE', *, *, #189, .T. ) ;
#69 = CARTESIAN_POINT ( 'NONE',  ( 9.364125142994982608E-34, 0.0000000000000000000, 7.646388452176290456E-18 ) ) ;
#70 = CIRCLE ( 'NONE', #12, 0.06243749999999999994 ) ;
#71 = DIRECTION ( 'NONE',  ( -1.224646799147353700E-16, -0.0000000000000000000, -1.000000000000000000 ) ) ;
#72 = SURFACE_STYLE_FILL_AREA ( #99 ) ;
#73 = ADVANCED_BREP_SHAPE_REPRESENTATION ( 'Micro_GEM-125-2X', ( #210, #59 ), #21 ) ;
#74 = DIRECTION ( 'NONE',  ( 0.0000000000000000000, 0.0000000000000000000, 1.000000000000000000 ) ) ;
#75 = CARTESIAN_POINT ( 'NONE',  ( 6.127574818941430966E-17, 0.0000000000000000000, 0.5003544551137262264 ) ) ;
#76 = AXIS2_PLACEMENT_3D ( 'NONE', #297, #254, #47 ) ;
#77 =( GEOMETRIC_REPRESENTATION_CONTEXT ( 3 ) GLOBAL_UNCERTAINTY_ASSIGNED_CONTEXT ( ( #88 ) ) GLOBAL_UNIT_ASSIGNED_CONTEXT ( ( #25, #1, #108 ) ) REPRESENTATION_CONTEXT ( 'NONE', 'WORKASPACE' ) );
#78 = SURFACE_SIDE_STYLE ('',( #167 ) ) ;
#79 = DIRECTION ( 'NONE',  ( 1.000000000000000000, 0.0000000000000000000, -0.0000000000000000000 ) ) ;
#80 = CARTESIAN_POINT ( 'NONE',  ( -0.06250000000000002776, 0.0000000000000000000, 1.485000000000000764 ) ) ;
#81 = APPLICATION_CONTEXT ( 'automotive_design' ) ;
#82 = STYLED_ITEM ( 'NONE', ( #120 ), #210 ) ;
#83 = EDGE_LOOP ( 'NONE', ( #91, #107 ) ) ;
#84 = ORIENTED_EDGE ( 'NONE', *, *, #244, .F. ) ;
#85 = LINE ( 'NONE', #15, #126 ) ;
#86 = ORIENTED_EDGE ( 'NONE', *, *, #87, .F. ) ;
#87 = EDGE_CURVE ( 'NONE', #290, #267, #248, .T. ) ;
#88 = UNCERTAINTY_MEASURE_WITH_UNIT (LENGTH_MEASURE( 1.000000000000000082E-05 ), #25, 'distance_accuracy_value', 'NONE');
#89 = DIRECTION ( 'NONE',  ( -1.000000000000000000, 0.0000000000000000000, 0.0000000000000000000 ) ) ;
#90 = ORIENTED_EDGE ( 'NONE', *, *, #225, .T. ) ;
#91 = ORIENTED_EDGE ( 'NONE', *, *, #87, .T. ) ;
#92 = PRODUCT_DEFINITION ( 'UNKNOWN', '', #192, #39 ) ;
#93 = DIRECTION ( 'NONE',  ( -1.224646799147353700E-16, -0.0000000000000000000, -1.000000000000000000 ) ) ;
#94 = DIRECTION ( 'NONE',  ( 0.0000000000000000000, 0.0000000000000000000, 1.000000000000000000 ) ) ;
#95 = LINE ( 'NONE', #184, #58 ) ;
#96 = CIRCLE ( 'NONE', #209, 0.06243749999999999994 ) ;
#97 = DIRECTION ( 'NONE',  ( -1.000000000000000000, 0.0000000000000000000, 0.0000000000000000000 ) ) ;
#98 = EDGE_CURVE ( 'NONE', #14, #243, #43, .T. ) ;
#99 = FILL_AREA_STYLE ('',( #55 ) ) ;
#100 = FACE_OUTER_BOUND ( 'NONE', #227, .T. ) ;
#101 = DIRECTION ( 'NONE',  ( -1.224646799147353700E-16, -0.0000000000000000000, -1.000000000000000000 ) ) ;
#102 = CONICAL_SURFACE ( 'NONE', #6, 0.04750000000000064587, 0.7853981633974466137 ) ;
#103 = COLOUR_RGB ( '',0.7921568627450980005, 0.8196078431372548767, 0.9333333333333333481 ) ;
#104 = FACE_OUTER_BOUND ( 'NONE', #151, .T. ) ;
#105 = SHAPE_DEFINITION_REPRESENTATION ( #64, #73 ) ;
#106 = ORIENTED_EDGE ( 'NONE', *, *, #57, .T. ) ;
#107 = ORIENTED_EDGE ( 'NONE', *, *, #293, .T. ) ;
#108 =( NAMED_UNIT ( * ) SI_UNIT ( $, .STERADIAN. ) SOLID_ANGLE_UNIT ( ) );
#109 = EDGE_LOOP ( 'NONE', ( #40, #265, #177, #147 ) ) ;
#110 = AXIS2_PLACEMENT_3D ( 'NONE', #256, #74, #79 ) ;
#111 = DIRECTION ( 'NONE',  ( -1.000000000000000000, 0.0000000000000000000, 1.224646799147353947E-16 ) ) ;
#112 = VERTEX_POINT ( 'NONE', #80 ) ;
#113 = EDGE_CURVE ( 'NONE', #268, #35, #70, .T. ) ;
#114 = DIRECTION ( 'NONE',  ( -0.1736481776669310251, 2.126576849575781468E-17, 0.9848077530122080203 ) ) ;
#115 = CARTESIAN_POINT ( 'NONE',  ( 0.0000000000000000000, 0.0000000000000000000, 1.500000000000000222 ) ) ;
#116 = LINE ( 'NONE', #270, #166 ) ;
#117 = CARTESIAN_POINT ( 'NONE',  ( 0.0000000000000000000, 0.0000000000000000000, 0.0000000000000000000 ) ) ;
#118 = DIRECTION ( 'NONE',  ( -1.000000000000000000, 0.0000000000000000000, 1.224646799147353947E-16 ) ) ;
#119 = ADVANCED_FACE ( 'NONE', ( #17 ), #299, .F. ) ;
#120 = PRESENTATION_STYLE_ASSIGNMENT (( #140 ) ) ;
#121 = DIRECTION ( 'NONE',  ( -1.224646799147353700E-16, -0.0000000000000000000, -1.000000000000000000 ) ) ;
#122 = DIRECTION ( 'NONE',  ( -1.224646799147353700E-16, -0.0000000000000000000, -1.000000000000000000 ) ) ;
#123 = LENGTH_MEASURE_WITH_UNIT ( LENGTH_MEASURE( 0.02539999999999999897 ), #193 );
#124 = CARTESIAN_POINT ( 'NONE',  ( 0.0000000000000000000, 0.0000000000000000000, 0.0000000000000000000 ) ) ;
#125 = DIMENSIONAL_EXPONENTS ( 1.000000000000000000, 0.0000000000000000000, 0.0000000000000000000, 0.0000000000000000000, 0.0000000000000000000, 0.0000000000000000000, 0.0000000000000000000 ) ;
#126 = VECTOR ( 'NONE', #201, 39.37007874015748854 ) ;
#127 = EDGE_LOOP ( 'NONE', ( #191, #180, #282, #202 ) ) ;
#128 = VECTOR ( 'NONE', #258, 39.37007874015748143 ) ;
#129 = DIRECTION ( 'NONE',  ( -1.000000000000000000, 0.0000000000000000000, 1.224646799147353947E-16 ) ) ;
#130 = ORIENTED_EDGE ( 'NONE', *, *, #213, .F. ) ;
#131 = DIRECTION ( 'NONE',  ( 1.000000000000000000, 0.0000000000000000000, 0.0000000000000000000 ) ) ;
#132 = FACE_OUTER_BOUND ( 'NONE', #83, .T. ) ;
#133 = CARTESIAN_POINT ( 'NONE',  ( 6.123233995736768501E-17, 0.0000000000000000000, 0.5000000000000000000 ) ) ;
#134 = CARTESIAN_POINT ( 'NONE',  ( 0.0000000000000000000, 0.0000000000000000000, 1.500000000000000222 ) ) ;
#135 = CYLINDRICAL_SURFACE ( 'NONE', #152, 0.06243749999999999994 ) ;
#136 = CARTESIAN_POINT ( 'NONE',  ( 0.06250000000000002776, 7.654042494670959086E-18, 1.485000000000000764 ) ) ;
#137 = DIRECTION ( 'NONE',  ( 1.000000000000000000, 0.0000000000000000000, 0.0000000000000000000 ) ) ;
#138 = DIRECTION ( 'NONE',  ( -1.224646799147353700E-16, -0.0000000000000000000, -1.000000000000000000 ) ) ;
#139 = CARTESIAN_POINT ( 'NONE',  ( -0.04750000000000064587, 0.0000000000000000000, 1.500000000000000222 ) ) ;
#140 = SURFACE_STYLE_USAGE ( .BOTH. , #163 ) ;
#141 = MECHANICAL_DESIGN_GEOMETRIC_PRESENTATION_REPRESENTATION (  '', ( #263 ), #45 ) ;
#142 = APPLICATION_PROTOCOL_DEFINITION ( 'draft international standard', 'automotive_design', 1998, #27 ) ;
#143 = DIRECTION ( 'NONE',  ( -1.224646799147353700E-16, -0.0000000000000000000, -1.000000000000000000 ) ) ;
#144 = CARTESIAN_POINT ( 'NONE',  ( 0.0000000000000000000, 0.0000000000000000000, 0.0000000000000000000 ) ) ;
#145 = DIRECTION ( 'NONE',  ( 1.000000000000000000, 0.0000000000000000000, 0.0000000000000000000 ) ) ;
#146 = CLOSED_SHELL ( 'NONE', ( #172, #261, #240, #65, #219, #32, #174, #60, #44, #119 ) ) ;
#147 = ORIENTED_EDGE ( 'NONE', *, *, #57, .F. ) ;
#148 = ORIENTED_EDGE ( 'NONE', *, *, #28, .F. ) ;
#149 = ORIENTED_EDGE ( 'NONE', *, *, #274, .F. ) ;
#150 = CARTESIAN_POINT ( 'NONE',  ( 0.0000000000000000000, 0.0000000000000000000, 1.500000000000000222 ) ) ;
#151 = EDGE_LOOP ( 'NONE', ( #90, #68, #250, #9 ) ) ;
#152 = AXIS2_PLACEMENT_3D ( 'NONE', #117, #233, #129 ) ;
#153 = DIRECTION ( 'NONE',  ( 1.000000000000000000, 0.0000000000000000000, 0.0000000000000000000 ) ) ;
#154 = CARTESIAN_POINT ( 'NONE',  ( -0.06243749999999994443, 7.650215473423623230E-18, 0.5000000000000000000 ) ) ;
#155 = FACE_OUTER_BOUND ( 'NONE', #190, .T. ) ;
#156 = DIRECTION ( 'NONE',  ( 1.000000000000000000, 0.0000000000000000000, -0.0000000000000000000 ) ) ;
#157 = DIRECTION ( 'NONE',  ( 0.1736481776669312471, 0.0000000000000000000, 0.9848077530122077983 ) ) ;
#158 = AXIS2_PLACEMENT_3D ( 'NONE', #115, #94, #156 ) ;
#159 = AXIS2_PLACEMENT_3D ( 'NONE', #46, #251, #137 ) ;
#160 = ORIENTED_EDGE ( 'NONE', *, *, #194, .F. ) ;
#161 = LINE ( 'NONE', #203, #211 ) ;
#162 = LINE ( 'NONE', #164, #128 ) ;
#163 = SURFACE_SIDE_STYLE ('',( #72 ) ) ;
#164 = CARTESIAN_POINT ( 'NONE',  ( 0.06250000000000002776, 7.654042494670959086E-18, 1.500000000000000222 ) ) ;
#165 =( CONVERSION_BASED_UNIT ( 'INCH', #123 ) LENGTH_UNIT ( ) NAMED_UNIT ( #125 ) );
#166 = VECTOR ( 'NONE', #157, 39.37007874015748143 ) ;
#167 = SURFACE_STYLE_FILL_AREA ( #257 ) ;
#168 = DIRECTION ( 'NONE',  ( -1.000000000000000000, 0.0000000000000000000, 0.0000000000000000000 ) ) ;
#169 =( CONVERSION_BASED_UNIT ( 'INCH', #54 ) LENGTH_UNIT ( ) NAMED_UNIT ( #262 ) );
#170 = DIRECTION ( 'NONE',  ( -1.000000000000000000, 0.0000000000000000000, 1.224646799147353947E-16 ) ) ;
#171 = CARTESIAN_POINT ( 'NONE',  ( 0.06243750000000006239, 0.0000000000000000000, 0.5000000000000000000 ) ) ;
#172 = ADVANCED_FACE ( 'NONE', ( #294 ), #273, .T. ) ;
#173 = VERTEX_POINT ( 'NONE', #136 ) ;
#174 = ADVANCED_FACE ( 'NONE', ( #208 ), #102, .T. ) ;
#175 = EDGE_LOOP ( 'NONE', ( #41, #222, #195, #160 ) ) ;
#176 = VERTEX_POINT ( 'NONE', #188 ) ;
#177 = ORIENTED_EDGE ( 'NONE', *, *, #16, .T. ) ;
#178 = VECTOR ( 'NONE', #271, 39.37007874015748143 ) ;
#179 = MECHANICAL_DESIGN_GEOMETRIC_PRESENTATION_REPRESENTATION (  '', ( #82 ), #77 ) ;
#180 = ORIENTED_EDGE ( 'NONE', *, *, #186, .T. ) ;
#181 = DIRECTION ( 'NONE',  ( 0.0000000000000000000, 0.0000000000000000000, -1.000000000000000000 ) ) ;
#182 = LINE ( 'NONE', #226, #178 ) ;
#183 = CARTESIAN_POINT ( 'NONE',  ( 0.0000000000000000000, 0.0000000000000000000, 1.500000000000000222 ) ) ;
#184 = CARTESIAN_POINT ( 'NONE',  ( 0.06243749999999999994, 7.646388452176287375E-18, -7.646388452176290456E-18 ) ) ;
#185 =( LENGTH_UNIT ( ) NAMED_UNIT ( * ) SI_UNIT ( $, .METRE. ) );
#186 = EDGE_CURVE ( 'NONE', #243, #35, #95, .T. ) ;
#187 = CARTESIAN_POINT ( 'NONE',  ( 0.0000000000000000000, 0.0000000000000000000, 1.500000000000000222 ) ) ;
#188 = CARTESIAN_POINT ( 'NONE',  ( 0.06250000000000008327, 7.654042494670966789E-18, 0.5003544551137262264 ) ) ;
#189 = EDGE_CURVE ( 'NONE', #173, #176, #162, .T. ) ;
#190 = EDGE_LOOP ( 'NONE', ( #260, #239, #206, #84 ) ) ;
#191 = ORIENTED_EDGE ( 'NONE', *, *, #98, .T. ) ;
#192 = PRODUCT_DEFINITION_FORMATION_WITH_SPECIFIED_SOURCE ( 'ANY', '', #204, .NOT_KNOWN. ) ;
#193 =( LENGTH_UNIT ( ) NAMED_UNIT ( * ) SI_UNIT ( $, .METRE. ) );
#194 = EDGE_CURVE ( 'NONE', #176, #63, #284, .T. ) ;
#195 = ORIENTED_EDGE ( 'NONE', *, *, #52, .T. ) ;
#196 = AXIS2_PLACEMENT_3D ( 'NONE', #183, #53, #168 ) ;
#197 = AXIS2_PLACEMENT_3D ( 'NONE', #62, #33, #131 ) ;
#198 = FACE_OUTER_BOUND ( 'NONE', #221, .T. ) ;
#199 = FACE_OUTER_BOUND ( 'NONE', #175, .T. ) ;
#200 = ORIENTED_EDGE ( 'NONE', *, *, #229, .T. ) ;
#201 = DIRECTION ( 'NONE',  ( 0.7071067811865462405, 8.659560562354916834E-17, -0.7071067811865486830 ) ) ;
#202 = ORIENTED_EDGE ( 'NONE', *, *, #16, .F. ) ;
#203 = CARTESIAN_POINT ( 'NONE',  ( -0.04750000000000064587, 0.0000000000000000000, 1.500000000000000222 ) ) ;
#204 = PRODUCT ( 'Micro_GEM-125-2X', 'Micro_GEM-125-2X', '', ( #56 ) ) ;
#205 = EDGE_CURVE ( 'NONE', #243, #14, #96, .T. ) ;
#206 = ORIENTED_EDGE ( 'NONE', *, *, #225, .F. ) ;
#207 = CARTESIAN_POINT ( 'NONE',  ( 0.04750000000000064587, 6.735557395310483192E-18, 1.500000000000000222 ) ) ;
#208 = FACE_OUTER_BOUND ( 'NONE', #288, .T. ) ;
#209 = AXIS2_PLACEMENT_3D ( 'NONE', #48, #138, #236 ) ;
#210 = MANIFOLD_SOLID_BREP ( 'Cut-Revolve1', #146 ) ;
#211 = VECTOR ( 'NONE', #247, 39.37007874015748854 ) ;
#212 = CARTESIAN_POINT ( 'NONE',  ( 6.123233995736768501E-17, 0.0000000000000000000, 0.5000000000000000000 ) ) ;
#213 = EDGE_CURVE ( 'NONE', #267, #173, #85, .T. ) ;
#214 = DIRECTION ( 'NONE',  ( 1.000000000000000000, 0.0000000000000000000, 0.0000000000000000000 ) ) ;
#215 = DIRECTION ( 'NONE',  ( 0.0000000000000000000, 0.0000000000000000000, -1.000000000000000000 ) ) ;
#216 = AXIS2_PLACEMENT_3D ( 'NONE', #269, #181, #153 ) ;
#217 = APPLICATION_PROTOCOL_DEFINITION ( 'draft international standard', 'automotive_design', 1998, #81 ) ;
#218 =( LENGTH_UNIT ( ) NAMED_UNIT ( * ) SI_UNIT ( $, .METRE. ) );
#219 = ADVANCED_FACE ( 'NONE', ( #199 ), #223, .T. ) ;
#220 = CIRCLE ( 'NONE', #291, 0.06250000000000002776 ) ;
#221 = EDGE_LOOP ( 'NONE', ( #241, #228, #245, #285 ) ) ;
#222 = ORIENTED_EDGE ( 'NONE', *, *, #28, .T. ) ;
#223 = CYLINDRICAL_SURFACE ( 'NONE', #255, 0.06250000000000002776 ) ;
#224 = AXIS2_PLACEMENT_3D ( 'NONE', #275, #143, #252 ) ;
#225 = EDGE_CURVE ( 'NONE', #112, #173, #278, .T. ) ;
#226 = CARTESIAN_POINT ( 'NONE',  ( -0.06250000000000002776, 0.0000000000000000000, 1.500000000000000222 ) ) ;
#227 = EDGE_LOOP ( 'NONE', ( #283, #200, #31, #149 ) ) ;
#228 = ORIENTED_EDGE ( 'NONE', *, *, #205, .F. ) ;
#229 = EDGE_CURVE ( 'NONE', #14, #63, #10, .T. ) ;
#230 = CARTESIAN_POINT ( 'NONE',  ( -0.06243749999999999994, 0.0000000000000000000, 1.529277690435258091E-17 ) ) ;
#231 = AXIS2_PLACEMENT_3D ( 'NONE', #286, #8, #19 ) ;
#232 = CIRCLE ( 'NONE', #159, 0.04750000000000064587 ) ;
#233 = DIRECTION ( 'NONE',  ( -1.224646799147353700E-16, -0.0000000000000000000, -1.000000000000000000 ) ) ;
#234 = CYLINDRICAL_SURFACE ( 'NONE', #196, 0.06250000000000002776 ) ;
#235 =( NAMED_UNIT ( * ) SI_UNIT ( $, .STERADIAN. ) SOLID_ANGLE_UNIT ( ) );
#236 = DIRECTION ( 'NONE',  ( -1.000000000000000000, 0.0000000000000000000, 0.0000000000000000000 ) ) ;
#237 = CARTESIAN_POINT ( 'NONE',  ( 9.364125142994982608E-34, 0.0000000000000000000, 7.646388452176290456E-18 ) ) ;
#238 =( NAMED_UNIT ( * ) SI_UNIT ( $, .STERADIAN. ) SOLID_ANGLE_UNIT ( ) );
#239 = ORIENTED_EDGE ( 'NONE', *, *, #213, .T. ) ;
#240 = ADVANCED_FACE ( 'NONE', ( #155 ), #61, .T. ) ;
#241 = ORIENTED_EDGE ( 'NONE', *, *, #229, .F. ) ;
#242 = VECTOR ( 'NONE', #93, 39.37007874015748143 ) ;
#243 = VERTEX_POINT ( 'NONE', #171 ) ;
#244 = EDGE_CURVE ( 'NONE', #290, #112, #161, .T. ) ;
#245 = ORIENTED_EDGE ( 'NONE', *, *, #274, .T. ) ;
#246 = CARTESIAN_POINT ( 'NONE',  ( 0.06243749999999999994, 7.646388452176287375E-18, 0.0000000000000000000 ) ) ;
#247 = DIRECTION ( 'NONE',  ( -0.7071067811865462405, 0.0000000000000000000, -0.7071067811865486830 ) ) ;
#248 = CIRCLE ( 'NONE', #76, 0.04750000000000064587 ) ;
#249 = AXIS2_PLACEMENT_3D ( 'NONE', #134, #13, #2 ) ;
#250 = ORIENTED_EDGE ( 'NONE', *, *, #253, .F. ) ;
#251 = DIRECTION ( 'NONE',  ( 0.0000000000000000000, 0.0000000000000000000, 1.000000000000000000 ) ) ;
#252 = DIRECTION ( 'NONE',  ( 1.000000000000000000, 0.0000000000000000000, 0.0000000000000000000 ) ) ;
#253 = EDGE_CURVE ( 'NONE', #63, #176, #220, .T. ) ;
#254 = DIRECTION ( 'NONE',  ( 0.0000000000000000000, 0.0000000000000000000, 1.000000000000000000 ) ) ;
#255 = AXIS2_PLACEMENT_3D ( 'NONE', #150, #36, #89 ) ;
#256 = CARTESIAN_POINT ( 'NONE',  ( 0.0000000000000000000, 0.0000000000000000000, 0.0000000000000000000 ) ) ;
#257 = FILL_AREA_STYLE ('',( #22 ) ) ;
#258 = DIRECTION ( 'NONE',  ( -0.0000000000000000000, -0.0000000000000000000, -1.000000000000000000 ) ) ;
#259 = COLOUR_RGB ( '',0.7921568627450980005, 0.8196078431372548767, 0.9333333333333333481 ) ;
#260 = ORIENTED_EDGE ( 'NONE', *, *, #293, .F. ) ;
#261 = ADVANCED_FACE ( 'NONE', ( #100 ), #37, .T. ) ;
#262 = DIMENSIONAL_EXPONENTS ( 1.000000000000000000, 0.0000000000000000000, 0.0000000000000000000, 0.0000000000000000000, 0.0000000000000000000, 0.0000000000000000000, 0.0000000000000000000 ) ;
#263 = STYLED_ITEM ( 'NONE', ( #4 ), #73 ) ;
#264 = ORIENTED_EDGE ( 'NONE', *, *, #244, .T. ) ;
#265 = ORIENTED_EDGE ( 'NONE', *, *, #205, .T. ) ;
#266 = UNCERTAINTY_MEASURE_WITH_UNIT (LENGTH_MEASURE( 1.000000000000000082E-05 ), #165, 'distance_accuracy_value', 'NONE');
#267 = VERTEX_POINT ( 'NONE', #207 ) ;
#268 = VERTEX_POINT ( 'NONE', #230 ) ;
#269 = CARTESIAN_POINT ( 'NONE',  ( 0.0000000000000000000, 0.0000000000000000000, 1.485000000000000764 ) ) ;
#270 = CARTESIAN_POINT ( 'NONE',  ( 0.06243750000000006239, 0.0000000000000000000, 0.5000000000000000000 ) ) ;
#271 = DIRECTION ( 'NONE',  ( -0.0000000000000000000, -0.0000000000000000000, -1.000000000000000000 ) ) ;
#272 = AXIS2_PLACEMENT_3D ( 'NONE', #133, #18, #276 ) ;
#273 = CYLINDRICAL_SURFACE ( 'NONE', #30, 0.06243749999999999994 ) ;
#274 = EDGE_CURVE ( 'NONE', #243, #176, #116, .T. ) ;
#275 = CARTESIAN_POINT ( 'NONE',  ( 6.127574818941430966E-17, 0.0000000000000000000, 0.5003544551137262264 ) ) ;
#276 = DIRECTION ( 'NONE',  ( 1.000000000000000000, 0.0000000000000000000, 0.0000000000000000000 ) ) ;
#277 = PRODUCT_RELATED_PRODUCT_CATEGORY ( 'part', '', ( #204 ) ) ;
#278 = CIRCLE ( 'NONE', #197, 0.06250000000000002776 ) ;
#279 = CARTESIAN_POINT ( 'NONE',  ( -0.06249999999999996531, 0.0000000000000000000, 0.5003544551137262264 ) ) ;
#280 =( NAMED_UNIT ( * ) PLANE_ANGLE_UNIT ( ) SI_UNIT ( $, .RADIAN. ) );
#281 = PRESENTATION_LAYER_ASSIGNMENT (  '', '', ( #82 ) ) ;
#282 = ORIENTED_EDGE ( 'NONE', *, *, #113, .F. ) ;
#283 = ORIENTED_EDGE ( 'NONE', *, *, #98, .F. ) ;
#284 = CIRCLE ( 'NONE', #224, 0.06250000000000002776 ) ;
#285 = ORIENTED_EDGE ( 'NONE', *, *, #194, .T. ) ;
#286 = CARTESIAN_POINT ( 'NONE',  ( 6.123233995736768501E-17, 0.0000000000000000000, 0.5000000000000000000 ) ) ;
#287 = CARTESIAN_POINT ( 'NONE',  ( -0.06243749999999994443, 7.646388452176287375E-18, 0.5000000000000000000 ) ) ;
#288 = EDGE_LOOP ( 'NONE', ( #130, #86, #264, #148 ) ) ;
#289 = UNCERTAINTY_MEASURE_WITH_UNIT (LENGTH_MEASURE( 1.000000000000000082E-05 ), #169, 'distance_accuracy_value', 'NONE');
#290 = VERTEX_POINT ( 'NONE', #139 ) ;
#291 = AXIS2_PLACEMENT_3D ( 'NONE', #75, #121, #214 ) ;
#292 = CARTESIAN_POINT ( 'NONE',  ( -0.06243749999999999994, 0.0000000000000000000, 7.646388452176290456E-18 ) ) ;
#293 = EDGE_CURVE ( 'NONE', #267, #290, #232, .T. ) ;
#294 = FACE_OUTER_BOUND ( 'NONE', #127, .T. ) ;
#295 = PRESENTATION_LAYER_ASSIGNMENT (  '', '', ( #263 ) ) ;
#296 = DIRECTION ( 'NONE',  ( -1.000000000000000000, 0.0000000000000000000, 0.0000000000000000000 ) ) ;
#297 = CARTESIAN_POINT ( 'NONE',  ( 0.0000000000000000000, 0.0000000000000000000, 1.500000000000000222 ) ) ;
#298 =( NAMED_UNIT ( * ) PLANE_ANGLE_UNIT ( ) SI_UNIT ( $, .RADIAN. ) );
#299 = PLANE ( 'NONE',  #110 ) ;
ENDSEC;
END-ISO-10303-21;
