ISO-10303-21;
HEADER;
FILE_DESCRIPTION (( 'STEP AP214' ),
    '1' );
FILE_NAME ('59819.STEP',
    '2023-07-12T13:06:15',
    ( '' ),
    ( '' ),
    'SwSTEP 2.0',
    'SolidWorks 2023',
    '' );
FILE_SCHEMA (( 'AUTOMOTIVE_DESIGN' ));
ENDSEC;

DATA;
#1 = ADVANCED_FACE ( 'NONE', ( #193 ), #123, .T. ) ;
#2 = LINE ( 'NONE', #66, #24 ) ;
#3 = MECHANICAL_DESIGN_GEOMETRIC_PRESENTATION_REPRESENTATION (  '', ( #139 ), #80 ) ;
#4 = CIRCLE ( 'NONE', #241, 0.3749999999999996669 ) ;
#5 = ORIENTED_EDGE ( 'NONE', *, *, #103, .F. ) ;
#6 = ADVANCED_FACE ( 'NONE', ( #16 ), #302, .F. ) ;
#7 = DIRECTION ( 'NONE',  ( -1.000000000000000000, 0.000000000000000000, 0.000000000000000000 ) ) ;
#8 = EDGE_LOOP ( 'NONE', ( #31, #102 ) ) ;
#9 = EDGE_LOOP ( 'NONE', ( #271, #53 ) ) ;
#10 = EDGE_LOOP ( 'NONE', ( #266, #248 ) ) ;
#11 =( NAMED_UNIT ( * ) SI_UNIT ( $, .STERADIAN. ) SOLID_ANGLE_UNIT ( ) );
#12 = FILL_AREA_STYLE ('',( #230 ) ) ;
#13 =( GEOMETRIC_REPRESENTATION_CONTEXT ( 3 ) GLOBAL_UNCERTAINTY_ASSIGNED_CONTEXT ( ( #215 ) ) GLOBAL_UNIT_ASSIGNED_CONTEXT ( ( #114, #289, #21 ) ) REPRESENTATION_CONTEXT ( 'NONE', 'WORKASPACE' ) );
#14 = DIRECTION ( 'NONE',  ( 1.467458275994711004E-16, -1.000000000000000000, 0.000000000000000000 ) ) ;
#15 = ADVANCED_FACE ( 'NONE', ( #182 ), #226, .T. ) ;
#16 = FACE_OUTER_BOUND ( 'NONE', #9, .T. ) ;
#17 =( GEOMETRIC_REPRESENTATION_CONTEXT ( 3 ) GLOBAL_UNCERTAINTY_ASSIGNED_CONTEXT ( ( #137 ) ) GLOBAL_UNIT_ASSIGNED_CONTEXT ( ( #86, #283, #43 ) ) REPRESENTATION_CONTEXT ( 'NONE', 'WORKASPACE' ) );
#18 = ADVANCED_FACE ( 'NONE', ( #37 ), #60, .T. ) ;
#19 = LINE ( 'NONE', #143, #206 ) ;
#20 =( NAMED_UNIT ( * ) SI_UNIT ( $, .STERADIAN. ) SOLID_ANGLE_UNIT ( ) );
#21 =( NAMED_UNIT ( * ) SI_UNIT ( $, .STERADIAN. ) SOLID_ANGLE_UNIT ( ) );
#22 = UNCERTAINTY_MEASURE_WITH_UNIT (LENGTH_MEASURE( 1.000000000000000082E-05 ), #83, 'distance_accuracy_value', 'NONE');
#23 = CARTESIAN_POINT ( 'NONE',  ( 0.000000000000000000, 0.000000000000000000, 0.000000000000000000 ) ) ;
#24 = VECTOR ( 'NONE', #167, 39.37007874015748143 ) ;
#25 = CARTESIAN_POINT ( 'NONE',  ( 0.3749999999999997780, 3.000000000000000444, 4.592425496802572370E-17 ) ) ;
#26 = CARTESIAN_POINT ( 'NONE',  ( 2.963994933507119754E-16, 0.5629165124598836112, 0.000000000000000000 ) ) ;
#27 = ORIENTED_EDGE ( 'NONE', *, *, #272, .T. ) ;
#28 = AXIS2_PLACEMENT_3D ( 'NONE', #23, #138, #117 ) ;
#29 = CYLINDRICAL_SURFACE ( 'NONE', #115, 0.3749999999999998335 ) ;
#30 = VERTEX_POINT ( 'NONE', #178 ) ;
#31 = ORIENTED_EDGE ( 'NONE', *, *, #228, .T. ) ;
#32 = PRODUCT_DEFINITION ( 'UNKNOWN', '', #214, #211 ) ;
#33 = CIRCLE ( 'NONE', #96, 0.3750000000000000555 ) ;
#34 = COLOUR_RGB ( '',1.000000000000000000, 0.000000000000000000, 0.000000000000000000 ) ;
#35 = EDGE_LOOP ( 'NONE', ( #100, #104, #220, #142 ) ) ;
#36 = DIRECTION ( 'NONE',  ( -0.000000000000000000, -1.000000000000000000, -0.000000000000000000 ) ) ;
#37 = FACE_OUTER_BOUND ( 'NONE', #106, .T. ) ;
#38 = EDGE_CURVE ( 'NONE', #240, #197, #33, .T. ) ;
#39 = CONICAL_SURFACE ( 'NONE', #57, 0.05000000000000000278, 0.5235987755983000369 ) ;
#40 = SURFACE_STYLE_FILL_AREA ( #154 ) ;
#41 = CARTESIAN_POINT ( 'NONE',  ( -6.123233995736770966E-17, 3.000000000000000444, 0.000000000000000000 ) ) ;
#42 = LENGTH_MEASURE_WITH_UNIT ( LENGTH_MEASURE( 0.02539999999999999897 ), #156 );
#43 =( NAMED_UNIT ( * ) SI_UNIT ( $, .STERADIAN. ) SOLID_ANGLE_UNIT ( ) );
#44 = PRODUCT_DEFINITION_SHAPE ( 'NONE', 'NONE',  #32 ) ;
#45 = SURFACE_SIDE_STYLE ('',( #52 ) ) ;
#46 = DIRECTION ( 'NONE',  ( 0.000000000000000000, 0.000000000000000000, 1.000000000000000000 ) ) ;
#47 = UNCERTAINTY_MEASURE_WITH_UNIT (LENGTH_MEASURE( 1.000000000000000082E-05 ), #69, 'distance_accuracy_value', 'NONE');
#48 = EDGE_CURVE ( 'NONE', #197, #240, #105, .T. ) ;
#49 =( NAMED_UNIT ( * ) SI_UNIT ( $, .STERADIAN. ) SOLID_ANGLE_UNIT ( ) );
#50 = EDGE_CURVE ( 'NONE', #293, #243, #199, .T. ) ;
#51 = ORIENTED_EDGE ( 'NONE', *, *, #38, .F. ) ;
#52 = SURFACE_STYLE_FILL_AREA ( #168 ) ;
#53 = ORIENTED_EDGE ( 'NONE', *, *, #48, .T. ) ;
#54 = AXIS2_PLACEMENT_3D ( 'NONE', #198, #256, #275 ) ;
#55 = VERTEX_POINT ( 'NONE', #184 ) ;
#56 = FILL_AREA_STYLE ('',( #225 ) ) ;
#57 = AXIS2_PLACEMENT_3D ( 'NONE', #208, #179, #151 ) ;
#58 =( CONVERSION_BASED_UNIT ( 'INCH', #250 ) LENGTH_UNIT ( ) NAMED_UNIT ( #231 ) );
#59 = LENGTH_MEASURE_WITH_UNIT ( LENGTH_MEASURE( 0.02539999999999999897 ), #155 );
#60 = CYLINDRICAL_SURFACE ( 'NONE', #126, 0.3749999999999998335 ) ;
#61 = FILL_AREA_STYLE_COLOUR ( '', #308 ) ;
#62 = STYLED_ITEM ( 'NONE', ( #110 ), #15 ) ;
#63 = SURFACE_STYLE_USAGE ( .BOTH. , #88 ) ;
#64 = DIRECTION ( 'NONE',  ( -1.000000000000000000, -1.467458275994711004E-16, 0.000000000000000000 ) ) ;
#65 = MANIFOLD_SOLID_BREP ( 'Revolve - Tool Body (Tipped Off)', #254 ) ;
#66 = CARTESIAN_POINT ( 'NONE',  ( 6.123233995736766344E-18, 0.000000000000000000, -0.05000000000000000278 ) ) ;
#67 = FACE_OUTER_BOUND ( 'NONE', #35, .T. ) ;
#68 = VECTOR ( 'NONE', #192, 39.37007874015748143 ) ;
#69 =( CONVERSION_BASED_UNIT ( 'INCH', #217 ) LENGTH_UNIT ( ) NAMED_UNIT ( #152 ) );
#70 = CARTESIAN_POINT ( 'NONE',  ( 2.602374448188125350E-17, 0.000000000000000000, -0.05000000000000000278 ) ) ;
#71 = PRESENTATION_LAYER_ASSIGNMENT (  '', '', ( #247 ) ) ;
#72 = MECHANICAL_DESIGN_GEOMETRIC_PRESENTATION_REPRESENTATION (  '', ( #165 ), #13 ) ;
#73 = EDGE_CURVE ( 'NONE', #243, #147, #19, .T. ) ;
#74 =( NAMED_UNIT ( * ) PLANE_ANGLE_UNIT ( ) SI_UNIT ( $, .RADIAN. ) );
#75 = ORIENTED_EDGE ( 'NONE', *, *, #158, .T. ) ;
#76 = ORIENTED_EDGE ( 'NONE', *, *, #120, .T. ) ;
#77 = CIRCLE ( 'NONE', #118, 0.3749999999999999445 ) ;
#78 = ORIENTED_EDGE ( 'NONE', *, *, #73, .F. ) ;
#79 = ORIENTED_EDGE ( 'NONE', *, *, #216, .F. ) ;
#80 =( GEOMETRIC_REPRESENTATION_CONTEXT ( 3 ) GLOBAL_UNCERTAINTY_ASSIGNED_CONTEXT ( ( #22 ) ) GLOBAL_UNIT_ASSIGNED_CONTEXT ( ( #83, #89, #20 ) ) REPRESENTATION_CONTEXT ( 'NONE', 'WORKASPACE' ) );
#81 = CARTESIAN_POINT ( 'NONE',  ( 0.000000000000000000, 0.5629165124598836112, 0.000000000000000000 ) ) ;
#82 = CARTESIAN_POINT ( 'NONE',  ( 0.000000000000000000, 0.5629165124598835002, 0.000000000000000000 ) ) ;
#83 =( CONVERSION_BASED_UNIT ( 'INCH', #109 ) LENGTH_UNIT ( ) NAMED_UNIT ( #221 ) );
#84 = UNCERTAINTY_MEASURE_WITH_UNIT (LENGTH_MEASURE( 1.000000000000000082E-05 ), #212, 'distance_accuracy_value', 'NONE');
#85 = PRODUCT ( '59819', '59819', '', ( #213 ) ) ;
#86 =( CONVERSION_BASED_UNIT ( 'INCH', #59 ) LENGTH_UNIT ( ) NAMED_UNIT ( #128 ) );
#87 = PRESENTATION_STYLE_ASSIGNMENT (( #113 ) ) ;
#88 = SURFACE_SIDE_STYLE ('',( #174 ) ) ;
#89 =( NAMED_UNIT ( * ) PLANE_ANGLE_UNIT ( ) SI_UNIT ( $, .RADIAN. ) );
#90 = LINE ( 'NONE', #25, #68 ) ;
#91 = SURFACE_SIDE_STYLE ('',( #40 ) ) ;
#92 = COLOUR_RGB ( '',0.7921568627450980005, 0.8196078431372548767, 0.9333333333333333481 ) ;
#93 = LENGTH_MEASURE_WITH_UNIT ( LENGTH_MEASURE( 0.02539999999999999897 ), #210 );
#94 =( LENGTH_UNIT ( ) NAMED_UNIT ( * ) SI_UNIT ( $, .METRE. ) );
#95 = DIRECTION ( 'NONE',  ( -0.000000000000000000, -1.000000000000000000, -0.000000000000000000 ) ) ;
#96 = AXIS2_PLACEMENT_3D ( 'NONE', #281, #297, #150 ) ;
#97 =( LENGTH_UNIT ( ) NAMED_UNIT ( * ) SI_UNIT ( $, .METRE. ) );
#98 = AXIS2_PLACEMENT_3D ( 'NONE', #298, #232, #64 ) ;
#99 = DIRECTION ( 'NONE',  ( -1.467458275994711004E-16, 1.000000000000000000, -0.000000000000000000 ) ) ;
#100 = ORIENTED_EDGE ( 'NONE', *, *, #120, .F. ) ;
#101 = DIMENSIONAL_EXPONENTS ( 1.000000000000000000, 0.000000000000000000, 0.000000000000000000, 0.000000000000000000, 0.000000000000000000, 0.000000000000000000, 0.000000000000000000 ) ;
#102 = ORIENTED_EDGE ( 'NONE', *, *, #50, .T. ) ;
#103 = EDGE_CURVE ( 'NONE', #30, #197, #90, .T. ) ;
#104 = ORIENTED_EDGE ( 'NONE', *, *, #228, .F. ) ;
#105 = CIRCLE ( 'NONE', #218, 0.3750000000000000555 ) ;
#106 = EDGE_LOOP ( 'NONE', ( #75, #244, #51, #127 ) ) ;
#107 = CARTESIAN_POINT ( 'NONE',  ( -6.123233995736772199E-17, 3.000000000000000444, 0.000000000000000000 ) ) ;
#108 = DIRECTION ( 'NONE',  ( 1.000000000000000000, 1.467458275994711004E-16, 0.000000000000000000 ) ) ;
#109 = LENGTH_MEASURE_WITH_UNIT ( LENGTH_MEASURE( 0.02539999999999999897 ), #284 );
#110 = PRESENTATION_STYLE_ASSIGNMENT (( #63 ) ) ;
#111 = DIRECTION ( 'NONE',  ( -1.467458275994711004E-16, 1.000000000000000000, -0.000000000000000000 ) ) ;
#112 = FILL_AREA_STYLE_COLOUR ( '', #265 ) ;
#113 = SURFACE_STYLE_USAGE ( .BOTH. , #234 ) ;
#114 =( CONVERSION_BASED_UNIT ( 'INCH', #42 ) LENGTH_UNIT ( ) NAMED_UNIT ( #101 ) );
#115 = AXIS2_PLACEMENT_3D ( 'NONE', #122, #219, #7 ) ;
#116 = MECHANICAL_DESIGN_GEOMETRIC_PRESENTATION_REPRESENTATION (  '', ( #181 ), #201 ) ;
#117 = DIRECTION ( 'NONE',  ( 1.000000000000000000, 0.000000000000000000, 0.000000000000000000 ) ) ;
#118 = AXIS2_PLACEMENT_3D ( 'NONE', #82, #36, #200 ) ;
#119 = PRESENTATION_LAYER_ASSIGNMENT (  '', '', ( #181 ) ) ;
#120 = EDGE_CURVE ( 'NONE', #293, #145, #2, .T. ) ;
#121 = CLOSED_SHELL ( 'NONE', ( #245, #1, #300, #15 ) ) ;
#122 = CARTESIAN_POINT ( 'NONE',  ( -6.123233995736772199E-17, 3.000000000000000444, 0.000000000000000000 ) ) ;
#123 = PLANE ( 'NONE',  #164 ) ;
#124 = EDGE_LOOP ( 'NONE', ( #5, #268, #224, #295 ) ) ;
#125 = EDGE_LOOP ( 'NONE', ( #172, #76, #27, #78 ) ) ;
#126 = AXIS2_PLACEMENT_3D ( 'NONE', #107, #153, #129 ) ;
#127 = ORIENTED_EDGE ( 'NONE', *, *, #249, .F. ) ;
#128 = DIMENSIONAL_EXPONENTS ( 1.000000000000000000, 0.000000000000000000, 0.000000000000000000, 0.000000000000000000, 0.000000000000000000, 0.000000000000000000, 0.000000000000000000 ) ;
#129 = DIRECTION ( 'NONE',  ( -1.000000000000000000, 0.000000000000000000, 0.000000000000000000 ) ) ;
#130 = DIRECTION ( 'NONE',  ( 0.000000000000000000, 0.000000000000000000, -1.000000000000000000 ) ) ;
#131 =( NAMED_UNIT ( * ) PLANE_ANGLE_UNIT ( ) SI_UNIT ( $, .RADIAN. ) );
#132 = FACE_OUTER_BOUND ( 'NONE', #125, .T. ) ;
#133 = DIRECTION ( 'NONE',  ( -1.467458275994711004E-16, 1.000000000000000000, -0.000000000000000000 ) ) ;
#134 = CARTESIAN_POINT ( 'NONE',  ( 0.000000000000000000, 0.000000000000000000, 0.000000000000000000 ) ) ;
#135 = PRESENTATION_LAYER_ASSIGNMENT (  '', '', ( #62 ) ) ;
#136 = DIRECTION ( 'NONE',  ( -1.000000000000000000, -1.821231995776177205E-16, 0.000000000000000000 ) ) ;
#137 = UNCERTAINTY_MEASURE_WITH_UNIT (LENGTH_MEASURE( 1.000000000000000082E-05 ), #86, 'distance_accuracy_value', 'NONE');
#138 = DIRECTION ( 'NONE',  ( 0.000000000000000000, 0.000000000000000000, 1.000000000000000000 ) ) ;
#139 = STYLED_ITEM ( 'NONE', ( #87 ), #245 ) ;
#140 = AXIS2_PLACEMENT_3D ( 'NONE', #177, #279, #233 ) ;
#141 = DIRECTION ( 'NONE',  ( 0.000000000000000000, 0.000000000000000000, -1.000000000000000000 ) ) ;
#142 = ORIENTED_EDGE ( 'NONE', *, *, #216, .T. ) ;
#143 = CARTESIAN_POINT ( 'NONE',  ( 0.000000000000000000, 0.000000000000000000, 0.05000000000000000278 ) ) ;
#144 = CIRCLE ( 'NONE', #235, 0.3749999999999999445 ) ;
#145 = VERTEX_POINT ( 'NONE', #239 ) ;
#146 = EDGE_LOOP ( 'NONE', ( #79, #296 ) ) ;
#147 = VERTEX_POINT ( 'NONE', #259 ) ;
#148 = DIRECTION ( 'NONE',  ( 0.000000000000000000, 1.000000000000000000, 0.000000000000000000 ) ) ;
#149 = LINE ( 'NONE', #253, #188 ) ;
#150 = DIRECTION ( 'NONE',  ( -1.000000000000000000, 0.000000000000000000, 0.000000000000000000 ) ) ;
#151 = DIRECTION ( 'NONE',  ( 0.000000000000000000, 0.000000000000000000, 1.000000000000000000 ) ) ;
#152 = DIMENSIONAL_EXPONENTS ( 1.000000000000000000, 0.000000000000000000, 0.000000000000000000, 0.000000000000000000, 0.000000000000000000, 0.000000000000000000, 0.000000000000000000 ) ;
#153 = DIRECTION ( 'NONE',  ( -1.467458275994711004E-16, 1.000000000000000000, -0.000000000000000000 ) ) ;
#154 = FILL_AREA_STYLE ('',( #61 ) ) ;
#155 =( LENGTH_UNIT ( ) NAMED_UNIT ( * ) SI_UNIT ( $, .METRE. ) );
#156 =( LENGTH_UNIT ( ) NAMED_UNIT ( * ) SI_UNIT ( $, .METRE. ) );
#157 = CARTESIAN_POINT ( 'NONE',  ( 0.000000000000000000, 0.000000000000000000, 0.000000000000000000 ) ) ;
#158 = EDGE_CURVE ( 'NONE', #55, #30, #4, .T. ) ;
#159 = FILL_AREA_STYLE ('',( #287 ) ) ;
#160 = MECHANICAL_DESIGN_GEOMETRIC_PRESENTATION_REPRESENTATION (  '', ( #247 ), #187 ) ;
#161 =( NAMED_UNIT ( * ) PLANE_ANGLE_UNIT ( ) SI_UNIT ( $, .RADIAN. ) );
#162 =( NAMED_UNIT ( * ) SI_UNIT ( $, .STERADIAN. ) SOLID_ANGLE_UNIT ( ) );
#163 = APPLICATION_CONTEXT ( 'automotive_design' ) ;
#164 = AXIS2_PLACEMENT_3D ( 'NONE', #81, #148, #175 ) ;
#165 = STYLED_ITEM ( 'NONE', ( #276 ), #290 ) ;
#166 = APPLICATION_PROTOCOL_DEFINITION ( 'draft international standard', 'automotive_design', 1998, #163 ) ;
#167 = DIRECTION ( 'NONE',  ( 6.123233995736778362E-17, 0.8660254037844380415, -0.5000000000000009992 ) ) ;
#168 = FILL_AREA_STYLE ('',( #294 ) ) ;
#169 = CARTESIAN_POINT ( 'NONE',  ( 0.000000000000000000, 0.000000000000000000, 0.000000000000000000 ) ) ;
#170 =( GEOMETRIC_REPRESENTATION_CONTEXT ( 3 ) GLOBAL_UNCERTAINTY_ASSIGNED_CONTEXT ( ( #190 ) ) GLOBAL_UNIT_ASSIGNED_CONTEXT ( ( #285, #74, #49 ) ) REPRESENTATION_CONTEXT ( 'NONE', 'WORKASPACE' ) );
#171 = SURFACE_SIDE_STYLE ('',( #195 ) ) ;
#172 = ORIENTED_EDGE ( 'NONE', *, *, #50, .F. ) ;
#173 = COLOUR_RGB ( '',1.000000000000000000, 0.000000000000000000, 0.000000000000000000 ) ;
#174 = SURFACE_STYLE_FILL_AREA ( #203 ) ;
#175 = DIRECTION ( 'NONE',  ( 0.000000000000000000, -0.000000000000000000, 1.000000000000000000 ) ) ;
#176 = SURFACE_STYLE_FILL_AREA ( #12 ) ;
#177 = CARTESIAN_POINT ( 'NONE',  ( 2.963994933507119754E-16, 0.5629165124598836112, 0.000000000000000000 ) ) ;
#178 = CARTESIAN_POINT ( 'NONE',  ( 0.3749999999999999445, 0.5629165124598836112, 4.592425496802574219E-17 ) ) ;
#179 = DIRECTION ( 'NONE',  ( 0.000000000000000000, 1.000000000000000000, 0.000000000000000000 ) ) ;
#180 = MECHANICAL_DESIGN_GEOMETRIC_PRESENTATION_REPRESENTATION (  '', ( #269 ), #170 ) ;
#181 = STYLED_ITEM ( 'NONE', ( #189 ), #300 ) ;
#182 = FACE_OUTER_BOUND ( 'NONE', #8, .T. ) ;
#183 = DIRECTION ( 'NONE',  ( -0.000000000000000000, -1.000000000000000000, -0.000000000000000000 ) ) ;
#184 = CARTESIAN_POINT ( 'NONE',  ( -0.3749999999999993894, 0.5629165124598835002, 0.000000000000000000 ) ) ;
#185 = DIRECTION ( 'NONE',  ( 0.000000000000000000, 1.000000000000000000, 0.000000000000000000 ) ) ;
#186 =( LENGTH_UNIT ( ) NAMED_UNIT ( * ) SI_UNIT ( $, .METRE. ) );
#187 =( GEOMETRIC_REPRESENTATION_CONTEXT ( 3 ) GLOBAL_UNCERTAINTY_ASSIGNED_CONTEXT ( ( #261 ) ) GLOBAL_UNIT_ASSIGNED_CONTEXT ( ( #58, #131, #11 ) ) REPRESENTATION_CONTEXT ( 'NONE', 'WORKASPACE' ) );
#188 = VECTOR ( 'NONE', #111, 39.37007874015748143 ) ;
#189 = PRESENTATION_STYLE_ASSIGNMENT (( #305 ) ) ;
#190 = UNCERTAINTY_MEASURE_WITH_UNIT (LENGTH_MEASURE( 1.000000000000000082E-05 ), #285, 'distance_accuracy_value', 'NONE');
#191 = ADVANCED_FACE ( 'NONE', ( #242 ), #29, .T. ) ;
#192 = DIRECTION ( 'NONE',  ( -1.467458275994711004E-16, 1.000000000000000000, -0.000000000000000000 ) ) ;
#193 = FACE_OUTER_BOUND ( 'NONE', #146, .T. ) ;
#194 = SURFACE_STYLE_USAGE ( .BOTH. , #45 ) ;
#195 = SURFACE_STYLE_FILL_AREA ( #56 ) ;
#196 = CONICAL_SURFACE ( 'NONE', #288, 0.05000000000000000278, 0.5235987755983000369 ) ;
#197 = VERTEX_POINT ( 'NONE', #273 ) ;
#198 = CARTESIAN_POINT ( 'NONE',  ( 0.000000000000000000, 0.000000000000000000, 0.000000000000000000 ) ) ;
#199 = CIRCLE ( 'NONE', #229, 0.05000000000000000278 ) ;
#200 = DIRECTION ( 'NONE',  ( 0.000000000000000000, 0.000000000000000000, -1.000000000000000000 ) ) ;
#201 =( GEOMETRIC_REPRESENTATION_CONTEXT ( 3 ) GLOBAL_UNCERTAINTY_ASSIGNED_CONTEXT ( ( #84 ) ) GLOBAL_UNIT_ASSIGNED_CONTEXT ( ( #212, #161, #262 ) ) REPRESENTATION_CONTEXT ( 'NONE', 'WORKASPACE' ) );
#202 = DIRECTION ( 'NONE',  ( 0.000000000000000000, 0.000000000000000000, -1.000000000000000000 ) ) ;
#203 = FILL_AREA_STYLE ('',( #112 ) ) ;
#204 = DIRECTION ( 'NONE',  ( -1.000000000000000000, 0.000000000000000000, 0.000000000000000000 ) ) ;
#205 = DIRECTION ( 'NONE',  ( -0.000000000000000000, -1.000000000000000000, -0.000000000000000000 ) ) ;
#206 = VECTOR ( 'NONE', #303, 39.37007874015748143 ) ;
#207 = PRESENTATION_LAYER_ASSIGNMENT (  '', '', ( #165 ) ) ;
#208 = CARTESIAN_POINT ( 'NONE',  ( 0.000000000000000000, 0.000000000000000000, 0.000000000000000000 ) ) ;
#209 = LENGTH_MEASURE_WITH_UNIT ( LENGTH_MEASURE( 0.02539999999999999897 ), #186 );
#210 =( LENGTH_UNIT ( ) NAMED_UNIT ( * ) SI_UNIT ( $, .METRE. ) );
#211 = PRODUCT_DEFINITION_CONTEXT ( 'detailed design', #264, 'design' ) ;
#212 =( CONVERSION_BASED_UNIT ( 'INCH', #93 ) LENGTH_UNIT ( ) NAMED_UNIT ( #252 ) );
#213 = PRODUCT_CONTEXT ( 'NONE', #163, 'mechanical' ) ;
#214 = PRODUCT_DEFINITION_FORMATION_WITH_SPECIFIED_SOURCE ( 'ANY', '', #85, .NOT_KNOWN. ) ;
#215 = UNCERTAINTY_MEASURE_WITH_UNIT (LENGTH_MEASURE( 1.000000000000000082E-05 ), #114, 'distance_accuracy_value', 'NONE');
#216 = EDGE_CURVE ( 'NONE', #147, #145, #77, .T. ) ;
#217 = LENGTH_MEASURE_WITH_UNIT ( LENGTH_MEASURE( 0.02539999999999999897 ), #94 );
#218 = AXIS2_PLACEMENT_3D ( 'NONE', #41, #133, #204 ) ;
#219 = DIRECTION ( 'NONE',  ( -1.467458275994711004E-16, 1.000000000000000000, -0.000000000000000000 ) ) ;
#220 = ORIENTED_EDGE ( 'NONE', *, *, #73, .T. ) ;
#221 = DIMENSIONAL_EXPONENTS ( 1.000000000000000000, 0.000000000000000000, 0.000000000000000000, 0.000000000000000000, 0.000000000000000000, 0.000000000000000000, 0.000000000000000000 ) ;
#222 = PRODUCT_RELATED_PRODUCT_CATEGORY ( 'part', '', ( #85 ) ) ;
#223 = PRESENTATION_LAYER_ASSIGNMENT (  '', '', ( #139 ) ) ;
#224 = ORIENTED_EDGE ( 'NONE', *, *, #249, .T. ) ;
#225 = FILL_AREA_STYLE_COLOUR ( '', #173 ) ;
#226 = PLANE ( 'NONE',  #54 ) ;
#227 = CARTESIAN_POINT ( 'NONE',  ( -0.3750000000000001110, 3.000000000000000444, 0.000000000000000000 ) ) ;
#228 = EDGE_CURVE ( 'NONE', #243, #293, #238, .T. ) ;
#229 = AXIS2_PLACEMENT_3D ( 'NONE', #169, #95, #141 ) ;
#230 = FILL_AREA_STYLE_COLOUR ( '', #291 ) ;
#231 = DIMENSIONAL_EXPONENTS ( 1.000000000000000000, 0.000000000000000000, 0.000000000000000000, 0.000000000000000000, 0.000000000000000000, 0.000000000000000000, 0.000000000000000000 ) ;
#232 = DIRECTION ( 'NONE',  ( -1.467458275994711004E-16, 1.000000000000000000, 0.000000000000000000 ) ) ;
#233 = DIRECTION ( 'NONE',  ( -1.000000000000000000, -1.821231995776177205E-16, 0.000000000000000000 ) ) ;
#234 = SURFACE_SIDE_STYLE ('',( #176 ) ) ;
#235 = AXIS2_PLACEMENT_3D ( 'NONE', #251, #205, #202 ) ;
#236 =( NAMED_UNIT ( * ) PLANE_ANGLE_UNIT ( ) SI_UNIT ( $, .RADIAN. ) );
#237 = SURFACE_SIDE_STYLE ('',( #306 ) ) ;
#238 = CIRCLE ( 'NONE', #280, 0.05000000000000000278 ) ;
#239 = CARTESIAN_POINT ( 'NONE',  ( 4.592425496802573602E-17, 0.5629165124598833891, -0.3749999999999999445 ) ) ;
#240 = VERTEX_POINT ( 'NONE', #227 ) ;
#241 = AXIS2_PLACEMENT_3D ( 'NONE', #26, #99, #136 ) ;
#242 = FACE_OUTER_BOUND ( 'NONE', #124, .T. ) ;
#243 = VERTEX_POINT ( 'NONE', #257 ) ;
#244 = ORIENTED_EDGE ( 'NONE', *, *, #103, .T. ) ;
#245 = ADVANCED_FACE ( 'NONE', ( #132 ), #39, .T. ) ;
#246 = PRESENTATION_STYLE_ASSIGNMENT (( #270 ) ) ;
#247 = STYLED_ITEM ( 'NONE', ( #246 ), #1 ) ;
#248 = ORIENTED_EDGE ( 'NONE', *, *, #286, .F. ) ;
#249 = EDGE_CURVE ( 'NONE', #55, #240, #149, .T. ) ;
#250 = LENGTH_MEASURE_WITH_UNIT ( LENGTH_MEASURE( 0.02539999999999999897 ), #97 );
#251 = CARTESIAN_POINT ( 'NONE',  ( 0.000000000000000000, 0.5629165124598835002, 0.000000000000000000 ) ) ;
#252 = DIMENSIONAL_EXPONENTS ( 1.000000000000000000, 0.000000000000000000, 0.000000000000000000, 0.000000000000000000, 0.000000000000000000, 0.000000000000000000, 0.000000000000000000 ) ;
#253 = CARTESIAN_POINT ( 'NONE',  ( -0.3749999999999998890, 3.000000000000000444, 0.000000000000000000 ) ) ;
#254 = CLOSED_SHELL ( 'NONE', ( #18, #278, #191, #6 ) ) ;
#255 = FACE_OUTER_BOUND ( 'NONE', #10, .T. ) ;
#256 = DIRECTION ( 'NONE',  ( 0.000000000000000000, -1.000000000000000000, -0.000000000000000000 ) ) ;
#257 = CARTESIAN_POINT ( 'NONE',  ( 0.000000000000000000, 0.000000000000000000, 0.05000000000000000278 ) ) ;
#258 = CARTESIAN_POINT ( 'NONE',  ( 0.3749999999999999445, 3.000000000000000444, 0.000000000000000000 ) ) ;
#259 = CARTESIAN_POINT ( 'NONE',  ( 0.000000000000000000, 0.5629165124598833891, 0.3749999999999999445 ) ) ;
#260 = CIRCLE ( 'NONE', #140, 0.3749999999999996669 ) ;
#261 = UNCERTAINTY_MEASURE_WITH_UNIT (LENGTH_MEASURE( 1.000000000000000082E-05 ), #58, 'distance_accuracy_value', 'NONE');
#262 =( NAMED_UNIT ( * ) SI_UNIT ( $, .STERADIAN. ) SOLID_ANGLE_UNIT ( ) );
#263 = APPLICATION_PROTOCOL_DEFINITION ( 'draft international standard', 'automotive_design', 1998, #264 ) ;
#264 = APPLICATION_CONTEXT ( 'automotive_design' ) ;
#265 = COLOUR_RGB ( '',1.000000000000000000, 0.000000000000000000, 0.000000000000000000 ) ;
#266 = ORIENTED_EDGE ( 'NONE', *, *, #158, .F. ) ;
#267 = PRESENTATION_STYLE_ASSIGNMENT (( #194 ) ) ;
#268 = ORIENTED_EDGE ( 'NONE', *, *, #286, .T. ) ;
#269 = STYLED_ITEM ( 'NONE', ( #267 ), #65 ) ;
#270 = SURFACE_STYLE_USAGE ( .BOTH. , #171 ) ;
#271 = ORIENTED_EDGE ( 'NONE', *, *, #38, .T. ) ;
#272 = EDGE_CURVE ( 'NONE', #145, #147, #144, .T. ) ;
#273 = CARTESIAN_POINT ( 'NONE',  ( 0.3749999999999999445, 3.000000000000000444, 4.592425496802574219E-17 ) ) ;
#274 = PRESENTATION_LAYER_ASSIGNMENT (  '', '', ( #269 ) ) ;
#275 = DIRECTION ( 'NONE',  ( 0.000000000000000000, 0.000000000000000000, -1.000000000000000000 ) ) ;
#276 = PRESENTATION_STYLE_ASSIGNMENT (( #282 ) ) ;
#277 = ADVANCED_BREP_SHAPE_REPRESENTATION ( '59819', ( #290, #65, #28 ), #292 ) ;
#278 = ADVANCED_FACE ( 'NONE', ( #255 ), #304, .F. ) ;
#279 = DIRECTION ( 'NONE',  ( -1.467458275994711004E-16, 1.000000000000000000, -0.000000000000000000 ) ) ;
#280 = AXIS2_PLACEMENT_3D ( 'NONE', #134, #183, #130 ) ;
#281 = CARTESIAN_POINT ( 'NONE',  ( -6.123233995736770966E-17, 3.000000000000000444, 0.000000000000000000 ) ) ;
#282 = SURFACE_STYLE_USAGE ( .BOTH. , #91 ) ;
#283 =( NAMED_UNIT ( * ) PLANE_ANGLE_UNIT ( ) SI_UNIT ( $, .RADIAN. ) );
#284 =( LENGTH_UNIT ( ) NAMED_UNIT ( * ) SI_UNIT ( $, .METRE. ) );
#285 =( CONVERSION_BASED_UNIT ( 'INCH', #209 ) LENGTH_UNIT ( ) NAMED_UNIT ( #299 ) );
#286 = EDGE_CURVE ( 'NONE', #30, #55, #260, .T. ) ;
#287 = FILL_AREA_STYLE_COLOUR ( '', #34 ) ;
#288 = AXIS2_PLACEMENT_3D ( 'NONE', #157, #185, #46 ) ;
#289 =( NAMED_UNIT ( * ) PLANE_ANGLE_UNIT ( ) SI_UNIT ( $, .RADIAN. ) );
#290 = MANIFOLD_SOLID_BREP ( 'Revolve - Cutting Edge', #121 ) ;
#291 = COLOUR_RGB ( '',1.000000000000000000, 0.000000000000000000, 0.000000000000000000 ) ;
#292 =( GEOMETRIC_REPRESENTATION_CONTEXT ( 3 ) GLOBAL_UNCERTAINTY_ASSIGNED_CONTEXT ( ( #47 ) ) GLOBAL_UNIT_ASSIGNED_CONTEXT ( ( #69, #236, #162 ) ) REPRESENTATION_CONTEXT ( 'NONE', 'WORKASPACE' ) );
#293 = VERTEX_POINT ( 'NONE', #70 ) ;
#294 = FILL_AREA_STYLE_COLOUR ( '', #92 ) ;
#295 = ORIENTED_EDGE ( 'NONE', *, *, #48, .F. ) ;
#296 = ORIENTED_EDGE ( 'NONE', *, *, #272, .F. ) ;
#297 = DIRECTION ( 'NONE',  ( -1.467458275994711004E-16, 1.000000000000000000, -0.000000000000000000 ) ) ;
#298 = CARTESIAN_POINT ( 'NONE',  ( 2.963994933507120740E-16, 0.5629165124598835002, 0.000000000000000000 ) ) ;
#299 = DIMENSIONAL_EXPONENTS ( 1.000000000000000000, 0.000000000000000000, 0.000000000000000000, 0.000000000000000000, 0.000000000000000000, 0.000000000000000000, 0.000000000000000000 ) ;
#300 = ADVANCED_FACE ( 'NONE', ( #67 ), #196, .T. ) ;
#301 = MECHANICAL_DESIGN_GEOMETRIC_PRESENTATION_REPRESENTATION (  '', ( #62 ), #17 ) ;
#302 = PLANE ( 'NONE',  #307 ) ;
#303 = DIRECTION ( 'NONE',  ( 0.000000000000000000, 0.8660254037844380415, 0.5000000000000009992 ) ) ;
#304 = PLANE ( 'NONE',  #98 ) ;
#305 = SURFACE_STYLE_USAGE ( .BOTH. , #237 ) ;
#306 = SURFACE_STYLE_FILL_AREA ( #159 ) ;
#307 = AXIS2_PLACEMENT_3D ( 'NONE', #258, #14, #108 ) ;
#308 = COLOUR_RGB ( '',0.7921568627450980005, 0.8196078431372548767, 0.9333333333333333481 ) ;
#309 = SHAPE_DEFINITION_REPRESENTATION ( #44, #277 ) ;
ENDSEC;
END-ISO-10303-21;
