ISO-10303-21;
HEADER;
FILE_DESCRIPTION (( 'STEP AP214' ),
    '1' );
FILE_NAME ('Micro_DMM-030-490.STEP',
    '2021-09-02T16:15:40',
    ( '' ),
    ( '' ),
    'SwSTEP 2.0',
    'SolidWorks 2020',
    '' );
FILE_SCHEMA (( 'AUTOMOTIVE_DESIGN' ));
ENDSEC;

DATA;
#1 = AXIS2_PLACEMENT_3D ( 'NONE', #291, #39, #262 ) ;
#2 = AXIS2_PLACEMENT_3D ( 'NONE', #137, #321, #79 ) ;
#3 = CYLINDRICAL_SURFACE ( 'NONE', #177, 0.05905499999999998251 ) ;
#4 = VERTEX_POINT ( 'NONE', #154 ) ;
#5 = DIRECTION ( 'NONE',  ( -1.000000000000000000, 0.0000000000000000000, 0.0000000000000000000 ) ) ;
#6 = AXIS2_PLACEMENT_3D ( 'NONE', #213, #130, #240 ) ;
#7 = ORIENTED_EDGE ( 'NONE', *, *, #290, .F. ) ;
#8 = FACE_OUTER_BOUND ( 'NONE', #229, .T. ) ;
#9 = ORIENTED_EDGE ( 'NONE', *, *, #196, .T. ) ;
#10 = EDGE_CURVE ( 'NONE', #146, #253, #200, .T. ) ;
#11 = DIRECTION ( 'NONE',  ( -1.000000000000000000, 0.0000000000000000000, 0.0000000000000000000 ) ) ;
#12 = FACE_OUTER_BOUND ( 'NONE', #188, .T. ) ;
#13 = DIRECTION ( 'NONE',  ( 1.000000000000000000, 0.0000000000000000000, -0.0000000000000000000 ) ) ;
#14 = EDGE_CURVE ( 'NONE', #40, #34, #125, .T. ) ;
#15 = AXIS2_PLACEMENT_3D ( 'NONE', #73, #151, #5 ) ;
#16 = AXIS2_PLACEMENT_3D ( 'NONE', #318, #263, #68 ) ;
#17 = DIRECTION ( 'NONE',  ( -1.000000000000000000, 0.0000000000000000000, 0.0000000000000000000 ) ) ;
#18 = CARTESIAN_POINT ( 'NONE',  ( -0.05900500000000007128, 0.0000000000000000000, 0.3149610000000000465 ) ) ;
#19 = DIRECTION ( 'NONE',  ( -0.0000000000000000000, -0.0000000000000000000, -1.000000000000000000 ) ) ;
#20 = EDGE_CURVE ( 'NONE', #293, #4, #274, .T. ) ;
#21 = DIRECTION ( 'NONE',  ( -0.0000000000000000000, -0.0000000000000000000, -1.000000000000000000 ) ) ;
#22 =( NAMED_UNIT ( * ) SI_UNIT ( $, .STERADIAN. ) SOLID_ANGLE_UNIT ( ) );
#23 = EDGE_CURVE ( 'NONE', #184, #265, #181, .T. ) ;
#24 = FACE_OUTER_BOUND ( 'NONE', #62, .T. ) ;
#25 = UNCERTAINTY_MEASURE_WITH_UNIT (LENGTH_MEASURE( 1.000000000000000082E-05 ), #54, 'distance_accuracy_value', 'NONE');
#26 = CARTESIAN_POINT ( 'NONE',  ( 0.0000000000000000000, 0.0000000000000000000, 0.0000000000000000000 ) ) ;
#27 = FILL_AREA_STYLE ('',( #247 ) ) ;
#28 = CIRCLE ( 'NONE', #2, 0.05905499999999998251 ) ;
#29 = AXIS2_PLACEMENT_3D ( 'NONE', #141, #223, #17 ) ;
#30 = CIRCLE ( 'NONE', #49, 0.05905499999999998251 ) ;
#31 =( CONVERSION_BASED_UNIT ( 'INCH', #163 ) LENGTH_UNIT ( ) NAMED_UNIT ( #309 ) );
#32 = SURFACE_SIDE_STYLE ('',( #252 ) ) ;
#33 = SURFACE_STYLE_FILL_AREA ( #207 ) ;
#34 = VERTEX_POINT ( 'NONE', #258 ) ;
#35 = ORIENTED_EDGE ( 'NONE', *, *, #69, .T. ) ;
#36 = ORIENTED_EDGE ( 'NONE', *, *, #69, .F. ) ;
#37 = ORIENTED_EDGE ( 'NONE', *, *, #23, .F. ) ;
#38 = DIRECTION ( 'NONE',  ( -0.0000000000000000000, -0.0000000000000000000, -1.000000000000000000 ) ) ;
#39 = DIRECTION ( 'NONE',  ( 0.0000000000000000000, 0.0000000000000000000, -1.000000000000000000 ) ) ;
#40 = VERTEX_POINT ( 'NONE', #264 ) ;
#41 = DIRECTION ( 'NONE',  ( -0.0000000000000000000, -0.0000000000000000000, -1.000000000000000000 ) ) ;
#42 = CARTESIAN_POINT ( 'NONE',  ( 0.0000000000000000000, 0.0000000000000000000, 1.496062999999999921 ) ) ;
#43 = PRESENTATION_LAYER_ASSIGNMENT (  '', '', ( #242 ) ) ;
#44 = EDGE_LOOP ( 'NONE', ( #209, #36, #311, #237 ) ) ;
#45 = CARTESIAN_POINT ( 'NONE',  ( 0.05905499999999998251, 7.232151672364692341E-18, 0.3149610000000000465 ) ) ;
#46 = DIRECTION ( 'NONE',  ( 0.0000000000000000000, 0.0000000000000000000, -1.000000000000000000 ) ) ;
#47 = APPLICATION_CONTEXT ( 'automotive_design' ) ;
#48 = FACE_OUTER_BOUND ( 'NONE', #103, .T. ) ;
#49 = AXIS2_PLACEMENT_3D ( 'NONE', #300, #46, #191 ) ;
#50 = DIRECTION ( 'NONE',  ( 0.0000000000000000000, 0.0000000000000000000, -1.000000000000000000 ) ) ;
#51 = DIRECTION ( 'NONE',  ( -1.000000000000000000, 0.0000000000000000000, 0.0000000000000000000 ) ) ;
#52 = ADVANCED_FACE ( 'NONE', ( #48 ), #133, .T. ) ;
#53 = CIRCLE ( 'NONE', #205, 0.05905499999999998251 ) ;
#54 =( CONVERSION_BASED_UNIT ( 'INCH', #273 ) LENGTH_UNIT ( ) NAMED_UNIT ( #166 ) );
#55 = DIRECTION ( 'NONE',  ( 0.7071067811865536790, 8.659560562355008046E-17, -0.7071067811865412445 ) ) ;
#56 = CLOSED_SHELL ( 'NONE', ( #52, #317, #234, #140, #238, #89, #270, #320, #129, #299, #326 ) ) ;
#57 =( NAMED_UNIT ( * ) PLANE_ANGLE_UNIT ( ) SI_UNIT ( $, .RADIAN. ) );
#58 = DIRECTION ( 'NONE',  ( -0.0000000000000000000, 0.0000000000000000000, -1.000000000000000000 ) ) ;
#59 = LENGTH_MEASURE_WITH_UNIT ( LENGTH_MEASURE( 0.02539999999999999897 ), #217 );
#60 = ORIENTED_EDGE ( 'NONE', *, *, #206, .T. ) ;
#61 = ORIENTED_EDGE ( 'NONE', *, *, #81, .T. ) ;
#62 = EDGE_LOOP ( 'NONE', ( #236, #272, #254, #173 ) ) ;
#63 =( CONVERSION_BASED_UNIT ( 'INCH', #59 ) LENGTH_UNIT ( ) NAMED_UNIT ( #126 ) );
#64 = ORIENTED_EDGE ( 'NONE', *, *, #75, .F. ) ;
#65 = CARTESIAN_POINT ( 'NONE',  ( 0.0000000000000000000, 0.0000000000000000000, 1.707404996040164512E-17 ) ) ;
#66 = ORIENTED_EDGE ( 'NONE', *, *, #14, .F. ) ;
#67 = AXIS2_PLACEMENT_3D ( 'NONE', #127, #195, #71 ) ;
#68 = DIRECTION ( 'NONE',  ( 1.000000000000000000, 0.0000000000000000000, 0.0000000000000000000 ) ) ;
#69 = EDGE_CURVE ( 'NONE', #109, #94, #192, .T. ) ;
#70 = CARTESIAN_POINT ( 'NONE',  ( -0.04405500000000001082, 0.0000000000000000000, 1.496062999999999921 ) ) ;
#71 = DIRECTION ( 'NONE',  ( -1.000000000000000000, 0.0000000000000000000, 0.0000000000000000000 ) ) ;
#72 = LINE ( 'NONE', #162, #267 ) ;
#73 = CARTESIAN_POINT ( 'NONE',  ( 0.0000000000000000000, 0.0000000000000000000, 0.0000000000000000000 ) ) ;
#74 = CARTESIAN_POINT ( 'NONE',  ( -0.05905499999999998251, 0.0000000000000000000, 1.496062999999999921 ) ) ;
#75 = EDGE_CURVE ( 'NONE', #40, #253, #221, .T. ) ;
#76 =( NAMED_UNIT ( * ) SI_UNIT ( $, .STERADIAN. ) SOLID_ANGLE_UNIT ( ) );
#77 = DIRECTION ( 'NONE',  ( -1.000000000000000000, 0.0000000000000000000, 0.0000000000000000000 ) ) ;
#78 = EDGE_CURVE ( 'NONE', #85, #97, #53, .T. ) ;
#79 = DIRECTION ( 'NONE',  ( -1.000000000000000000, 0.0000000000000000000, 0.0000000000000000000 ) ) ;
#80 = ADVANCED_BREP_SHAPE_REPRESENTATION ( 'Micro_DMM-030-490', ( #302, #319 ), #288 ) ;
#81 = EDGE_CURVE ( 'NONE', #265, #253, #284, .T. ) ;
#82 =( LENGTH_UNIT ( ) NAMED_UNIT ( * ) SI_UNIT ( $, .METRE. ) );
#83 = CARTESIAN_POINT ( 'NONE',  ( 0.007499999999999999722, 0.0000000000000000000, 1.707404996040164512E-17 ) ) ;
#84 = AXIS2_PLACEMENT_3D ( 'NONE', #135, #50, #159 ) ;
#85 = VERTEX_POINT ( 'NONE', #45 ) ;
#86 = EDGE_CURVE ( 'NONE', #293, #85, #128, .T. ) ;
#87 = ORIENTED_EDGE ( 'NONE', *, *, #78, .F. ) ;
#88 = UNCERTAINTY_MEASURE_WITH_UNIT (LENGTH_MEASURE( 1.000000000000000082E-05 ), #63, 'distance_accuracy_value', 'NONE');
#89 = ADVANCED_FACE ( 'NONE', ( #8 ), #101, .T. ) ;
#90 = ORIENTED_EDGE ( 'NONE', *, *, #14, .T. ) ;
#91 = DIRECTION ( 'NONE',  ( -0.0000000000000000000, -0.0000000000000000000, -1.000000000000000000 ) ) ;
#92 = PRESENTATION_LAYER_ASSIGNMENT (  '', '', ( #134 ) ) ;
#93 = DIRECTION ( 'NONE',  ( -1.000000000000000000, 0.0000000000000000000, 0.0000000000000000000 ) ) ;
#94 = VERTEX_POINT ( 'NONE', #315 ) ;
#95 = EDGE_CURVE ( 'NONE', #109, #4, #122, .T. ) ;
#96 = DIRECTION ( 'NONE',  ( -1.000000000000000000, 0.0000000000000000000, 0.0000000000000000000 ) ) ;
#97 = VERTEX_POINT ( 'NONE', #190 ) ;
#98 = FACE_OUTER_BOUND ( 'NONE', #216, .T. ) ;
#99 = CARTESIAN_POINT ( 'NONE',  ( 0.0000000000000000000, 0.0000000000000000000, 0.05150499999999980788 ) ) ;
#100 = ORIENTED_EDGE ( 'NONE', *, *, #86, .T. ) ;
#101 = PLANE ( 'NONE',  #225 ) ;
#102 = VECTOR ( 'NONE', #38, 39.37007874015748143 ) ;
#103 = EDGE_LOOP ( 'NONE', ( #150, #61, #172, #7 ) ) ;
#104 = AXIS2_PLACEMENT_3D ( 'NONE', #202, #296, #77 ) ;
#105 = FACE_OUTER_BOUND ( 'NONE', #260, .T. ) ;
#106 = ORIENTED_EDGE ( 'NONE', *, *, #248, .T. ) ;
#107 = CARTESIAN_POINT ( 'NONE',  ( 0.0000000000000000000, 0.0000000000000000000, 0.05150499999999980788 ) ) ;
#108 = SHAPE_DEFINITION_REPRESENTATION ( #314, #80 ) ;
#109 = VERTEX_POINT ( 'NONE', #70 ) ;
#110 = DIRECTION ( 'NONE',  ( -1.000000000000000000, 0.0000000000000000000, 0.0000000000000000000 ) ) ;
#111 = MECHANICAL_DESIGN_GEOMETRIC_PRESENTATION_REPRESENTATION (  '', ( #242 ), #139 ) ;
#112 = EDGE_CURVE ( 'NONE', #34, #40, #259, .T. ) ;
#113 = CYLINDRICAL_SURFACE ( 'NONE', #104, 0.05900500000000003659 ) ;
#114 = DIRECTION ( 'NONE',  ( 1.000000000000000000, 0.0000000000000000000, 0.0000000000000000000 ) ) ;
#115 = DIRECTION ( 'NONE',  ( 0.0000000000000000000, 0.0000000000000000000, 1.000000000000000000 ) ) ;
#116 = VECTOR ( 'NONE', #41, 39.37007874015748143 ) ;
#117 =( NAMED_UNIT ( * ) PLANE_ANGLE_UNIT ( ) SI_UNIT ( $, .RADIAN. ) );
#118 = CARTESIAN_POINT ( 'NONE',  ( 0.0000000000000000000, 0.0000000000000000000, 0.0000000000000000000 ) ) ;
#119 = DIRECTION ( 'NONE',  ( 1.000000000000000000, 0.0000000000000000000, -0.0000000000000000000 ) ) ;
#120 = PRODUCT ( 'Micro_DMM-030-490', 'Micro_DMM-030-490', '', ( #136 ) ) ;
#121 = ORIENTED_EDGE ( 'NONE', *, *, #307, .T. ) ;
#122 = LINE ( 'NONE', #289, #271 ) ;
#123 = DIRECTION ( 'NONE',  ( -0.0000000000000000000, -0.0000000000000000000, -1.000000000000000000 ) ) ;
#124 = ORIENTED_EDGE ( 'NONE', *, *, #78, .T. ) ;
#125 = CIRCLE ( 'NONE', #164, 0.007499999999999999722 ) ;
#126 = DIMENSIONAL_EXPONENTS ( 1.000000000000000000, 0.0000000000000000000, 0.0000000000000000000, 0.0000000000000000000, 0.0000000000000000000, 0.0000000000000000000, 0.0000000000000000000 ) ;
#127 = CARTESIAN_POINT ( 'NONE',  ( 0.0000000000000000000, 0.0000000000000000000, 0.3149610000000000465 ) ) ;
#128 = LINE ( 'NONE', #256, #102 ) ;
#129 = ADVANCED_FACE ( 'NONE', ( #98 ), #144, .T. ) ;
#130 = DIRECTION ( 'NONE',  ( -0.0000000000000000000, -0.0000000000000000000, -1.000000000000000000 ) ) ;
#131 = PRESENTATION_STYLE_ASSIGNMENT (( #231 ) ) ;
#132 = DIRECTION ( 'NONE',  ( -1.000000000000000000, 0.0000000000000000000, 0.0000000000000000000 ) ) ;
#133 = CYLINDRICAL_SURFACE ( 'NONE', #15, 0.05900500000000003659 ) ;
#134 = STYLED_ITEM ( 'NONE', ( #131 ), #302 ) ;
#135 = CARTESIAN_POINT ( 'NONE',  ( 0.0000000000000000000, 0.0000000000000000000, 1.496062999999999921 ) ) ;
#136 = PRODUCT_CONTEXT ( 'NONE', #47, 'mechanical' ) ;
#137 = CARTESIAN_POINT ( 'NONE',  ( 0.0000000000000000000, 0.0000000000000000000, 0.3149610000000000465 ) ) ;
#138 = LINE ( 'NONE', #244, #161 ) ;
#139 =( GEOMETRIC_REPRESENTATION_CONTEXT ( 3 ) GLOBAL_UNCERTAINTY_ASSIGNED_CONTEXT ( ( #25 ) ) GLOBAL_UNIT_ASSIGNED_CONTEXT ( ( #54, #57, #76 ) ) REPRESENTATION_CONTEXT ( 'NONE', 'WORKASPACE' ) );
#140 = ADVANCED_FACE ( 'NONE', ( #187 ), #3, .T. ) ;
#141 = CARTESIAN_POINT ( 'NONE',  ( 0.0000000000000000000, 0.0000000000000000000, 1.496062999999999921 ) ) ;
#142 = PRODUCT_DEFINITION ( 'UNKNOWN', '', #201, #170 ) ;
#143 = AXIS2_PLACEMENT_3D ( 'NONE', #42, #157, #114 ) ;
#144 = CONICAL_SURFACE ( 'NONE', #310, 0.007499999999999999722, 0.7853981633974504994 ) ;
#145 = SURFACE_SIDE_STYLE ('',( #33 ) ) ;
#146 = VERTEX_POINT ( 'NONE', #243 ) ;
#147 = ORIENTED_EDGE ( 'NONE', *, *, #20, .T. ) ;
#148 = ORIENTED_EDGE ( 'NONE', *, *, #198, .F. ) ;
#149 = PRODUCT_RELATED_PRODUCT_CATEGORY ( 'part', '', ( #120 ) ) ;
#150 = ORIENTED_EDGE ( 'NONE', *, *, #23, .T. ) ;
#151 = DIRECTION ( 'NONE',  ( -0.0000000000000000000, -0.0000000000000000000, -1.000000000000000000 ) ) ;
#152 = AXIS2_PLACEMENT_3D ( 'NONE', #246, #58, #222 ) ;
#153 = EDGE_LOOP ( 'NONE', ( #230, #308, #257, #64 ) ) ;
#154 = CARTESIAN_POINT ( 'NONE',  ( -0.05905499999999998251, 0.0000000000000000000, 1.481063000000000240 ) ) ;
#155 = CARTESIAN_POINT ( 'NONE',  ( 0.05900500000000007822, 7.226028438368966682E-18, 0.3149610000000000465 ) ) ;
#156 = AXIS2_PLACEMENT_3D ( 'NONE', #107, #21, #215 ) ;
#157 = DIRECTION ( 'NONE',  ( 0.0000000000000000000, 0.0000000000000000000, 1.000000000000000000 ) ) ;
#158 = EDGE_CURVE ( 'NONE', #94, #293, #72, .T. ) ;
#159 = DIRECTION ( 'NONE',  ( -1.000000000000000000, 0.0000000000000000000, 0.0000000000000000000 ) ) ;
#160 = AXIS2_PLACEMENT_3D ( 'NONE', #99, #123, #96 ) ;
#161 = VECTOR ( 'NONE', #19, 39.37007874015748143 ) ;
#162 = CARTESIAN_POINT ( 'NONE',  ( 0.04405500000000001082, 5.395181473643666598E-18, 1.496062999999999921 ) ) ;
#163 = LENGTH_MEASURE_WITH_UNIT ( LENGTH_MEASURE( 0.02539999999999999897 ), #227 );
#164 = AXIS2_PLACEMENT_3D ( 'NONE', #65, #174, #93 ) ;
#165 = CIRCLE ( 'NONE', #226, 0.04405500000000001082 ) ;
#166 = DIMENSIONAL_EXPONENTS ( 1.000000000000000000, 0.0000000000000000000, 0.0000000000000000000, 0.0000000000000000000, 0.0000000000000000000, 0.0000000000000000000, 0.0000000000000000000 ) ;
#167 = VECTOR ( 'NONE', #211, 39.37007874015748854 ) ;
#168 = ORIENTED_EDGE ( 'NONE', *, *, #75, .T. ) ;
#169 = AXIS2_PLACEMENT_3D ( 'NONE', #266, #178, #110 ) ;
#170 = PRODUCT_DEFINITION_CONTEXT ( 'detailed design', #278, 'design' ) ;
#171 =( NAMED_UNIT ( * ) PLANE_ANGLE_UNIT ( ) SI_UNIT ( $, .RADIAN. ) );
#172 = ORIENTED_EDGE ( 'NONE', *, *, #10, .F. ) ;
#173 = ORIENTED_EDGE ( 'NONE', *, *, #95, .F. ) ;
#174 = DIRECTION ( 'NONE',  ( -0.0000000000000000000, -0.0000000000000000000, -1.000000000000000000 ) ) ;
#175 = FACE_OUTER_BOUND ( 'NONE', #153, .T. ) ;
#176 = APPLICATION_PROTOCOL_DEFINITION ( 'draft international standard', 'automotive_design', 1998, #278 ) ;
#177 = AXIS2_PLACEMENT_3D ( 'NONE', #312, #269, #51 ) ;
#178 = DIRECTION ( 'NONE',  ( -0.0000000000000000000, -0.0000000000000000000, -1.000000000000000000 ) ) ;
#179 = DIRECTION ( 'NONE',  ( -0.7071067811865490160, 8.659560562354951347E-17, 0.7071067811865459074 ) ) ;
#180 = CONICAL_SURFACE ( 'NONE', #29, 0.04405500000000001082, 0.7853981633974570498 ) ;
#181 = CIRCLE ( 'NONE', #67, 0.05900500000000007128 ) ;
#182 =( GEOMETRIC_REPRESENTATION_CONTEXT ( 3 ) GLOBAL_UNCERTAINTY_ASSIGNED_CONTEXT ( ( #88 ) ) GLOBAL_UNIT_ASSIGNED_CONTEXT ( ( #63, #171, #228 ) ) REPRESENTATION_CONTEXT ( 'NONE', 'WORKASPACE' ) );
#183 = EDGE_LOOP ( 'NONE', ( #283, #100, #282, #297 ) ) ;
#184 = VERTEX_POINT ( 'NONE', #18 ) ;
#185 = CARTESIAN_POINT ( 'NONE',  ( 0.0000000000000000000, 0.0000000000000000000, 1.707404996040164512E-17 ) ) ;
#186 = EDGE_LOOP ( 'NONE', ( #37, #189 ) ) ;
#187 = FACE_OUTER_BOUND ( 'NONE', #183, .T. ) ;
#188 = EDGE_LOOP ( 'NONE', ( #9, #124 ) ) ;
#189 = ORIENTED_EDGE ( 'NONE', *, *, #307, .F. ) ;
#190 = CARTESIAN_POINT ( 'NONE',  ( -0.05905499999999998251, 0.0000000000000000000, 0.3149610000000000465 ) ) ;
#191 = DIRECTION ( 'NONE',  ( 1.000000000000000000, 0.0000000000000000000, 0.0000000000000000000 ) ) ;
#192 = CIRCLE ( 'NONE', #143, 0.04405500000000001082 ) ;
#193 = CARTESIAN_POINT ( 'NONE',  ( 0.0000000000000000000, 0.0000000000000000000, 1.707404996040164512E-17 ) ) ;
#194 = AXIS2_PLACEMENT_3D ( 'NONE', #118, #115, #119 ) ;
#195 = DIRECTION ( 'NONE',  ( -0.0000000000000000000, -0.0000000000000000000, -1.000000000000000000 ) ) ;
#196 = EDGE_CURVE ( 'NONE', #97, #85, #28, .T. ) ;
#197 = CYLINDRICAL_SURFACE ( 'NONE', #169, 0.05905499999999998251 ) ;
#198 = EDGE_CURVE ( 'NONE', #253, #146, #294, .T. ) ;
#199 = LINE ( 'NONE', #74, #275 ) ;
#200 = CIRCLE ( 'NONE', #160, 0.05900500000000000883 ) ;
#201 = PRODUCT_DEFINITION_FORMATION_WITH_SPECIFIED_SOURCE ( 'ANY', '', #120, .NOT_KNOWN. ) ;
#202 = CARTESIAN_POINT ( 'NONE',  ( 0.0000000000000000000, 0.0000000000000000000, 0.0000000000000000000 ) ) ;
#203 = DIRECTION ( 'NONE',  ( 0.0000000000000000000, 0.0000000000000000000, 1.000000000000000000 ) ) ;
#204 = SURFACE_STYLE_USAGE ( .BOTH. , #32 ) ;
#205 = AXIS2_PLACEMENT_3D ( 'NONE', #239, #261, #11 ) ;
#206 = EDGE_CURVE ( 'NONE', #94, #109, #165, .T. ) ;
#207 = FILL_AREA_STYLE ('',( #249 ) ) ;
#208 = CONICAL_SURFACE ( 'NONE', #84, 0.04405500000000001082, 0.7853981633974570498 ) ;
#209 = ORIENTED_EDGE ( 'NONE', *, *, #158, .F. ) ;
#210 = ORIENTED_EDGE ( 'NONE', *, *, #81, .F. ) ;
#211 = DIRECTION ( 'NONE',  ( 0.7071067811865490160, 0.0000000000000000000, 0.7071067811865459074 ) ) ;
#212 = CARTESIAN_POINT ( 'NONE',  ( 0.0000000000000000000, 0.0000000000000000000, 1.496062999999999921 ) ) ;
#213 = CARTESIAN_POINT ( 'NONE',  ( 0.0000000000000000000, 0.0000000000000000000, 0.3149610000000000465 ) ) ;
#214 = ORIENTED_EDGE ( 'NONE', *, *, #290, .T. ) ;
#215 = DIRECTION ( 'NONE',  ( -1.000000000000000000, 0.0000000000000000000, 0.0000000000000000000 ) ) ;
#216 = EDGE_LOOP ( 'NONE', ( #285, #66, #168, #279 ) ) ;
#217 =( LENGTH_UNIT ( ) NAMED_UNIT ( * ) SI_UNIT ( $, .METRE. ) );
#218 = CARTESIAN_POINT ( 'NONE',  ( 0.05905499999999998251, 7.232151672364692341E-18, 1.481063000000000240 ) ) ;
#219 = AXIS2_PLACEMENT_3D ( 'NONE', #193, #91, #132 ) ;
#220 = COLOUR_RGB ( '',0.7921568627450980005, 0.8196078431372548767, 0.9333333333333333481 ) ;
#221 = LINE ( 'NONE', #83, #167 ) ;
#222 = DIRECTION ( 'NONE',  ( -1.000000000000000000, 0.0000000000000000000, 0.0000000000000000000 ) ) ;
#223 = DIRECTION ( 'NONE',  ( 0.0000000000000000000, 0.0000000000000000000, -1.000000000000000000 ) ) ;
#224 = DIRECTION ( 'NONE',  ( 0.0000000000000000000, 0.0000000000000000000, 1.000000000000000000 ) ) ;
#225 = AXIS2_PLACEMENT_3D ( 'NONE', #212, #286, #13 ) ;
#226 = AXIS2_PLACEMENT_3D ( 'NONE', #241, #203, #298 ) ;
#227 =( LENGTH_UNIT ( ) NAMED_UNIT ( * ) SI_UNIT ( $, .METRE. ) );
#228 =( NAMED_UNIT ( * ) SI_UNIT ( $, .STERADIAN. ) SOLID_ANGLE_UNIT ( ) );
#229 = EDGE_LOOP ( 'NONE', ( #35, #60 ) ) ;
#230 = ORIENTED_EDGE ( 'NONE', *, *, #112, .F. ) ;
#231 = SURFACE_STYLE_USAGE ( .BOTH. , #145 ) ;
#232 = DIRECTION ( 'NONE',  ( -0.7071067811865536790, 0.0000000000000000000, -0.7071067811865412445 ) ) ;
#233 = EDGE_LOOP ( 'NONE', ( #90, #277 ) ) ;
#234 = ADVANCED_FACE ( 'NONE', ( #24 ), #180, .T. ) ;
#235 = CONICAL_SURFACE ( 'NONE', #16, 0.007499999999999999722, 0.7853981633974504994 ) ;
#236 = ORIENTED_EDGE ( 'NONE', *, *, #206, .F. ) ;
#237 = ORIENTED_EDGE ( 'NONE', *, *, #20, .F. ) ;
#238 = ADVANCED_FACE ( 'NONE', ( #105 ), #197, .T. ) ;
#239 = CARTESIAN_POINT ( 'NONE',  ( 0.0000000000000000000, 0.0000000000000000000, 0.3149610000000000465 ) ) ;
#240 = DIRECTION ( 'NONE',  ( -1.000000000000000000, 0.0000000000000000000, 0.0000000000000000000 ) ) ;
#241 = CARTESIAN_POINT ( 'NONE',  ( 0.0000000000000000000, 0.0000000000000000000, 1.496062999999999921 ) ) ;
#242 = STYLED_ITEM ( 'NONE', ( #303 ), #80 ) ;
#243 = CARTESIAN_POINT ( 'NONE',  ( -0.05900500000000002271, 7.226028438368960519E-18, 0.05150499999999980788 ) ) ;
#244 = CARTESIAN_POINT ( 'NONE',  ( -0.05900500000000003659, 0.0000000000000000000, 0.0000000000000000000 ) ) ;
#245 = VECTOR ( 'NONE', #179, 39.37007874015748854 ) ;
#246 = CARTESIAN_POINT ( 'NONE',  ( 0.05900500000000007128, 0.0000000000000000000, 0.3149610000000000465 ) ) ;
#247 = FILL_AREA_STYLE_COLOUR ( '', #304 ) ;
#248 = EDGE_CURVE ( 'NONE', #4, #97, #199, .T. ) ;
#249 = FILL_AREA_STYLE_COLOUR ( '', #220 ) ;
#250 = PLANE ( 'NONE',  #194 ) ;
#251 = APPLICATION_PROTOCOL_DEFINITION ( 'draft international standard', 'automotive_design', 1998, #47 ) ;
#252 = SURFACE_STYLE_FILL_AREA ( #27 ) ;
#253 = VERTEX_POINT ( 'NONE', #295 ) ;
#254 = ORIENTED_EDGE ( 'NONE', *, *, #305, .F. ) ;
#255 = DIRECTION ( 'NONE',  ( 1.000000000000000000, 0.0000000000000000000, 0.0000000000000000000 ) ) ;
#256 = CARTESIAN_POINT ( 'NONE',  ( 0.05905499999999998251, 7.232151672364692341E-18, 1.496062999999999921 ) ) ;
#257 = ORIENTED_EDGE ( 'NONE', *, *, #10, .T. ) ;
#258 = CARTESIAN_POINT ( 'NONE',  ( -0.007499999999999999722, 4.072256768864737466E-18, 1.707404996040164512E-17 ) ) ;
#259 = CIRCLE ( 'NONE', #219, 0.007499999999999999722 ) ;
#260 = EDGE_LOOP ( 'NONE', ( #306, #147, #106, #87 ) ) ;
#261 = DIRECTION ( 'NONE',  ( -0.0000000000000000000, -0.0000000000000000000, -1.000000000000000000 ) ) ;
#262 = DIRECTION ( 'NONE',  ( 1.000000000000000000, 0.0000000000000000000, 0.0000000000000000000 ) ) ;
#263 = DIRECTION ( 'NONE',  ( 0.0000000000000000000, 0.0000000000000000000, 1.000000000000000000 ) ) ;
#264 = CARTESIAN_POINT ( 'NONE',  ( 0.007499999999999999722, 0.0000000000000000000, 1.707404996040164512E-17 ) ) ;
#265 = VERTEX_POINT ( 'NONE', #155 ) ;
#266 = CARTESIAN_POINT ( 'NONE',  ( 0.0000000000000000000, 0.0000000000000000000, 1.496062999999999921 ) ) ;
#267 = VECTOR ( 'NONE', #55, 39.37007874015748854 ) ;
#268 = DIRECTION ( 'NONE',  ( -0.0000000000000000000, -0.0000000000000000000, -1.000000000000000000 ) ) ;
#269 = DIRECTION ( 'NONE',  ( -0.0000000000000000000, -0.0000000000000000000, -1.000000000000000000 ) ) ;
#270 = ADVANCED_FACE ( 'NONE', ( #292 ), #208, .T. ) ;
#271 = VECTOR ( 'NONE', #232, 39.37007874015748854 ) ;
#272 = ORIENTED_EDGE ( 'NONE', *, *, #158, .T. ) ;
#273 = LENGTH_MEASURE_WITH_UNIT ( LENGTH_MEASURE( 0.02539999999999999897 ), #82 );
#274 = CIRCLE ( 'NONE', #1, 0.05905499999999998251 ) ;
#275 = VECTOR ( 'NONE', #268, 39.37007874015748143 ) ;
#276 = PLANE ( 'NONE',  #152 ) ;
#277 = ORIENTED_EDGE ( 'NONE', *, *, #112, .T. ) ;
#278 = APPLICATION_CONTEXT ( 'automotive_design' ) ;
#279 = ORIENTED_EDGE ( 'NONE', *, *, #198, .T. ) ;
#280 = DIRECTION ( 'NONE',  ( 0.0000000000000000000, 0.0000000000000000000, 1.000000000000000000 ) ) ;
#281 = UNCERTAINTY_MEASURE_WITH_UNIT (LENGTH_MEASURE( 1.000000000000000082E-05 ), #31, 'distance_accuracy_value', 'NONE');
#282 = ORIENTED_EDGE ( 'NONE', *, *, #196, .F. ) ;
#283 = ORIENTED_EDGE ( 'NONE', *, *, #305, .T. ) ;
#284 = LINE ( 'NONE', #316, #116 ) ;
#285 = ORIENTED_EDGE ( 'NONE', *, *, #324, .F. ) ;
#286 = DIRECTION ( 'NONE',  ( 0.0000000000000000000, 0.0000000000000000000, 1.000000000000000000 ) ) ;
#287 = FACE_BOUND ( 'NONE', #186, .T. ) ;
#288 =( GEOMETRIC_REPRESENTATION_CONTEXT ( 3 ) GLOBAL_UNCERTAINTY_ASSIGNED_CONTEXT ( ( #281 ) ) GLOBAL_UNIT_ASSIGNED_CONTEXT ( ( #31, #117, #22 ) ) REPRESENTATION_CONTEXT ( 'NONE', 'WORKASPACE' ) );
#289 = CARTESIAN_POINT ( 'NONE',  ( -0.04405500000000001082, 0.0000000000000000000, 1.496062999999999921 ) ) ;
#290 = EDGE_CURVE ( 'NONE', #184, #146, #138, .T. ) ;
#291 = CARTESIAN_POINT ( 'NONE',  ( 0.0000000000000000000, 0.0000000000000000000, 1.481063000000000240 ) ) ;
#292 = FACE_OUTER_BOUND ( 'NONE', #44, .T. ) ;
#293 = VERTEX_POINT ( 'NONE', #218 ) ;
#294 = CIRCLE ( 'NONE', #156, 0.05900500000000000883 ) ;
#295 = CARTESIAN_POINT ( 'NONE',  ( 0.05900500000000002271, 0.0000000000000000000, 0.05150499999999980788 ) ) ;
#296 = DIRECTION ( 'NONE',  ( -0.0000000000000000000, -0.0000000000000000000, -1.000000000000000000 ) ) ;
#297 = ORIENTED_EDGE ( 'NONE', *, *, #248, .F. ) ;
#298 = DIRECTION ( 'NONE',  ( 1.000000000000000000, 0.0000000000000000000, 0.0000000000000000000 ) ) ;
#299 = ADVANCED_FACE ( 'NONE', ( #323 ), #113, .T. ) ;
#300 = CARTESIAN_POINT ( 'NONE',  ( 0.0000000000000000000, 0.0000000000000000000, 1.481063000000000240 ) ) ;
#301 = DIRECTION ( 'NONE',  ( 1.000000000000000000, 0.0000000000000000000, 0.0000000000000000000 ) ) ;
#302 = MANIFOLD_SOLID_BREP ( 'Cut-Revolve4', #56 ) ;
#303 = PRESENTATION_STYLE_ASSIGNMENT (( #204 ) ) ;
#304 = COLOUR_RGB ( '',0.7921568627450980005, 0.8196078431372548767, 0.9333333333333333481 ) ;
#305 = EDGE_CURVE ( 'NONE', #4, #293, #30, .T. ) ;
#306 = ORIENTED_EDGE ( 'NONE', *, *, #86, .F. ) ;
#307 = EDGE_CURVE ( 'NONE', #265, #184, #322, .T. ) ;
#308 = ORIENTED_EDGE ( 'NONE', *, *, #324, .T. ) ;
#309 = DIMENSIONAL_EXPONENTS ( 1.000000000000000000, 0.0000000000000000000, 0.0000000000000000000, 0.0000000000000000000, 0.0000000000000000000, 0.0000000000000000000, 0.0000000000000000000 ) ;
#310 = AXIS2_PLACEMENT_3D ( 'NONE', #185, #280, #255 ) ;
#311 = ORIENTED_EDGE ( 'NONE', *, *, #95, .T. ) ;
#312 = CARTESIAN_POINT ( 'NONE',  ( 0.0000000000000000000, 0.0000000000000000000, 1.496062999999999921 ) ) ;
#313 = EDGE_LOOP ( 'NONE', ( #210, #121, #214, #148 ) ) ;
#314 = PRODUCT_DEFINITION_SHAPE ( 'NONE', 'NONE',  #142 ) ;
#315 = CARTESIAN_POINT ( 'NONE',  ( 0.04405500000000001082, 6.313666573004179469E-18, 1.496062999999999921 ) ) ;
#316 = CARTESIAN_POINT ( 'NONE',  ( 0.05900500000000003659, 7.226028438368962060E-18, 0.0000000000000000000 ) ) ;
#317 = ADVANCED_FACE ( 'NONE', ( #175 ), #235, .T. ) ;
#318 = CARTESIAN_POINT ( 'NONE',  ( 0.0000000000000000000, 0.0000000000000000000, 1.707404996040164512E-17 ) ) ;
#319 = AXIS2_PLACEMENT_3D ( 'NONE', #26, #224, #301 ) ;
#320 = ADVANCED_FACE ( 'NONE', ( #287, #12 ), #276, .T. ) ;
#321 = DIRECTION ( 'NONE',  ( -0.0000000000000000000, -0.0000000000000000000, -1.000000000000000000 ) ) ;
#322 = CIRCLE ( 'NONE', #6, 0.05900500000000007128 ) ;
#323 = FACE_OUTER_BOUND ( 'NONE', #313, .T. ) ;
#324 = EDGE_CURVE ( 'NONE', #34, #146, #328, .T. ) ;
#325 = CARTESIAN_POINT ( 'NONE',  ( -0.007499999999999999722, 9.184850993605147975E-19, 1.707404996040164512E-17 ) ) ;
#326 = ADVANCED_FACE ( 'NONE', ( #329 ), #250, .F. ) ;
#327 = MECHANICAL_DESIGN_GEOMETRIC_PRESENTATION_REPRESENTATION (  '', ( #134 ), #182 ) ;
#328 = LINE ( 'NONE', #325, #245 ) ;
#329 = FACE_OUTER_BOUND ( 'NONE', #233, .T. ) ;
ENDSEC;
END-ISO-10303-21;
