ISO-10303-21;
HEADER;
FILE_DESCRIPTION (( 'STEP AP214' ),
    '1' );
FILE_NAME ('59743.STEP',
    '2023-07-24T15:32:21',
    ( '' ),
    ( '' ),
    'SwSTEP 2.0',
    'SolidWorks 2023',
    '' );
FILE_SCHEMA (( 'AUTOMOTIVE_DESIGN' ));
ENDSEC;

DATA;
#1 = CARTESIAN_POINT ( 'NONE',  ( -4.999999999999992006, 63.00000000000000000, 0.000000000000000000 ) ) ;
#2 = DIRECTION ( 'NONE',  ( -1.000000000000000000, -4.697880814296055710E-17, 0.000000000000000000 ) ) ;
#3 = DIRECTION ( 'NONE',  ( 0.000000000000000000, 0.000000000000000000, -1.000000000000000000 ) ) ;
#4 = COLOUR_RGB ( '',0.7921568627450980005, 0.8196078431372548767, 0.9333333333333333481 ) ;
#5 =( NAMED_UNIT ( * ) SI_UNIT ( $, .STERADIAN. ) SOLID_ANGLE_UNIT ( ) );
#6 = CARTESIAN_POINT ( 'NONE',  ( 6.123233995736766282E-16, 0.000000000000000000, 5.000000000000000000 ) ) ;
#7 = UNCERTAINTY_MEASURE_WITH_UNIT (LENGTH_MEASURE( 1.000000000000000082E-05 ), #46, 'distance_accuracy_value', 'NONE');
#8 = SURFACE_STYLE_FILL_AREA ( #272 ) ;
#9 = SHAPE_DEFINITION_REPRESENTATION ( #152, #106 ) ;
#10 =( GEOMETRIC_REPRESENTATION_CONTEXT ( 3 ) GLOBAL_UNCERTAINTY_ASSIGNED_CONTEXT ( ( #256 ) ) GLOBAL_UNIT_ASSIGNED_CONTEXT ( ( #96, #62, #342 ) ) REPRESENTATION_CONTEXT ( 'NONE', 'WORKASPACE' ) );
#11 = COLOUR_RGB ( '',1.000000000000000000, 0.000000000000000000, 0.000000000000000000 ) ;
#12 = PRESENTATION_LAYER_ASSIGNMENT (  '', '', ( #249 ) ) ;
#13 = SURFACE_SIDE_STYLE ('',( #122 ) ) ;
#14 =( LENGTH_UNIT ( ) NAMED_UNIT ( * ) SI_UNIT ( .MILLI., .METRE. ) );
#15 = SURFACE_STYLE_FILL_AREA ( #278 ) ;
#16 = CARTESIAN_POINT ( 'NONE',  ( 4.898587196589412829E-16, 1.000000000000000000, 4.000000000000000000 ) ) ;
#17 = PRESENTATION_LAYER_ASSIGNMENT (  '', '', ( #82 ) ) ;
#18 = AXIS2_PLACEMENT_3D ( 'NONE', #242, #239, #316 ) ;
#19 = AXIS2_PLACEMENT_3D ( 'NONE', #54, #169, #211 ) ;
#20 =( NAMED_UNIT ( * ) PLANE_ANGLE_UNIT ( ) SI_UNIT ( $, .RADIAN. ) );
#21 = EDGE_CURVE ( 'NONE', #307, #223, #329, .T. ) ;
#22 = DIRECTION ( 'NONE',  ( -4.697880814296055710E-17, 1.000000000000000000, -0.000000000000000000 ) ) ;
#23 = SURFACE_STYLE_USAGE ( .BOTH. , #287 ) ;
#24 = ORIENTED_EDGE ( 'NONE', *, *, #71, .F. ) ;
#25 = ADVANCED_FACE ( 'NONE', ( #103 ), #188, .T. ) ;
#26 = CARTESIAN_POINT ( 'NONE',  ( -4.999999999999989342, 20.00000000000000355, 0.000000000000000000 ) ) ;
#27 = SURFACE_STYLE_FILL_AREA ( #245 ) ;
#28 = MECHANICAL_DESIGN_GEOMETRIC_PRESENTATION_REPRESENTATION (  '', ( #123 ), #10 ) ;
#29 = ORIENTED_EDGE ( 'NONE', *, *, #21, .F. ) ;
#30 = AXIS2_PLACEMENT_3D ( 'NONE', #197, #134, #332 ) ;
#31 = UNCERTAINTY_MEASURE_WITH_UNIT (LENGTH_MEASURE( 1.000000000000000082E-05 ), #14, 'distance_accuracy_value', 'NONE');
#32 = DIRECTION ( 'NONE',  ( -0.000000000000000000, -1.000000000000000000, -0.000000000000000000 ) ) ;
#33 = DIRECTION ( 'NONE',  ( -4.697880814296055710E-17, 1.000000000000000000, 0.000000000000000000 ) ) ;
#34 = DIRECTION ( 'NONE',  ( 0.000000000000000000, 1.000000000000000000, 0.000000000000000000 ) ) ;
#35 = CARTESIAN_POINT ( 'NONE',  ( 6.123233995736766282E-16, 20.00000000000000000, 5.000000000000000000 ) ) ;
#36 =( GEOMETRIC_REPRESENTATION_CONTEXT ( 3 ) GLOBAL_UNCERTAINTY_ASSIGNED_CONTEXT ( ( #31 ) ) GLOBAL_UNIT_ASSIGNED_CONTEXT ( ( #14, #76, #83 ) ) REPRESENTATION_CONTEXT ( 'NONE', 'WORKASPACE' ) );
#37 = MECHANICAL_DESIGN_GEOMETRIC_PRESENTATION_REPRESENTATION (  '', ( #324 ), #215 ) ;
#38 = DIRECTION ( 'NONE',  ( 1.000000000000000000, 4.697880814296055710E-17, 0.000000000000000000 ) ) ;
#39 = CARTESIAN_POINT ( 'NONE',  ( 0.000000000000000000, 0.000000000000000000, 0.000000000000000000 ) ) ;
#40 = SURFACE_SIDE_STYLE ('',( #8 ) ) ;
#41 = AXIS2_PLACEMENT_3D ( 'NONE', #199, #128, #189 ) ;
#42 = AXIS2_PLACEMENT_3D ( 'NONE', #165, #347, #294 ) ;
#43 = ORIENTED_EDGE ( 'NONE', *, *, #184, .T. ) ;
#44 =( LENGTH_UNIT ( ) NAMED_UNIT ( * ) SI_UNIT ( .MILLI., .METRE. ) );
#45 = EDGE_LOOP ( 'NONE', ( #50, #364, #311, #286 ) ) ;
#46 =( LENGTH_UNIT ( ) NAMED_UNIT ( * ) SI_UNIT ( .MILLI., .METRE. ) );
#47 = CIRCLE ( 'NONE', #248, 5.000000000000000000 ) ;
#48 = MECHANICAL_DESIGN_GEOMETRIC_PRESENTATION_REPRESENTATION (  '', ( #304 ), #222 ) ;
#49 = FACE_OUTER_BOUND ( 'NONE', #52, .T. ) ;
#50 = ORIENTED_EDGE ( 'NONE', *, *, #151, .F. ) ;
#51 = CARTESIAN_POINT ( 'NONE',  ( 3.184081677783117402E-15, 63.00000000000000000, 0.000000000000000000 ) ) ;
#52 = EDGE_LOOP ( 'NONE', ( #161, #86, #111, #281 ) ) ;
#53 =( NAMED_UNIT ( * ) SI_UNIT ( $, .STERADIAN. ) SOLID_ANGLE_UNIT ( ) );
#54 = CARTESIAN_POINT ( 'NONE',  ( 0.000000000000000000, 1.000000000000000000, 0.000000000000000000 ) ) ;
#55 = ORIENTED_EDGE ( 'NONE', *, *, #355, .T. ) ;
#56 = FILL_AREA_STYLE_COLOUR ( '', #154 ) ;
#57 = EDGE_LOOP ( 'NONE', ( #288, #190, #29, #136 ) ) ;
#58 = FILL_AREA_STYLE_COLOUR ( '', #352 ) ;
#59 = PRESENTATION_LAYER_ASSIGNMENT (  '', '', ( #324 ) ) ;
#60 = CARTESIAN_POINT ( 'NONE',  ( 0.000000000000000000, 0.000000000000000000, -4.000000000000000000 ) ) ;
#61 = PRESENTATION_STYLE_ASSIGNMENT (( #341 ) ) ;
#62 =( NAMED_UNIT ( * ) PLANE_ANGLE_UNIT ( ) SI_UNIT ( $, .RADIAN. ) );
#63 = PLANE ( 'NONE',  #70 ) ;
#64 = CARTESIAN_POINT ( 'NONE',  ( 0.000000000000000000, 1.000000000000000000, -4.000000000000000000 ) ) ;
#65 = PRODUCT_RELATED_PRODUCT_CATEGORY ( 'part', '', ( #362 ) ) ;
#66 = AXIS2_PLACEMENT_3D ( 'NONE', #102, #179, #140 ) ;
#67 = EDGE_CURVE ( 'NONE', #259, #138, #323, .T. ) ;
#68 = CARTESIAN_POINT ( 'NONE',  ( 0.000000000000000000, 1.000000000000000000, 0.000000000000000000 ) ) ;
#69 = CARTESIAN_POINT ( 'NONE',  ( 0.000000000000000000, 0.000000000000000000, 0.000000000000000000 ) ) ;
#70 = AXIS2_PLACEMENT_3D ( 'NONE', #344, #175, #38 ) ;
#71 = EDGE_CURVE ( 'NONE', #223, #307, #90, .T. ) ;
#72 = AXIS2_PLACEMENT_3D ( 'NONE', #348, #33, #2 ) ;
#73 = AXIS2_PLACEMENT_3D ( 'NONE', #149, #171, #291 ) ;
#74 = ADVANCED_FACE ( 'NONE', ( #209 ), #345, .F. ) ;
#75 = CARTESIAN_POINT ( 'NONE',  ( 3.184081677783117402E-15, 63.00000000000000000, 0.000000000000000000 ) ) ;
#76 =( NAMED_UNIT ( * ) PLANE_ANGLE_UNIT ( ) SI_UNIT ( $, .RADIAN. ) );
#77 =( LENGTH_UNIT ( ) NAMED_UNIT ( * ) SI_UNIT ( .MILLI., .METRE. ) );
#78 =( LENGTH_UNIT ( ) NAMED_UNIT ( * ) SI_UNIT ( .MILLI., .METRE. ) );
#79 = ORIENTED_EDGE ( 'NONE', *, *, #71, .T. ) ;
#80 = UNCERTAINTY_MEASURE_WITH_UNIT (LENGTH_MEASURE( 1.000000000000000082E-05 ), #234, 'distance_accuracy_value', 'NONE');
#81 = DIRECTION ( 'NONE',  ( 1.000000000000000000, 0.000000000000000000, -1.224646799147353207E-16 ) ) ;
#82 = STYLED_ITEM ( 'NONE', ( #326 ), #172 ) ;
#83 =( NAMED_UNIT ( * ) SI_UNIT ( $, .STERADIAN. ) SOLID_ANGLE_UNIT ( ) );
#84 = ORIENTED_EDGE ( 'NONE', *, *, #253, .F. ) ;
#85 = EDGE_LOOP ( 'NONE', ( #202, #43, #333, #24 ) ) ;
#86 = ORIENTED_EDGE ( 'NONE', *, *, #276, .T. ) ;
#87 = FACE_OUTER_BOUND ( 'NONE', #85, .T. ) ;
#88 = SURFACE_STYLE_USAGE ( .BOTH. , #366 ) ;
#89 = CARTESIAN_POINT ( 'NONE',  ( 5.000000000000000000, 20.00000000000000355, 6.123233995736762338E-16 ) ) ;
#90 = CIRCLE ( 'NONE', #318, 4.999999999999996447 ) ;
#91 = DIRECTION ( 'NONE',  ( -4.697880814296055710E-17, 1.000000000000000000, -0.000000000000000000 ) ) ;
#92 = CARTESIAN_POINT ( 'NONE',  ( 0.000000000000000000, 20.00000000000000000, 0.000000000000000000 ) ) ;
#93 =( NAMED_UNIT ( * ) SI_UNIT ( $, .STERADIAN. ) SOLID_ANGLE_UNIT ( ) );
#94 = EDGE_CURVE ( 'NONE', #255, #110, #47, .T. ) ;
#95 = LINE ( 'NONE', #1, #124 ) ;
#96 =( LENGTH_UNIT ( ) NAMED_UNIT ( * ) SI_UNIT ( .MILLI., .METRE. ) );
#97 = FILL_AREA_STYLE ('',( #113 ) ) ;
#98 = DIRECTION ( 'NONE',  ( -1.000000000000000000, 0.000000000000000000, 0.000000000000000000 ) ) ;
#99 = AXIS2_PLACEMENT_3D ( 'NONE', #92, #34, #114 ) ;
#100 = PRESENTATION_LAYER_ASSIGNMENT (  '', '', ( #304 ) ) ;
#101 = VECTOR ( 'NONE', #338, 1000.000000000000000 ) ;
#102 = CARTESIAN_POINT ( 'NONE',  ( 5.204170427930421283E-15, 20.00000000000000355, 0.000000000000000000 ) ) ;
#103 = FACE_OUTER_BOUND ( 'NONE', #224, .T. ) ;
#104 =( GEOMETRIC_REPRESENTATION_CONTEXT ( 3 ) GLOBAL_UNCERTAINTY_ASSIGNED_CONTEXT ( ( #80 ) ) GLOBAL_UNIT_ASSIGNED_CONTEXT ( ( #234, #147, #5 ) ) REPRESENTATION_CONTEXT ( 'NONE', 'WORKASPACE' ) );
#105 = ORIENTED_EDGE ( 'NONE', *, *, #355, .F. ) ;
#106 = ADVANCED_BREP_SHAPE_REPRESENTATION ( '59743', ( #207, #320, #73 ), #351 ) ;
#107 =( NAMED_UNIT ( * ) SI_UNIT ( $, .STERADIAN. ) SOLID_ANGLE_UNIT ( ) );
#108 = LINE ( 'NONE', #235, #298 ) ;
#109 = VERTEX_POINT ( 'NONE', #204 ) ;
#110 = VERTEX_POINT ( 'NONE', #148 ) ;
#111 = ORIENTED_EDGE ( 'NONE', *, *, #346, .F. ) ;
#112 = DIRECTION ( 'NONE',  ( 0.000000000000000000, 0.000000000000000000, -1.000000000000000000 ) ) ;
#113 = FILL_AREA_STYLE_COLOUR ( '', #185 ) ;
#114 = DIRECTION ( 'NONE',  ( 0.000000000000000000, -0.000000000000000000, 1.000000000000000000 ) ) ;
#115 = LINE ( 'NONE', #6, #205 ) ;
#116 = DIRECTION ( 'NONE',  ( -0.000000000000000000, -1.000000000000000000, -0.000000000000000000 ) ) ;
#117 = CIRCLE ( 'NONE', #180, 1.000000000000000000 ) ;
#118 = DIRECTION ( 'NONE',  ( -0.000000000000000000, -1.000000000000000000, -0.000000000000000000 ) ) ;
#119 = FACE_OUTER_BOUND ( 'NONE', #57, .T. ) ;
#120 = FILL_AREA_STYLE_COLOUR ( '', #11 ) ;
#121 = PRESENTATION_STYLE_ASSIGNMENT (( #208 ) ) ;
#122 = SURFACE_STYLE_FILL_AREA ( #354 ) ;
#123 = STYLED_ITEM ( 'NONE', ( #121 ), #127 ) ;
#124 = VECTOR ( 'NONE', #295, 1000.000000000000000 ) ;
#125 = EDGE_CURVE ( 'NONE', #255, #358, #213, .T. ) ;
#126 = CLOSED_SHELL ( 'NONE', ( #155, #74, #292, #250 ) ) ;
#127 = ADVANCED_FACE ( 'NONE', ( #170 ), #173, .T. ) ;
#128 = DIRECTION ( 'NONE',  ( -0.000000000000000000, -1.000000000000000000, -0.000000000000000000 ) ) ;
#129 = UNCERTAINTY_MEASURE_WITH_UNIT (LENGTH_MEASURE( 1.000000000000000082E-05 ), #44, 'distance_accuracy_value', 'NONE');
#130 = PRESENTATION_STYLE_ASSIGNMENT (( #196 ) ) ;
#131 = CYLINDRICAL_SURFACE ( 'NONE', #277, 4.999999999999995559 ) ;
#132 =( GEOMETRIC_REPRESENTATION_CONTEXT ( 3 ) GLOBAL_UNCERTAINTY_ASSIGNED_CONTEXT ( ( #225 ) ) GLOBAL_UNIT_ASSIGNED_CONTEXT ( ( #77, #20, #107 ) ) REPRESENTATION_CONTEXT ( 'NONE', 'WORKASPACE' ) );
#133 = TOROIDAL_SURFACE ( 'NONE', #19, 4.000000000000000000, 1.000000000000000000 ) ;
#134 = DIRECTION ( 'NONE',  ( -0.000000000000000000, -1.000000000000000000, -0.000000000000000000 ) ) ;
#135 = EDGE_LOOP ( 'NONE', ( #164, #361, #230, #105 ) ) ;
#136 = ORIENTED_EDGE ( 'NONE', *, *, #191, .F. ) ;
#137 =( NAMED_UNIT ( * ) SI_UNIT ( $, .STERADIAN. ) SOLID_ANGLE_UNIT ( ) );
#138 = VERTEX_POINT ( 'NONE', #35 ) ;
#139 = FILL_AREA_STYLE ('',( #56 ) ) ;
#140 = DIRECTION ( 'NONE',  ( -1.000000000000000000, 0.000000000000000000, 0.000000000000000000 ) ) ;
#141 = EDGE_CURVE ( 'NONE', #110, #255, #299, .T. ) ;
#142 = PRESENTATION_STYLE_ASSIGNMENT (( #285 ) ) ;
#143 = AXIS2_PLACEMENT_3D ( 'NONE', #68, #182, #271 ) ;
#144 = MECHANICAL_DESIGN_GEOMETRIC_PRESENTATION_REPRESENTATION (  '', ( #238 ), #270 ) ;
#145 = DIRECTION ( 'NONE',  ( 0.000000000000000000, 0.000000000000000000, -1.000000000000000000 ) ) ;
#146 = UNCERTAINTY_MEASURE_WITH_UNIT (LENGTH_MEASURE( 1.000000000000000082E-05 ), #268, 'distance_accuracy_value', 'NONE');
#147 =( NAMED_UNIT ( * ) PLANE_ANGLE_UNIT ( ) SI_UNIT ( $, .RADIAN. ) );
#148 = CARTESIAN_POINT ( 'NONE',  ( 6.123233995736766282E-16, 1.000000000000000000, 5.000000000000000000 ) ) ;
#149 = CARTESIAN_POINT ( 'NONE',  ( 0.000000000000000000, 0.000000000000000000, 0.000000000000000000 ) ) ;
#150 = PRESENTATION_LAYER_ASSIGNMENT (  '', '', ( #238 ) ) ;
#151 = EDGE_CURVE ( 'NONE', #138, #110, #115, .T. ) ;
#152 = PRODUCT_DEFINITION_SHAPE ( 'NONE', 'NONE',  #163 ) ;
#153 = COLOUR_RGB ( '',1.000000000000000000, 0.000000000000000000, 0.000000000000000000 ) ;
#154 = COLOUR_RGB ( '',1.000000000000000000, 0.000000000000000000, 0.000000000000000000 ) ;
#155 = ADVANCED_FACE ( 'NONE', ( #119 ), #290, .T. ) ;
#156 = SURFACE_STYLE_FILL_AREA ( #187 ) ;
#157 = ORIENTED_EDGE ( 'NONE', *, *, #151, .T. ) ;
#158 = ORIENTED_EDGE ( 'NONE', *, *, #216, .F. ) ;
#159 = COLOUR_RGB ( '',1.000000000000000000, 0.000000000000000000, 0.000000000000000000 ) ;
#160 = SURFACE_SIDE_STYLE ('',( #156 ) ) ;
#161 = ORIENTED_EDGE ( 'NONE', *, *, #94, .T. ) ;
#162 = FILL_AREA_STYLE ('',( #192 ) ) ;
#163 = PRODUCT_DEFINITION ( 'UNKNOWN', '', #357, #221 ) ;
#164 = ORIENTED_EDGE ( 'NONE', *, *, #276, .F. ) ;
#165 = CARTESIAN_POINT ( 'NONE',  ( 5.204170427930421283E-15, 20.00000000000000355, 0.000000000000000000 ) ) ;
#166 = VERTEX_POINT ( 'NONE', #89 ) ;
#167 =( NAMED_UNIT ( * ) PLANE_ANGLE_UNIT ( ) SI_UNIT ( $, .RADIAN. ) );
#168 = AXIS2_PLACEMENT_3D ( 'NONE', #269, #267, #145 ) ;
#169 = DIRECTION ( 'NONE',  ( -0.000000000000000000, -1.000000000000000000, -0.000000000000000000 ) ) ;
#170 = FACE_OUTER_BOUND ( 'NONE', #231, .T. ) ;
#171 = DIRECTION ( 'NONE',  ( 0.000000000000000000, 0.000000000000000000, 1.000000000000000000 ) ) ;
#172 = ADVANCED_FACE ( 'NONE', ( #312 ), #317, .T. ) ;
#173 = PLANE ( 'NONE',  #99 ) ;
#174 = CARTESIAN_POINT ( 'NONE',  ( 0.000000000000000000, 0.000000000000000000, 0.000000000000000000 ) ) ;
#175 = DIRECTION ( 'NONE',  ( 4.697880814296055710E-17, -1.000000000000000000, 0.000000000000000000 ) ) ;
#176 = CARTESIAN_POINT ( 'NONE',  ( 3.184081677783117402E-15, 63.00000000000000000, 0.000000000000000000 ) ) ;
#177 = ADVANCED_FACE ( 'NONE', ( #49 ), #133, .T. ) ;
#178 = PRESENTATION_LAYER_ASSIGNMENT (  '', '', ( #193 ) ) ;
#179 = DIRECTION ( 'NONE',  ( -4.697880814296055710E-17, 1.000000000000000000, -0.000000000000000000 ) ) ;
#180 = AXIS2_PLACEMENT_3D ( 'NONE', #16, #81, #226 ) ;
#181 = CARTESIAN_POINT ( 'NONE',  ( 0.000000000000000000, 1.000000000000000000, 0.000000000000000000 ) ) ;
#182 = DIRECTION ( 'NONE',  ( -0.000000000000000000, -1.000000000000000000, -0.000000000000000000 ) ) ;
#183 = DIRECTION ( 'NONE',  ( 0.000000000000000000, 0.000000000000000000, -1.000000000000000000 ) ) ;
#184 = EDGE_CURVE ( 'NONE', #166, #328, #321, .T. ) ;
#185 = COLOUR_RGB ( '',0.7921568627450980005, 0.8196078431372548767, 0.9333333333333333481 ) ;
#186 = CLOSED_SHELL ( 'NONE', ( #350, #177, #25, #254, #172, #127 ) ) ;
#187 = FILL_AREA_STYLE ('',( #219 ) ) ;
#188 = PLANE ( 'NONE',  #356 ) ;
#189 = DIRECTION ( 'NONE',  ( 0.000000000000000000, 0.000000000000000000, -1.000000000000000000 ) ) ;
#190 = ORIENTED_EDGE ( 'NONE', *, *, #306, .T. ) ;
#191 = EDGE_CURVE ( 'NONE', #328, #307, #95, .T. ) ;
#192 = FILL_AREA_STYLE_COLOUR ( '', #4 ) ;
#193 = STYLED_ITEM ( 'NONE', ( #130 ), #25 ) ;
#194 = EDGE_CURVE ( 'NONE', #138, #259, #331, .T. ) ;
#195 = AXIS2_PLACEMENT_3D ( 'NONE', #365, #32, #112 ) ;
#196 = SURFACE_STYLE_USAGE ( .BOTH. , #258 ) ;
#197 = CARTESIAN_POINT ( 'NONE',  ( 0.000000000000000000, 1.000000000000000000, 0.000000000000000000 ) ) ;
#198 = ORIENTED_EDGE ( 'NONE', *, *, #67, .T. ) ;
#199 = CARTESIAN_POINT ( 'NONE',  ( 0.000000000000000000, 0.000000000000000000, 0.000000000000000000 ) ) ;
#200 = EDGE_LOOP ( 'NONE', ( #84, #334 ) ) ;
#201 = DIRECTION ( 'NONE',  ( -4.697880814296055710E-17, 1.000000000000000000, -0.000000000000000000 ) ) ;
#202 = ORIENTED_EDGE ( 'NONE', *, *, #306, .F. ) ;
#203 = PRESENTATION_STYLE_ASSIGNMENT (( #88 ) ) ;
#204 = CARTESIAN_POINT ( 'NONE',  ( 5.510910596163088569E-16, 0.000000000000000000, 4.000000000000000000 ) ) ;
#205 = VECTOR ( 'NONE', #367, 1000.000000000000000 ) ;
#206 =( NAMED_UNIT ( * ) PLANE_ANGLE_UNIT ( ) SI_UNIT ( $, .RADIAN. ) );
#207 = MANIFOLD_SOLID_BREP ( 'Revolve - Cutting Edge', #186 ) ;
#208 = SURFACE_STYLE_USAGE ( .BOTH. , #40 ) ;
#209 = FACE_OUTER_BOUND ( 'NONE', #200, .T. ) ;
#210 =( NAMED_UNIT ( * ) PLANE_ANGLE_UNIT ( ) SI_UNIT ( $, .RADIAN. ) );
#211 = DIRECTION ( 'NONE',  ( 0.000000000000000000, 0.000000000000000000, -1.000000000000000000 ) ) ;
#212 = DIRECTION ( 'NONE',  ( -4.697880814296055710E-17, 1.000000000000000000, -0.000000000000000000 ) ) ;
#213 = CIRCLE ( 'NONE', #303, 1.000000000000000000 ) ;
#214 =( NAMED_UNIT ( * ) SI_UNIT ( $, .STERADIAN. ) SOLID_ANGLE_UNIT ( ) );
#215 =( GEOMETRIC_REPRESENTATION_CONTEXT ( 3 ) GLOBAL_UNCERTAINTY_ASSIGNED_CONTEXT ( ( #305 ) ) GLOBAL_UNIT_ASSIGNED_CONTEXT ( ( #78, #210, #343 ) ) REPRESENTATION_CONTEXT ( 'NONE', 'WORKASPACE' ) );
#216 = EDGE_CURVE ( 'NONE', #259, #255, #266, .T. ) ;
#217 = MECHANICAL_DESIGN_GEOMETRIC_PRESENTATION_REPRESENTATION (  '', ( #193 ), #132 ) ;
#218 = CIRCLE ( 'NONE', #195, 4.000000000000000000 ) ;
#219 = FILL_AREA_STYLE_COLOUR ( '', #274 ) ;
#220 = EDGE_LOOP ( 'NONE', ( #198, #157, #233, #158 ) ) ;
#221 = PRODUCT_DEFINITION_CONTEXT ( 'detailed design', #322, 'design' ) ;
#222 =( GEOMETRIC_REPRESENTATION_CONTEXT ( 3 ) GLOBAL_UNCERTAINTY_ASSIGNED_CONTEXT ( ( #7 ) ) GLOBAL_UNIT_ASSIGNED_CONTEXT ( ( #46, #337, #53 ) ) REPRESENTATION_CONTEXT ( 'NONE', 'WORKASPACE' ) );
#223 = VERTEX_POINT ( 'NONE', #369 ) ;
#224 = EDGE_LOOP ( 'NONE', ( #261, #55 ) ) ;
#225 = UNCERTAINTY_MEASURE_WITH_UNIT (LENGTH_MEASURE( 1.000000000000000082E-05 ), #77, 'distance_accuracy_value', 'NONE');
#226 = DIRECTION ( 'NONE',  ( -1.224646799147353454E-16, 0.000000000000000000, -1.000000000000000000 ) ) ;
#227 = ORIENTED_EDGE ( 'NONE', *, *, #67, .F. ) ;
#228 = AXIS2_PLACEMENT_3D ( 'NONE', #75, #22, #330 ) ;
#229 =( GEOMETRIC_REPRESENTATION_CONTEXT ( 3 ) GLOBAL_UNCERTAINTY_ASSIGNED_CONTEXT ( ( #146 ) ) GLOBAL_UNIT_ASSIGNED_CONTEXT ( ( #268, #206, #214 ) ) REPRESENTATION_CONTEXT ( 'NONE', 'WORKASPACE' ) );
#230 = ORIENTED_EDGE ( 'NONE', *, *, #125, .T. ) ;
#231 = EDGE_LOOP ( 'NONE', ( #227, #265 ) ) ;
#232 = FACE_OUTER_BOUND ( 'NONE', #220, .T. ) ;
#233 = ORIENTED_EDGE ( 'NONE', *, *, #94, .F. ) ;
#234 =( LENGTH_UNIT ( ) NAMED_UNIT ( * ) SI_UNIT ( .MILLI., .METRE. ) );
#235 = CARTESIAN_POINT ( 'NONE',  ( 4.999999999999999112, 63.00000000000000000, 6.123233995736761352E-16 ) ) ;
#236 = SURFACE_STYLE_FILL_AREA ( #97 ) ;
#237 = DIRECTION ( 'NONE',  ( -1.000000000000000000, 0.000000000000000000, 0.000000000000000000 ) ) ;
#238 = STYLED_ITEM ( 'NONE', ( #203 ), #254 ) ;
#239 = DIRECTION ( 'NONE',  ( -0.000000000000000000, -1.000000000000000000, -0.000000000000000000 ) ) ;
#240 = FILL_AREA_STYLE_COLOUR ( '', #153 ) ;
#241 = DIRECTION ( 'NONE',  ( -0.000000000000000000, -1.000000000000000000, -0.000000000000000000 ) ) ;
#242 = CARTESIAN_POINT ( 'NONE',  ( 0.000000000000000000, 20.00000000000000000, 0.000000000000000000 ) ) ;
#243 = DIRECTION ( 'NONE',  ( 0.000000000000000000, -1.000000000000000000, -0.000000000000000000 ) ) ;
#244 =( LENGTH_UNIT ( ) NAMED_UNIT ( * ) SI_UNIT ( .MILLI., .METRE. ) );
#245 = FILL_AREA_STYLE ('',( #120 ) ) ;
#246 = DIRECTION ( 'NONE',  ( 0.000000000000000000, 0.000000000000000000, -1.000000000000000000 ) ) ;
#247 = APPLICATION_PROTOCOL_DEFINITION ( 'draft international standard', 'automotive_design', 1998, #251 ) ;
#248 = AXIS2_PLACEMENT_3D ( 'NONE', #181, #118, #370 ) ;
#249 = STYLED_ITEM ( 'NONE', ( #61 ), #207 ) ;
#250 = ADVANCED_FACE ( 'NONE', ( #293 ), #63, .F. ) ;
#251 = APPLICATION_CONTEXT ( 'automotive_design' ) ;
#252 = STYLED_ITEM ( 'NONE', ( #142 ), #177 ) ;
#253 = EDGE_CURVE ( 'NONE', #328, #166, #313, .T. ) ;
#254 = ADVANCED_FACE ( 'NONE', ( #335 ), #282, .T. ) ;
#255 = VERTEX_POINT ( 'NONE', #262 ) ;
#256 = UNCERTAINTY_MEASURE_WITH_UNIT (LENGTH_MEASURE( 1.000000000000000082E-05 ), #96, 'distance_accuracy_value', 'NONE');
#257 = SURFACE_SIDE_STYLE ('',( #279 ) ) ;
#258 = SURFACE_SIDE_STYLE ('',( #15 ) ) ;
#259 = VERTEX_POINT ( 'NONE', #360 ) ;
#260 = SURFACE_STYLE_USAGE ( .BOTH. , #13 ) ;
#261 = ORIENTED_EDGE ( 'NONE', *, *, #346, .T. ) ;
#262 = CARTESIAN_POINT ( 'NONE',  ( 0.000000000000000000, 1.000000000000000000, -5.000000000000000000 ) ) ;
#263 = CIRCLE ( 'NONE', #275, 4.000000000000000000 ) ;
#264 = SURFACE_SIDE_STYLE ('',( #236 ) ) ;
#265 = ORIENTED_EDGE ( 'NONE', *, *, #194, .F. ) ;
#266 = LINE ( 'NONE', #314, #101 ) ;
#267 = DIRECTION ( 'NONE',  ( -0.000000000000000000, -1.000000000000000000, -0.000000000000000000 ) ) ;
#268 =( LENGTH_UNIT ( ) NAMED_UNIT ( * ) SI_UNIT ( .MILLI., .METRE. ) );
#269 = CARTESIAN_POINT ( 'NONE',  ( 0.000000000000000000, 20.00000000000000000, 0.000000000000000000 ) ) ;
#270 =( GEOMETRIC_REPRESENTATION_CONTEXT ( 3 ) GLOBAL_UNCERTAINTY_ASSIGNED_CONTEXT ( ( #129 ) ) GLOBAL_UNIT_ASSIGNED_CONTEXT ( ( #44, #167, #137 ) ) REPRESENTATION_CONTEXT ( 'NONE', 'WORKASPACE' ) );
#271 = DIRECTION ( 'NONE',  ( 0.000000000000000000, 0.000000000000000000, -1.000000000000000000 ) ) ;
#272 = FILL_AREA_STYLE ('',( #240 ) ) ;
#273 = APPLICATION_PROTOCOL_DEFINITION ( 'draft international standard', 'automotive_design', 1998, #322 ) ;
#274 = COLOUR_RGB ( '',1.000000000000000000, 0.000000000000000000, 0.000000000000000000 ) ;
#275 = AXIS2_PLACEMENT_3D ( 'NONE', #174, #241, #3 ) ;
#276 = EDGE_CURVE ( 'NONE', #110, #109, #117, .T. ) ;
#277 = AXIS2_PLACEMENT_3D ( 'NONE', #51, #201, #284 ) ;
#278 = FILL_AREA_STYLE ('',( #301 ) ) ;
#279 = SURFACE_STYLE_FILL_AREA ( #139 ) ;
#280 = MECHANICAL_DESIGN_GEOMETRIC_PRESENTATION_REPRESENTATION (  '', ( #252 ), #229 ) ;
#281 = ORIENTED_EDGE ( 'NONE', *, *, #125, .F. ) ;
#282 = TOROIDAL_SURFACE ( 'NONE', #30, 4.000000000000000000, 1.000000000000000000 ) ;
#283 = UNCERTAINTY_MEASURE_WITH_UNIT (LENGTH_MEASURE( 1.000000000000000082E-05 ), #244, 'distance_accuracy_value', 'NONE');
#284 = DIRECTION ( 'NONE',  ( -1.000000000000000000, 0.000000000000000000, 0.000000000000000000 ) ) ;
#285 = SURFACE_STYLE_USAGE ( .BOTH. , #160 ) ;
#286 = ORIENTED_EDGE ( 'NONE', *, *, #141, .F. ) ;
#287 = SURFACE_SIDE_STYLE ('',( #308 ) ) ;
#288 = ORIENTED_EDGE ( 'NONE', *, *, #253, .T. ) ;
#289 = DIRECTION ( 'NONE',  ( -4.697880814296055710E-17, 1.000000000000000000, -0.000000000000000000 ) ) ;
#290 = CYLINDRICAL_SURFACE ( 'NONE', #340, 4.999999999999995559 ) ;
#291 = DIRECTION ( 'NONE',  ( 1.000000000000000000, 0.000000000000000000, 0.000000000000000000 ) ) ;
#292 = ADVANCED_FACE ( 'NONE', ( #87 ), #131, .T. ) ;
#293 = FACE_OUTER_BOUND ( 'NONE', #309, .T. ) ;
#294 = DIRECTION ( 'NONE',  ( -1.000000000000000000, 0.000000000000000000, 0.000000000000000000 ) ) ;
#295 = DIRECTION ( 'NONE',  ( -4.697880814296055710E-17, 1.000000000000000000, -0.000000000000000000 ) ) ;
#296 = DIRECTION ( 'NONE',  ( 0.000000000000000000, 0.000000000000000000, 1.000000000000000000 ) ) ;
#297 = PRESENTATION_LAYER_ASSIGNMENT (  '', '', ( #252 ) ) ;
#298 = VECTOR ( 'NONE', #289, 1000.000000000000000 ) ;
#299 = CIRCLE ( 'NONE', #143, 5.000000000000000000 ) ;
#300 = AXIS2_PLACEMENT_3D ( 'NONE', #69, #116, #183 ) ;
#301 = FILL_AREA_STYLE_COLOUR ( '', #159 ) ;
#302 = PRESENTATION_STYLE_ASSIGNMENT (( #23 ) ) ;
#303 = AXIS2_PLACEMENT_3D ( 'NONE', #64, #98, #296 ) ;
#304 = STYLED_ITEM ( 'NONE', ( #302 ), #320 ) ;
#305 = UNCERTAINTY_MEASURE_WITH_UNIT (LENGTH_MEASURE( 1.000000000000000082E-05 ), #78, 'distance_accuracy_value', 'NONE');
#306 = EDGE_CURVE ( 'NONE', #166, #223, #108, .T. ) ;
#307 = VERTEX_POINT ( 'NONE', #368 ) ;
#308 = SURFACE_STYLE_FILL_AREA ( #162 ) ;
#309 = EDGE_LOOP ( 'NONE', ( #325, #79 ) ) ;
#310 = CYLINDRICAL_SURFACE ( 'NONE', #300, 5.000000000000000000 ) ;
#311 = ORIENTED_EDGE ( 'NONE', *, *, #216, .T. ) ;
#312 = FACE_OUTER_BOUND ( 'NONE', #45, .T. ) ;
#313 = CIRCLE ( 'NONE', #42, 4.999999999999994671 ) ;
#314 = CARTESIAN_POINT ( 'NONE',  ( 0.000000000000000000, 0.000000000000000000, -5.000000000000000000 ) ) ;
#315 =( NAMED_UNIT ( * ) PLANE_ANGLE_UNIT ( ) SI_UNIT ( $, .RADIAN. ) );
#316 = DIRECTION ( 'NONE',  ( 0.000000000000000000, 0.000000000000000000, -1.000000000000000000 ) ) ;
#317 = CYLINDRICAL_SURFACE ( 'NONE', #41, 5.000000000000000000 ) ;
#318 = AXIS2_PLACEMENT_3D ( 'NONE', #176, #91, #237 ) ;
#319 = PRODUCT_CONTEXT ( 'NONE', #251, 'mechanical' ) ;
#320 = MANIFOLD_SOLID_BREP ( 'Revolve - Tool Body (Straight Shanked)', #126 ) ;
#321 = CIRCLE ( 'NONE', #66, 4.999999999999994671 ) ;
#322 = APPLICATION_CONTEXT ( 'automotive_design' ) ;
#323 = CIRCLE ( 'NONE', #168, 5.000000000000000000 ) ;
#324 = STYLED_ITEM ( 'NONE', ( #327 ), #350 ) ;
#325 = ORIENTED_EDGE ( 'NONE', *, *, #21, .T. ) ;
#326 = PRESENTATION_STYLE_ASSIGNMENT (( #260 ) ) ;
#327 = PRESENTATION_STYLE_ASSIGNMENT (( #359 ) ) ;
#328 = VERTEX_POINT ( 'NONE', #26 ) ;
#329 = CIRCLE ( 'NONE', #228, 4.999999999999996447 ) ;
#330 = DIRECTION ( 'NONE',  ( -1.000000000000000000, 0.000000000000000000, 0.000000000000000000 ) ) ;
#331 = CIRCLE ( 'NONE', #18, 5.000000000000000000 ) ;
#332 = DIRECTION ( 'NONE',  ( 0.000000000000000000, 0.000000000000000000, -1.000000000000000000 ) ) ;
#333 = ORIENTED_EDGE ( 'NONE', *, *, #191, .T. ) ;
#334 = ORIENTED_EDGE ( 'NONE', *, *, #184, .F. ) ;
#335 = FACE_OUTER_BOUND ( 'NONE', #135, .T. ) ;
#336 = CARTESIAN_POINT ( 'NONE',  ( 3.184081677783117402E-15, 63.00000000000000000, 0.000000000000000000 ) ) ;
#337 =( NAMED_UNIT ( * ) PLANE_ANGLE_UNIT ( ) SI_UNIT ( $, .RADIAN. ) );
#338 = DIRECTION ( 'NONE',  ( -0.000000000000000000, -1.000000000000000000, -0.000000000000000000 ) ) ;
#339 = DIRECTION ( 'NONE',  ( -1.000000000000000000, 0.000000000000000000, 0.000000000000000000 ) ) ;
#340 = AXIS2_PLACEMENT_3D ( 'NONE', #336, #212, #339 ) ;
#341 = SURFACE_STYLE_USAGE ( .BOTH. , #264 ) ;
#342 =( NAMED_UNIT ( * ) SI_UNIT ( $, .STERADIAN. ) SOLID_ANGLE_UNIT ( ) );
#343 =( NAMED_UNIT ( * ) SI_UNIT ( $, .STERADIAN. ) SOLID_ANGLE_UNIT ( ) );
#344 = CARTESIAN_POINT ( 'NONE',  ( 5.000000000000000000, 63.00000000000000000, 0.000000000000000000 ) ) ;
#345 = PLANE ( 'NONE',  #72 ) ;
#346 = EDGE_CURVE ( 'NONE', #358, #109, #218, .T. ) ;
#347 = DIRECTION ( 'NONE',  ( -4.697880814296055710E-17, 1.000000000000000000, -0.000000000000000000 ) ) ;
#348 = CARTESIAN_POINT ( 'NONE',  ( 5.204170427930421283E-15, 20.00000000000000000, 0.000000000000000000 ) ) ;
#349 = MECHANICAL_DESIGN_GEOMETRIC_PRESENTATION_REPRESENTATION (  '', ( #82 ), #36 ) ;
#350 = ADVANCED_FACE ( 'NONE', ( #232 ), #310, .T. ) ;
#351 =( GEOMETRIC_REPRESENTATION_CONTEXT ( 3 ) GLOBAL_UNCERTAINTY_ASSIGNED_CONTEXT ( ( #283 ) ) GLOBAL_UNIT_ASSIGNED_CONTEXT ( ( #244, #315, #93 ) ) REPRESENTATION_CONTEXT ( 'NONE', 'WORKASPACE' ) );
#352 = COLOUR_RGB ( '',1.000000000000000000, 0.000000000000000000, 0.000000000000000000 ) ;
#353 = MECHANICAL_DESIGN_GEOMETRIC_PRESENTATION_REPRESENTATION (  '', ( #249 ), #104 ) ;
#354 = FILL_AREA_STYLE ('',( #58 ) ) ;
#355 = EDGE_CURVE ( 'NONE', #109, #358, #263, .T. ) ;
#356 = AXIS2_PLACEMENT_3D ( 'NONE', #39, #243, #246 ) ;
#357 = PRODUCT_DEFINITION_FORMATION_WITH_SPECIFIED_SOURCE ( 'ANY', '', #362, .NOT_KNOWN. ) ;
#358 = VERTEX_POINT ( 'NONE', #60 ) ;
#359 = SURFACE_STYLE_USAGE ( .BOTH. , #257 ) ;
#360 = CARTESIAN_POINT ( 'NONE',  ( 0.000000000000000000, 20.00000000000000000, -5.000000000000000000 ) ) ;
#361 = ORIENTED_EDGE ( 'NONE', *, *, #141, .T. ) ;
#362 = PRODUCT ( '59743', '59743', '', ( #319 ) ) ;
#363 = PRESENTATION_LAYER_ASSIGNMENT (  '', '', ( #123 ) ) ;
#364 = ORIENTED_EDGE ( 'NONE', *, *, #194, .T. ) ;
#365 = CARTESIAN_POINT ( 'NONE',  ( 0.000000000000000000, 0.000000000000000000, 0.000000000000000000 ) ) ;
#366 = SURFACE_SIDE_STYLE ('',( #27 ) ) ;
#367 = DIRECTION ( 'NONE',  ( -0.000000000000000000, -1.000000000000000000, -0.000000000000000000 ) ) ;
#368 = CARTESIAN_POINT ( 'NONE',  ( -4.999999999999992895, 63.00000000000000000, 0.000000000000000000 ) ) ;
#369 = CARTESIAN_POINT ( 'NONE',  ( 5.000000000000000000, 63.00000000000000000, 6.123233995736762338E-16 ) ) ;
#370 = DIRECTION ( 'NONE',  ( 0.000000000000000000, 0.000000000000000000, -1.000000000000000000 ) ) ;
ENDSEC;
END-ISO-10303-21;
