ISO-10303-21;
HEADER;
FILE_DESCRIPTION (( 'STEP AP214' ),
    '1' );
FILE_NAME ('59837.STEP',
    '2023-06-22T23:01:42',
    ( '' ),
    ( '' ),
    'SwSTEP 2.0',
    'SolidWorks 2023',
    '' );
FILE_SCHEMA (( 'AUTOMOTIVE_DESIGN' ));
ENDSEC;

DATA;
#1 = PLANE ( 'NONE',  #107 ) ;
#2 = EDGE_CURVE ( 'NONE', #262, #182, #264, .T. ) ;
#3 =( GEOMETRIC_REPRESENTATION_CONTEXT ( 3 ) GLOBAL_UNCERTAINTY_ASSIGNED_CONTEXT ( ( #192 ) ) GLOBAL_UNIT_ASSIGNED_CONTEXT ( ( #61, #290, #201 ) ) REPRESENTATION_CONTEXT ( 'NONE', 'WORKASPACE' ) );
#4 = ORIENTED_EDGE ( 'NONE', *, *, #26, .F. ) ;
#5 = SURFACE_STYLE_FILL_AREA ( #49 ) ;
#6 = ORIENTED_EDGE ( 'NONE', *, *, #254, .T. ) ;
#7 = CARTESIAN_POINT ( 'NONE',  ( 1.530808498934191509E-17, 0.5000000000000000000, 0.1250000000000000000 ) ) ;
#8 = ORIENTED_EDGE ( 'NONE', *, *, #179, .T. ) ;
#9 = DIRECTION ( 'NONE',  ( 0.000000000000000000, 0.000000000000000000, -1.000000000000000000 ) ) ;
#10 = CIRCLE ( 'NONE', #186, 0.1250000000000000555 ) ;
#11 = AXIS2_PLACEMENT_3D ( 'NONE', #54, #33, #177 ) ;
#12 = PRODUCT_DEFINITION_FORMATION_WITH_SPECIFIED_SOURCE ( 'ANY', '', #110, .NOT_KNOWN. ) ;
#13 = DIRECTION ( 'NONE',  ( -3.061616997868383018E-17, 1.000000000000000000, -0.000000000000000000 ) ) ;
#14 = PRESENTATION_STYLE_ASSIGNMENT (( #263 ) ) ;
#15 =( CONVERSION_BASED_UNIT ( 'INCH', #221 ) LENGTH_UNIT ( ) NAMED_UNIT ( #203 ) );
#16 = DIRECTION ( 'NONE',  ( -1.000000000000000000, 0.000000000000000000, 0.000000000000000000 ) ) ;
#17 = FILL_AREA_STYLE ('',( #225 ) ) ;
#18 = CIRCLE ( 'NONE', #81, 0.1250000000000000000 ) ;
#19 = DIRECTION ( 'NONE',  ( -1.000000000000000000, 0.000000000000000000, 0.000000000000000000 ) ) ;
#20 = DIRECTION ( 'NONE',  ( -0.000000000000000000, -1.000000000000000000, -0.000000000000000000 ) ) ;
#21 = AXIS2_PLACEMENT_3D ( 'NONE', #261, #215, #267 ) ;
#22 = DIRECTION ( 'NONE',  ( -0.000000000000000000, -1.000000000000000000, -0.000000000000000000 ) ) ;
#23 = UNCERTAINTY_MEASURE_WITH_UNIT (LENGTH_MEASURE( 1.000000000000000082E-05 ), #125, 'distance_accuracy_value', 'NONE');
#24 = EDGE_CURVE ( 'NONE', #295, #174, #85, .T. ) ;
#25 = STYLED_ITEM ( 'NONE', ( #121 ), #57 ) ;
#26 = EDGE_CURVE ( 'NONE', #170, #56, #39, .T. ) ;
#27 = VECTOR ( 'NONE', #157, 39.37007874015748143 ) ;
#28 = AXIS2_PLACEMENT_3D ( 'NONE', #47, #99, #234 ) ;
#29 =( GEOMETRIC_REPRESENTATION_CONTEXT ( 3 ) GLOBAL_UNCERTAINTY_ASSIGNED_CONTEXT ( ( #75 ) ) GLOBAL_UNIT_ASSIGNED_CONTEXT ( ( #90, #208, #187 ) ) REPRESENTATION_CONTEXT ( 'NONE', 'WORKASPACE' ) );
#30 = DIRECTION ( 'NONE',  ( -1.000000000000000000, 0.000000000000000000, 0.000000000000000000 ) ) ;
#31 = ORIENTED_EDGE ( 'NONE', *, *, #268, .F. ) ;
#32 = EDGE_CURVE ( 'NONE', #36, #182, #10, .T. ) ;
#33 = DIRECTION ( 'NONE',  ( -3.061616997868383018E-17, 1.000000000000000000, -0.000000000000000000 ) ) ;
#34 = SURFACE_STYLE_FILL_AREA ( #242 ) ;
#35 = AXIS2_PLACEMENT_3D ( 'NONE', #83, #175, #55 ) ;
#36 = VERTEX_POINT ( 'NONE', #271 ) ;
#37 = LENGTH_MEASURE_WITH_UNIT ( LENGTH_MEASURE( 0.02539999999999999897 ), #259 );
#38 = ADVANCED_FACE ( 'NONE', ( #244 ), #184, .T. ) ;
#39 = LINE ( 'NONE', #160, #200 ) ;
#40 = DIMENSIONAL_EXPONENTS ( 1.000000000000000000, 0.000000000000000000, 0.000000000000000000, 0.000000000000000000, 0.000000000000000000, 0.000000000000000000, 0.000000000000000000 ) ;
#41 = DIRECTION ( 'NONE',  ( 0.000000000000000000, 0.000000000000000000, -1.000000000000000000 ) ) ;
#42 = ADVANCED_FACE ( 'NONE', ( #204 ), #140, .T. ) ;
#43 = PRODUCT_CONTEXT ( 'NONE', #300, 'mechanical' ) ;
#44 =( CONVERSION_BASED_UNIT ( 'INCH', #249 ) LENGTH_UNIT ( ) NAMED_UNIT ( #145 ) );
#45 = LENGTH_MEASURE_WITH_UNIT ( LENGTH_MEASURE( 0.02539999999999999897 ), #294 );
#46 = MECHANICAL_DESIGN_GEOMETRIC_PRESENTATION_REPRESENTATION (  '', ( #236 ), #223 ) ;
#47 = CARTESIAN_POINT ( 'NONE',  ( 0.000000000000000000, 0.000000000000000000, 0.000000000000000000 ) ) ;
#48 = CARTESIAN_POINT ( 'NONE',  ( 0.000000000000000000, 0.5000000000000000000, 0.000000000000000000 ) ) ;
#49 = FILL_AREA_STYLE ('',( #232 ) ) ;
#50 = COLOUR_RGB ( '',1.000000000000000000, 0.000000000000000000, 0.000000000000000000 ) ;
#51 = EDGE_LOOP ( 'NONE', ( #62, #84 ) ) ;
#52 = ORIENTED_EDGE ( 'NONE', *, *, #32, .F. ) ;
#53 =( NAMED_UNIT ( * ) SI_UNIT ( $, .STERADIAN. ) SOLID_ANGLE_UNIT ( ) );
#54 = CARTESIAN_POINT ( 'NONE',  ( -6.123233995736766036E-17, 2.500000000000000000, 0.000000000000000000 ) ) ;
#55 = DIRECTION ( 'NONE',  ( 1.000000000000000000, 3.061616997868383018E-17, 0.000000000000000000 ) ) ;
#56 = VERTEX_POINT ( 'NONE', #274 ) ;
#57 = ADVANCED_FACE ( 'NONE', ( #307 ), #1, .T. ) ;
#58 = CARTESIAN_POINT ( 'NONE',  ( -0.1250000000000001388, 2.500000000000000000, 0.000000000000000000 ) ) ;
#59 = CIRCLE ( 'NONE', #120, 0.1250000000000000000 ) ;
#60 = DIRECTION ( 'NONE',  ( -3.061616997868383018E-17, 1.000000000000000000, -0.000000000000000000 ) ) ;
#61 =( CONVERSION_BASED_UNIT ( 'INCH', #37 ) LENGTH_UNIT ( ) NAMED_UNIT ( #64 ) );
#62 = ORIENTED_EDGE ( 'NONE', *, *, #169, .F. ) ;
#63 = DIRECTION ( 'NONE',  ( -3.061616997868383018E-17, 1.000000000000000000, -0.000000000000000000 ) ) ;
#64 = DIMENSIONAL_EXPONENTS ( 1.000000000000000000, 0.000000000000000000, 0.000000000000000000, 0.000000000000000000, 0.000000000000000000, 0.000000000000000000, 0.000000000000000000 ) ;
#65 = CARTESIAN_POINT ( 'NONE',  ( 0.000000000000000000, 0.000000000000000000, 0.000000000000000000 ) ) ;
#66 = PRESENTATION_STYLE_ASSIGNMENT (( #178 ) ) ;
#67 = CARTESIAN_POINT ( 'NONE',  ( -0.1250000000000001110, 2.500000000000000000, 0.000000000000000000 ) ) ;
#68 = SHAPE_DEFINITION_REPRESENTATION ( #151, #144 ) ;
#69 = PRESENTATION_STYLE_ASSIGNMENT (( #284 ) ) ;
#70 = DIRECTION ( 'NONE',  ( -1.000000000000000000, -3.061616997868383018E-17, 0.000000000000000000 ) ) ;
#71 = PRODUCT_RELATED_PRODUCT_CATEGORY ( 'part', '', ( #110 ) ) ;
#72 = DIRECTION ( 'NONE',  ( -0.000000000000000000, -1.000000000000000000, -0.000000000000000000 ) ) ;
#73 =( GEOMETRIC_REPRESENTATION_CONTEXT ( 3 ) GLOBAL_UNCERTAINTY_ASSIGNED_CONTEXT ( ( #166 ) ) GLOBAL_UNIT_ASSIGNED_CONTEXT ( ( #15, #161, #114 ) ) REPRESENTATION_CONTEXT ( 'NONE', 'WORKASPACE' ) );
#74 = COLOUR_RGB ( '',1.000000000000000000, 0.000000000000000000, 0.000000000000000000 ) ;
#75 = UNCERTAINTY_MEASURE_WITH_UNIT (LENGTH_MEASURE( 1.000000000000000082E-05 ), #90, 'distance_accuracy_value', 'NONE');
#76 = ADVANCED_FACE ( 'NONE', ( #230 ), #97, .T. ) ;
#77 = CIRCLE ( 'NONE', #241, 0.1250000000000000000 ) ;
#78 = ORIENTED_EDGE ( 'NONE', *, *, #79, .F. ) ;
#79 = EDGE_CURVE ( 'NONE', #182, #36, #287, .T. ) ;
#80 = CARTESIAN_POINT ( 'NONE',  ( 0.000000000000000000, 0.5000000000000001110, 0.000000000000000000 ) ) ;
#81 = AXIS2_PLACEMENT_3D ( 'NONE', #238, #13, #30 ) ;
#82 = ORIENTED_EDGE ( 'NONE', *, *, #169, .T. ) ;
#83 = CARTESIAN_POINT ( 'NONE',  ( 0.1250000000000000000, 2.500000000000000000, 0.000000000000000000 ) ) ;
#84 = ORIENTED_EDGE ( 'NONE', *, *, #95, .F. ) ;
#85 = LINE ( 'NONE', #269, #27 ) ;
#86 = STYLED_ITEM ( 'NONE', ( #69 ), #76 ) ;
#87 = PRESENTATION_LAYER_ASSIGNMENT (  '', '', ( #25 ) ) ;
#88 = DIRECTION ( 'NONE',  ( -0.000000000000000000, -1.000000000000000000, -0.000000000000000000 ) ) ;
#89 = SURFACE_STYLE_FILL_AREA ( #115 ) ;
#90 =( CONVERSION_BASED_UNIT ( 'INCH', #146 ) LENGTH_UNIT ( ) NAMED_UNIT ( #101 ) );
#91 = PRESENTATION_STYLE_ASSIGNMENT (( #247 ) ) ;
#92 = STYLED_ITEM ( 'NONE', ( #66 ), #38 ) ;
#93 = COLOUR_RGB ( '',1.000000000000000000, 0.000000000000000000, 0.000000000000000000 ) ;
#94 = FILL_AREA_STYLE ('',( #193 ) ) ;
#95 = EDGE_CURVE ( 'NONE', #154, #262, #278, .T. ) ;
#96 = FACE_OUTER_BOUND ( 'NONE', #51, .T. ) ;
#97 = CYLINDRICAL_SURFACE ( 'NONE', #113, 0.1250000000000000000 ) ;
#98 = APPLICATION_PROTOCOL_DEFINITION ( 'draft international standard', 'automotive_design', 1998, #217 ) ;
#99 = DIRECTION ( 'NONE',  ( 0.000000000000000000, -1.000000000000000000, -0.000000000000000000 ) ) ;
#100 = MECHANICAL_DESIGN_GEOMETRIC_PRESENTATION_REPRESENTATION (  '', ( #265 ), #132 ) ;
#101 = DIMENSIONAL_EXPONENTS ( 1.000000000000000000, 0.000000000000000000, 0.000000000000000000, 0.000000000000000000, 0.000000000000000000, 0.000000000000000000, 0.000000000000000000 ) ;
#102 =( NAMED_UNIT ( * ) PLANE_ANGLE_UNIT ( ) SI_UNIT ( $, .RADIAN. ) );
#103 = EDGE_LOOP ( 'NONE', ( #213, #256, #105, #243 ) ) ;
#104 = DIRECTION ( 'NONE',  ( -3.061616997868383018E-17, 1.000000000000000000, -0.000000000000000000 ) ) ;
#105 = ORIENTED_EDGE ( 'NONE', *, *, #254, .F. ) ;
#106 = PLANE ( 'NONE',  #35 ) ;
#107 = AXIS2_PLACEMENT_3D ( 'NONE', #48, #251, #167 ) ;
#108 = ORIENTED_EDGE ( 'NONE', *, *, #283, .T. ) ;
#109 = SURFACE_STYLE_USAGE ( .BOTH. , #129 ) ;
#110 = PRODUCT ( '59837', '59837', '', ( #43 ) ) ;
#111 = FILL_AREA_STYLE ('',( #292 ) ) ;
#112 = AXIS2_PLACEMENT_3D ( 'NONE', #65, #245, #41 ) ;
#113 = AXIS2_PLACEMENT_3D ( 'NONE', #276, #72, #123 ) ;
#114 =( NAMED_UNIT ( * ) SI_UNIT ( $, .STERADIAN. ) SOLID_ANGLE_UNIT ( ) );
#115 = FILL_AREA_STYLE ('',( #224 ) ) ;
#116 = DIRECTION ( 'NONE',  ( 0.000000000000000000, 0.000000000000000000, 1.000000000000000000 ) ) ;
#117 =( LENGTH_UNIT ( ) NAMED_UNIT ( * ) SI_UNIT ( $, .METRE. ) );
#118 = DIRECTION ( 'NONE',  ( 0.000000000000000000, 0.000000000000000000, -1.000000000000000000 ) ) ;
#119 = SURFACE_SIDE_STYLE ('',( #191 ) ) ;
#120 = AXIS2_PLACEMENT_3D ( 'NONE', #301, #20, #118 ) ;
#121 = PRESENTATION_STYLE_ASSIGNMENT (( #280 ) ) ;
#122 = APPLICATION_PROTOCOL_DEFINITION ( 'draft international standard', 'automotive_design', 1998, #300 ) ;
#123 = DIRECTION ( 'NONE',  ( 0.000000000000000000, 0.000000000000000000, -1.000000000000000000 ) ) ;
#124 = UNCERTAINTY_MEASURE_WITH_UNIT (LENGTH_MEASURE( 1.000000000000000082E-05 ), #189, 'distance_accuracy_value', 'NONE');
#125 =( CONVERSION_BASED_UNIT ( 'INCH', #127 ) LENGTH_UNIT ( ) NAMED_UNIT ( #40 ) );
#126 = CLOSED_SHELL ( 'NONE', ( #76, #57, #38, #42 ) ) ;
#127 = LENGTH_MEASURE_WITH_UNIT ( LENGTH_MEASURE( 0.02539999999999999897 ), #233 );
#128 = MANIFOLD_SOLID_BREP ( 'Revolve - Cutting Edge', #126 ) ;
#129 = SURFACE_SIDE_STYLE ('',( #196 ) ) ;
#130 = SURFACE_SIDE_STYLE ('',( #34 ) ) ;
#131 = PRESENTATION_LAYER_ASSIGNMENT (  '', '', ( #92 ) ) ;
#132 =( GEOMETRIC_REPRESENTATION_CONTEXT ( 3 ) GLOBAL_UNCERTAINTY_ASSIGNED_CONTEXT ( ( #124 ) ) GLOBAL_UNIT_ASSIGNED_CONTEXT ( ( #189, #250, #231 ) ) REPRESENTATION_CONTEXT ( 'NONE', 'WORKASPACE' ) );
#133 = EDGE_LOOP ( 'NONE', ( #285, #211 ) ) ;
#134 = CYLINDRICAL_SURFACE ( 'NONE', #21, 0.1250000000000000278 ) ;
#135 = CARTESIAN_POINT ( 'NONE',  ( -6.123233995736766036E-17, 2.500000000000000000, 0.000000000000000000 ) ) ;
#136 = CYLINDRICAL_SURFACE ( 'NONE', #11, 0.1250000000000000278 ) ;
#137 =( LENGTH_UNIT ( ) NAMED_UNIT ( * ) SI_UNIT ( $, .METRE. ) );
#138 = DIMENSIONAL_EXPONENTS ( 1.000000000000000000, 0.000000000000000000, 0.000000000000000000, 0.000000000000000000, 0.000000000000000000, 0.000000000000000000, 0.000000000000000000 ) ;
#139 = CIRCLE ( 'NONE', #147, 0.1250000000000000000 ) ;
#140 = PLANE ( 'NONE',  #28 ) ;
#141 = CARTESIAN_POINT ( 'NONE',  ( 0.000000000000000000, 0.5000000000000000000, -0.1250000000000000000 ) ) ;
#142 = SURFACE_STYLE_FILL_AREA ( #17 ) ;
#143 = CARTESIAN_POINT ( 'NONE',  ( 0.000000000000000000, 0.5000000000000000000, 0.000000000000000000 ) ) ;
#144 = ADVANCED_BREP_SHAPE_REPRESENTATION ( '59837', ( #128, #227, #289 ), #29 ) ;
#145 = DIMENSIONAL_EXPONENTS ( 1.000000000000000000, 0.000000000000000000, 0.000000000000000000, 0.000000000000000000, 0.000000000000000000, 0.000000000000000000, 0.000000000000000000 ) ;
#146 = LENGTH_MEASURE_WITH_UNIT ( LENGTH_MEASURE( 0.02539999999999999897 ), #306 );
#147 = AXIS2_PLACEMENT_3D ( 'NONE', #158, #239, #9 ) ;
#148 = DIRECTION ( 'NONE',  ( 0.000000000000000000, 0.000000000000000000, -1.000000000000000000 ) ) ;
#149 =( NAMED_UNIT ( * ) SI_UNIT ( $, .STERADIAN. ) SOLID_ANGLE_UNIT ( ) );
#150 = CLOSED_SHELL ( 'NONE', ( #159, #237, #190, #199 ) ) ;
#151 = PRODUCT_DEFINITION_SHAPE ( 'NONE', 'NONE',  #214 ) ;
#152 = EDGE_LOOP ( 'NONE', ( #4, #108, #176, #282 ) ) ;
#153 = STYLED_ITEM ( 'NONE', ( #219 ), #128 ) ;
#154 = VERTEX_POINT ( 'NONE', #297 ) ;
#155 = FACE_OUTER_BOUND ( 'NONE', #133, .T. ) ;
#156 = PRESENTATION_LAYER_ASSIGNMENT (  '', '', ( #265 ) ) ;
#157 = DIRECTION ( 'NONE',  ( -0.000000000000000000, -1.000000000000000000, -0.000000000000000000 ) ) ;
#158 = CARTESIAN_POINT ( 'NONE',  ( 0.000000000000000000, 0.000000000000000000, 0.000000000000000000 ) ) ;
#159 = ADVANCED_FACE ( 'NONE', ( #183 ), #134, .T. ) ;
#160 = CARTESIAN_POINT ( 'NONE',  ( 1.530808498934191509E-17, 0.000000000000000000, 0.1250000000000000000 ) ) ;
#161 =( NAMED_UNIT ( * ) PLANE_ANGLE_UNIT ( ) SI_UNIT ( $, .RADIAN. ) );
#162 = PRESENTATION_LAYER_ASSIGNMENT (  '', '', ( #153 ) ) ;
#163 = SURFACE_SIDE_STYLE ('',( #89 ) ) ;
#164 = DIRECTION ( 'NONE',  ( -0.000000000000000000, -1.000000000000000000, -0.000000000000000000 ) ) ;
#165 =( NAMED_UNIT ( * ) PLANE_ANGLE_UNIT ( ) SI_UNIT ( $, .RADIAN. ) );
#166 = UNCERTAINTY_MEASURE_WITH_UNIT (LENGTH_MEASURE( 1.000000000000000082E-05 ), #15, 'distance_accuracy_value', 'NONE');
#167 = DIRECTION ( 'NONE',  ( 0.000000000000000000, -0.000000000000000000, 1.000000000000000000 ) ) ;
#168 = CIRCLE ( 'NONE', #207, 0.1250000000000000000 ) ;
#169 = EDGE_CURVE ( 'NONE', #262, #154, #18, .T. ) ;
#170 = VERTEX_POINT ( 'NONE', #7 ) ;
#171 = ORIENTED_EDGE ( 'NONE', *, *, #2, .F. ) ;
#172 = MECHANICAL_DESIGN_GEOMETRIC_PRESENTATION_REPRESENTATION (  '', ( #86 ), #212 ) ;
#173 = FACE_OUTER_BOUND ( 'NONE', #257, .T. ) ;
#174 = VERTEX_POINT ( 'NONE', #266 ) ;
#175 = DIRECTION ( 'NONE',  ( 3.061616997868383018E-17, -1.000000000000000000, 0.000000000000000000 ) ) ;
#176 = ORIENTED_EDGE ( 'NONE', *, *, #24, .T. ) ;
#177 = DIRECTION ( 'NONE',  ( -1.000000000000000000, 0.000000000000000000, 0.000000000000000000 ) ) ;
#178 = SURFACE_STYLE_USAGE ( .BOTH. , #299 ) ;
#179 = EDGE_CURVE ( 'NONE', #56, #174, #139, .T. ) ;
#180 = DIRECTION ( 'NONE',  ( -1.000000000000000000, 0.000000000000000000, 0.000000000000000000 ) ) ;
#181 = VECTOR ( 'NONE', #185, 39.37007874015748143 ) ;
#182 = VERTEX_POINT ( 'NONE', #58 ) ;
#183 = FACE_OUTER_BOUND ( 'NONE', #197, .T. ) ;
#184 = CYLINDRICAL_SURFACE ( 'NONE', #112, 0.1250000000000000000 ) ;
#185 = DIRECTION ( 'NONE',  ( -3.061616997868383018E-17, 1.000000000000000000, -0.000000000000000000 ) ) ;
#186 = AXIS2_PLACEMENT_3D ( 'NONE', #135, #60, #19 ) ;
#187 =( NAMED_UNIT ( * ) SI_UNIT ( $, .STERADIAN. ) SOLID_ANGLE_UNIT ( ) );
#188 = DIRECTION ( 'NONE',  ( 1.000000000000000000, 0.000000000000000000, 0.000000000000000000 ) ) ;
#189 =( CONVERSION_BASED_UNIT ( 'INCH', #45 ) LENGTH_UNIT ( ) NAMED_UNIT ( #138 ) );
#190 = ADVANCED_FACE ( 'NONE', ( #173 ), #136, .T. ) ;
#191 = SURFACE_STYLE_FILL_AREA ( #94 ) ;
#192 = UNCERTAINTY_MEASURE_WITH_UNIT (LENGTH_MEASURE( 1.000000000000000082E-05 ), #61, 'distance_accuracy_value', 'NONE');
#193 = FILL_AREA_STYLE_COLOUR ( '', #74 ) ;
#194 = COLOUR_RGB ( '',1.000000000000000000, 0.000000000000000000, 0.000000000000000000 ) ;
#195 = ORIENTED_EDGE ( 'NONE', *, *, #2, .T. ) ;
#196 = SURFACE_STYLE_FILL_AREA ( #111 ) ;
#197 = EDGE_LOOP ( 'NONE', ( #82, #202, #78, #171 ) ) ;
#198 = PLANE ( 'NONE',  #302 ) ;
#199 = ADVANCED_FACE ( 'NONE', ( #155 ), #106, .F. ) ;
#200 = VECTOR ( 'NONE', #88, 39.37007874015748143 ) ;
#201 =( NAMED_UNIT ( * ) SI_UNIT ( $, .STERADIAN. ) SOLID_ANGLE_UNIT ( ) );
#202 = ORIENTED_EDGE ( 'NONE', *, *, #308, .T. ) ;
#203 = DIMENSIONAL_EXPONENTS ( 1.000000000000000000, 0.000000000000000000, 0.000000000000000000, 0.000000000000000000, 0.000000000000000000, 0.000000000000000000, 0.000000000000000000 ) ;
#204 = FACE_OUTER_BOUND ( 'NONE', #220, .T. ) ;
#205 = CARTESIAN_POINT ( 'NONE',  ( 0.000000000000000000, 0.000000000000000000, 0.000000000000000000 ) ) ;
#206 = MECHANICAL_DESIGN_GEOMETRIC_PRESENTATION_REPRESENTATION (  '', ( #92 ), #73 ) ;
#207 = AXIS2_PLACEMENT_3D ( 'NONE', #205, #164, #148 ) ;
#208 =( NAMED_UNIT ( * ) PLANE_ANGLE_UNIT ( ) SI_UNIT ( $, .RADIAN. ) );
#209 =( LENGTH_UNIT ( ) NAMED_UNIT ( * ) SI_UNIT ( $, .METRE. ) );
#210 = UNCERTAINTY_MEASURE_WITH_UNIT (LENGTH_MEASURE( 1.000000000000000082E-05 ), #44, 'distance_accuracy_value', 'NONE');
#211 = ORIENTED_EDGE ( 'NONE', *, *, #32, .T. ) ;
#212 =( GEOMETRIC_REPRESENTATION_CONTEXT ( 3 ) GLOBAL_UNCERTAINTY_ASSIGNED_CONTEXT ( ( #279 ) ) GLOBAL_UNIT_ASSIGNED_CONTEXT ( ( #252, #165, #149 ) ) REPRESENTATION_CONTEXT ( 'NONE', 'WORKASPACE' ) );
#213 = ORIENTED_EDGE ( 'NONE', *, *, #268, .T. ) ;
#214 = PRODUCT_DEFINITION ( 'UNKNOWN', '', #12, #235 ) ;
#215 = DIRECTION ( 'NONE',  ( -3.061616997868383018E-17, 1.000000000000000000, -0.000000000000000000 ) ) ;
#216 = ORIENTED_EDGE ( 'NONE', *, *, #308, .F. ) ;
#217 = APPLICATION_CONTEXT ( 'automotive_design' ) ;
#218 = AXIS2_PLACEMENT_3D ( 'NONE', #286, #104, #16 ) ;
#219 = PRESENTATION_STYLE_ASSIGNMENT (( #109 ) ) ;
#220 = EDGE_LOOP ( 'NONE', ( #6, #8 ) ) ;
#221 = LENGTH_MEASURE_WITH_UNIT ( LENGTH_MEASURE( 0.02539999999999999897 ), #137 );
#222 = DIRECTION ( 'NONE',  ( -3.061616997868383018E-17, 1.000000000000000000, -0.000000000000000000 ) ) ;
#223 =( GEOMETRIC_REPRESENTATION_CONTEXT ( 3 ) GLOBAL_UNCERTAINTY_ASSIGNED_CONTEXT ( ( #210 ) ) GLOBAL_UNIT_ASSIGNED_CONTEXT ( ( #44, #293, #53 ) ) REPRESENTATION_CONTEXT ( 'NONE', 'WORKASPACE' ) );
#224 = FILL_AREA_STYLE_COLOUR ( '', #194 ) ;
#225 = FILL_AREA_STYLE_COLOUR ( '', #50 ) ;
#226 = DIMENSIONAL_EXPONENTS ( 1.000000000000000000, 0.000000000000000000, 0.000000000000000000, 0.000000000000000000, 0.000000000000000000, 0.000000000000000000, 0.000000000000000000 ) ;
#227 = MANIFOLD_SOLID_BREP ( 'Revolve - Tool Body (Straight Shanked)', #150 ) ;
#228 = DIRECTION ( 'NONE',  ( -3.061616997868383018E-17, 1.000000000000000000, 0.000000000000000000 ) ) ;
#229 = VECTOR ( 'NONE', #222, 39.37007874015748143 ) ;
#230 = FACE_OUTER_BOUND ( 'NONE', #103, .T. ) ;
#231 =( NAMED_UNIT ( * ) SI_UNIT ( $, .STERADIAN. ) SOLID_ANGLE_UNIT ( ) );
#232 = FILL_AREA_STYLE_COLOUR ( '', #93 ) ;
#233 =( LENGTH_UNIT ( ) NAMED_UNIT ( * ) SI_UNIT ( $, .METRE. ) );
#234 = DIRECTION ( 'NONE',  ( 0.000000000000000000, 0.000000000000000000, -1.000000000000000000 ) ) ;
#235 = PRODUCT_DEFINITION_CONTEXT ( 'detailed design', #217, 'design' ) ;
#236 = STYLED_ITEM ( 'NONE', ( #91 ), #42 ) ;
#237 = ADVANCED_FACE ( 'NONE', ( #96 ), #198, .F. ) ;
#238 = CARTESIAN_POINT ( 'NONE',  ( 0.000000000000000000, 0.5000000000000001110, 0.000000000000000000 ) ) ;
#239 = DIRECTION ( 'NONE',  ( -0.000000000000000000, -1.000000000000000000, -0.000000000000000000 ) ) ;
#240 = FILL_AREA_STYLE_COLOUR ( '', #246 ) ;
#241 = AXIS2_PLACEMENT_3D ( 'NONE', #143, #22, #298 ) ;
#242 = FILL_AREA_STYLE ('',( #240 ) ) ;
#243 = ORIENTED_EDGE ( 'NONE', *, *, #24, .F. ) ;
#244 = FACE_OUTER_BOUND ( 'NONE', #152, .T. ) ;
#245 = DIRECTION ( 'NONE',  ( -0.000000000000000000, -1.000000000000000000, -0.000000000000000000 ) ) ;
#246 = COLOUR_RGB ( '',0.7921568627450980005, 0.8196078431372548767, 0.9333333333333333481 ) ;
#247 = SURFACE_STYLE_USAGE ( .BOTH. , #163 ) ;
#248 = CARTESIAN_POINT ( 'NONE',  ( 0.1249999999999999584, 2.500000000000000000, 1.530808498934191817E-17 ) ) ;
#249 = LENGTH_MEASURE_WITH_UNIT ( LENGTH_MEASURE( 0.02539999999999999897 ), #117 );
#250 =( NAMED_UNIT ( * ) PLANE_ANGLE_UNIT ( ) SI_UNIT ( $, .RADIAN. ) );
#251 = DIRECTION ( 'NONE',  ( 0.000000000000000000, 1.000000000000000000, 0.000000000000000000 ) ) ;
#252 =( CONVERSION_BASED_UNIT ( 'INCH', #305 ) LENGTH_UNIT ( ) NAMED_UNIT ( #226 ) );
#253 =( NAMED_UNIT ( * ) SI_UNIT ( $, .STERADIAN. ) SOLID_ANGLE_UNIT ( ) );
#254 = EDGE_CURVE ( 'NONE', #174, #56, #168, .T. ) ;
#255 = PRESENTATION_LAYER_ASSIGNMENT (  '', '', ( #86 ) ) ;
#256 = ORIENTED_EDGE ( 'NONE', *, *, #26, .T. ) ;
#257 = EDGE_LOOP ( 'NONE', ( #216, #291, #195, #52 ) ) ;
#258 = MECHANICAL_DESIGN_GEOMETRIC_PRESENTATION_REPRESENTATION (  '', ( #153 ), #3 ) ;
#259 =( LENGTH_UNIT ( ) NAMED_UNIT ( * ) SI_UNIT ( $, .METRE. ) );
#260 = ORIENTED_EDGE ( 'NONE', *, *, #283, .F. ) ;
#261 = CARTESIAN_POINT ( 'NONE',  ( -6.123233995736766036E-17, 2.500000000000000000, 0.000000000000000000 ) ) ;
#262 = VERTEX_POINT ( 'NONE', #270 ) ;
#263 = SURFACE_STYLE_USAGE ( .BOTH. , #130 ) ;
#264 = LINE ( 'NONE', #67, #181 ) ;
#265 = STYLED_ITEM ( 'NONE', ( #14 ), #227 ) ;
#266 = CARTESIAN_POINT ( 'NONE',  ( 0.000000000000000000, 0.000000000000000000, -0.1250000000000000000 ) ) ;
#267 = DIRECTION ( 'NONE',  ( -1.000000000000000000, 0.000000000000000000, 0.000000000000000000 ) ) ;
#268 = EDGE_CURVE ( 'NONE', #295, #170, #77, .T. ) ;
#269 = CARTESIAN_POINT ( 'NONE',  ( 0.000000000000000000, 0.000000000000000000, -0.1250000000000000000 ) ) ;
#270 = CARTESIAN_POINT ( 'NONE',  ( -0.1250000000000000000, 0.5000000000000001110, 0.000000000000000000 ) ) ;
#271 = CARTESIAN_POINT ( 'NONE',  ( 0.1250000000000000278, 2.500000000000000000, 1.530808498934192125E-17 ) ) ;
#272 = CARTESIAN_POINT ( 'NONE',  ( 5.858436651022881281E-35, 0.5000000000000000000, 0.000000000000000000 ) ) ;
#273 = COLOUR_RGB ( '',0.7921568627450980005, 0.8196078431372548767, 0.9333333333333333481 ) ;
#274 = CARTESIAN_POINT ( 'NONE',  ( 1.530808498934191509E-17, 0.000000000000000000, 0.1250000000000000000 ) ) ;
#275 = LINE ( 'NONE', #248, #229 ) ;
#276 = CARTESIAN_POINT ( 'NONE',  ( 0.000000000000000000, 0.000000000000000000, 0.000000000000000000 ) ) ;
#277 = PRESENTATION_LAYER_ASSIGNMENT (  '', '', ( #236 ) ) ;
#278 = CIRCLE ( 'NONE', #281, 0.1250000000000000000 ) ;
#279 = UNCERTAINTY_MEASURE_WITH_UNIT (LENGTH_MEASURE( 1.000000000000000082E-05 ), #252, 'distance_accuracy_value', 'NONE');
#280 = SURFACE_STYLE_USAGE ( .BOTH. , #303 ) ;
#281 = AXIS2_PLACEMENT_3D ( 'NONE', #80, #63, #180 ) ;
#282 = ORIENTED_EDGE ( 'NONE', *, *, #179, .F. ) ;
#283 = EDGE_CURVE ( 'NONE', #170, #295, #59, .T. ) ;
#284 = SURFACE_STYLE_USAGE ( .BOTH. , #119 ) ;
#285 = ORIENTED_EDGE ( 'NONE', *, *, #79, .T. ) ;
#286 = CARTESIAN_POINT ( 'NONE',  ( -6.123233995736766036E-17, 2.500000000000000000, 0.000000000000000000 ) ) ;
#287 = CIRCLE ( 'NONE', #218, 0.1250000000000000555 ) ;
#288 = EDGE_LOOP ( 'NONE', ( #31, #260 ) ) ;
#289 = AXIS2_PLACEMENT_3D ( 'NONE', #304, #116, #188 ) ;
#290 =( NAMED_UNIT ( * ) PLANE_ANGLE_UNIT ( ) SI_UNIT ( $, .RADIAN. ) );
#291 = ORIENTED_EDGE ( 'NONE', *, *, #95, .T. ) ;
#292 = FILL_AREA_STYLE_COLOUR ( '', #273 ) ;
#293 =( NAMED_UNIT ( * ) PLANE_ANGLE_UNIT ( ) SI_UNIT ( $, .RADIAN. ) );
#294 =( LENGTH_UNIT ( ) NAMED_UNIT ( * ) SI_UNIT ( $, .METRE. ) );
#295 = VERTEX_POINT ( 'NONE', #141 ) ;
#296 = MECHANICAL_DESIGN_GEOMETRIC_PRESENTATION_REPRESENTATION (  '', ( #25 ), #309 ) ;
#297 = CARTESIAN_POINT ( 'NONE',  ( 0.1250000000000000278, 0.5000000000000001110, 1.530808498934192125E-17 ) ) ;
#298 = DIRECTION ( 'NONE',  ( 0.000000000000000000, 0.000000000000000000, -1.000000000000000000 ) ) ;
#299 = SURFACE_SIDE_STYLE ('',( #142 ) ) ;
#300 = APPLICATION_CONTEXT ( 'automotive_design' ) ;
#301 = CARTESIAN_POINT ( 'NONE',  ( 0.000000000000000000, 0.5000000000000000000, 0.000000000000000000 ) ) ;
#302 = AXIS2_PLACEMENT_3D ( 'NONE', #272, #228, #70 ) ;
#303 = SURFACE_SIDE_STYLE ('',( #5 ) ) ;
#304 = CARTESIAN_POINT ( 'NONE',  ( 0.000000000000000000, 0.000000000000000000, 0.000000000000000000 ) ) ;
#305 = LENGTH_MEASURE_WITH_UNIT ( LENGTH_MEASURE( 0.02539999999999999897 ), #209 );
#306 =( LENGTH_UNIT ( ) NAMED_UNIT ( * ) SI_UNIT ( $, .METRE. ) );
#307 = FACE_OUTER_BOUND ( 'NONE', #288, .T. ) ;
#308 = EDGE_CURVE ( 'NONE', #154, #36, #275, .T. ) ;
#309 =( GEOMETRIC_REPRESENTATION_CONTEXT ( 3 ) GLOBAL_UNCERTAINTY_ASSIGNED_CONTEXT ( ( #23 ) ) GLOBAL_UNIT_ASSIGNED_CONTEXT ( ( #125, #102, #253 ) ) REPRESENTATION_CONTEXT ( 'NONE', 'WORKASPACE' ) );
ENDSEC;
END-ISO-10303-21;
