ISO-10303-21;
HEADER;
FILE_DESCRIPTION (( 'STEP AP214' ),
    '1' );
FILE_NAME ('59801.STEP',
    '2023-07-24T15:58:53',
    ( '' ),
    ( '' ),
    'SwSTEP 2.0',
    'SolidWorks 2023',
    '' );
FILE_SCHEMA (( 'AUTOMOTIVE_DESIGN' ));
ENDSEC;

DATA;
#1 = DIRECTION ( 'NONE',  ( -1.000000000000000000, 0.000000000000000000, 0.000000000000000000 ) ) ;
#2 = CARTESIAN_POINT ( 'NONE',  ( 4.898587196589412829E-16, 0.000000000000000000, 4.000000000000000000 ) ) ;
#3 =( NAMED_UNIT ( * ) PLANE_ANGLE_UNIT ( ) SI_UNIT ( $, .RADIAN. ) );
#4 = STYLED_ITEM ( 'NONE', ( #206 ), #72 ) ;
#5 = MECHANICAL_DESIGN_GEOMETRIC_PRESENTATION_REPRESENTATION (  '', ( #221 ), #182 ) ;
#6 = CARTESIAN_POINT ( 'NONE',  ( 4.000000000000000000, 24.00000000000000000, 4.898587196589413815E-16 ) ) ;
#7 = APPLICATION_PROTOCOL_DEFINITION ( 'draft international standard', 'automotive_design', 1998, #116 ) ;
#8 = VECTOR ( 'NONE', #124, 1000.000000000000000 ) ;
#9 = SURFACE_SIDE_STYLE ('',( #34 ) ) ;
#10 = MANIFOLD_SOLID_BREP ( 'Revolve - Tool Body (Straight Shanked)', #153 ) ;
#11 = CARTESIAN_POINT ( 'NONE',  ( -1.469576158976823750E-15, 75.00000000000000000, 0.000000000000000000 ) ) ;
#12 = FILL_AREA_STYLE ('',( #127 ) ) ;
#13 = FILL_AREA_STYLE ('',( #98 ) ) ;
#14 = AXIS2_PLACEMENT_3D ( 'NONE', #145, #222, #65 ) ;
#15 = EDGE_CURVE ( 'NONE', #76, #265, #137, .T. ) ;
#16 = CARTESIAN_POINT ( 'NONE',  ( 0.000000000000000000, 24.00000000000000000, 0.000000000000000000 ) ) ;
#17 = UNCERTAINTY_MEASURE_WITH_UNIT (LENGTH_MEASURE( 1.000000000000000082E-05 ), #234, 'distance_accuracy_value', 'NONE');
#18 = CYLINDRICAL_SURFACE ( 'NONE', #235, 4.000000000000000000 ) ;
#19 = ORIENTED_EDGE ( 'NONE', *, *, #52, .F. ) ;
#20 = ORIENTED_EDGE ( 'NONE', *, *, #168, .T. ) ;
#21 = FACE_OUTER_BOUND ( 'NONE', #104, .T. ) ;
#22 = CARTESIAN_POINT ( 'NONE',  ( 0.000000000000000000, 0.000000000000000000, -4.000000000000000000 ) ) ;
#23 = UNCERTAINTY_MEASURE_WITH_UNIT (LENGTH_MEASURE( 1.000000000000000082E-05 ), #138, 'distance_accuracy_value', 'NONE');
#24 = SURFACE_STYLE_FILL_AREA ( #228 ) ;
#25 = ORIENTED_EDGE ( 'NONE', *, *, #52, .T. ) ;
#26 = VERTEX_POINT ( 'NONE', #6 ) ;
#27 = CARTESIAN_POINT ( 'NONE',  ( 0.000000000000000000, 24.00000000000000000, 0.000000000000000000 ) ) ;
#28 = CARTESIAN_POINT ( 'NONE',  ( 0.000000000000000000, 0.000000000000000000, 0.000000000000000000 ) ) ;
#29 =( GEOMETRIC_REPRESENTATION_CONTEXT ( 3 ) GLOBAL_UNCERTAINTY_ASSIGNED_CONTEXT ( ( #23 ) ) GLOBAL_UNIT_ASSIGNED_CONTEXT ( ( #138, #3, #159 ) ) REPRESENTATION_CONTEXT ( 'NONE', 'WORKASPACE' ) );
#30 = ORIENTED_EDGE ( 'NONE', *, *, #239, .F. ) ;
#31 = SURFACE_STYLE_USAGE ( .BOTH. , #112 ) ;
#32 = EDGE_CURVE ( 'NONE', #154, #49, #162, .T. ) ;
#33 = AXIS2_PLACEMENT_3D ( 'NONE', #38, #237, #167 ) ;
#34 = SURFACE_STYLE_FILL_AREA ( #12 ) ;
#35 = PRODUCT_DEFINITION_SHAPE ( 'NONE', 'NONE',  #132 ) ;
#36 = PRESENTATION_STYLE_ASSIGNMENT (( #236 ) ) ;
#37 = CARTESIAN_POINT ( 'NONE',  ( 0.000000000000000000, 0.000000000000000000, 0.000000000000000000 ) ) ;
#38 = CARTESIAN_POINT ( 'NONE',  ( 0.000000000000000000, 24.00000000000000000, 0.000000000000000000 ) ) ;
#39 =( GEOMETRIC_REPRESENTATION_CONTEXT ( 3 ) GLOBAL_UNCERTAINTY_ASSIGNED_CONTEXT ( ( #56 ) ) GLOBAL_UNIT_ASSIGNED_CONTEXT ( ( #179, #68, #270 ) ) REPRESENTATION_CONTEXT ( 'NONE', 'WORKASPACE' ) );
#40 = PRESENTATION_LAYER_ASSIGNMENT (  '', '', ( #151 ) ) ;
#41 = FACE_OUTER_BOUND ( 'NONE', #188, .T. ) ;
#42 = DIRECTION ( 'NONE',  ( -0.000000000000000000, -1.000000000000000000, -0.000000000000000000 ) ) ;
#43 = CARTESIAN_POINT ( 'NONE',  ( 0.000000000000000000, 0.000000000000000000, 0.000000000000000000 ) ) ;
#44 = ORIENTED_EDGE ( 'NONE', *, *, #276, .F. ) ;
#45 = UNCERTAINTY_MEASURE_WITH_UNIT (LENGTH_MEASURE( 1.000000000000000082E-05 ), #115, 'distance_accuracy_value', 'NONE');
#46 = CARTESIAN_POINT ( 'NONE',  ( 4.898587196589412829E-16, 24.00000000000000000, 4.000000000000000000 ) ) ;
#47 = DIRECTION ( 'NONE',  ( 0.000000000000000000, 0.000000000000000000, -1.000000000000000000 ) ) ;
#48 = PRODUCT_CONTEXT ( 'NONE', #116, 'mechanical' ) ;
#49 = VERTEX_POINT ( 'NONE', #2 ) ;
#50 = ADVANCED_FACE ( 'NONE', ( #92 ), #259, .T. ) ;
#51 = CARTESIAN_POINT ( 'NONE',  ( 4.898587196589412829E-16, 0.000000000000000000, 4.000000000000000000 ) ) ;
#52 = EDGE_CURVE ( 'NONE', #265, #226, #214, .T. ) ;
#53 = CARTESIAN_POINT ( 'NONE',  ( -4.000000000000000000, 24.00000000000000000, 0.000000000000000000 ) ) ;
#54 = CLOSED_SHELL ( 'NONE', ( #173, #72, #50, #106 ) ) ;
#55 = PRODUCT_DEFINITION_FORMATION_WITH_SPECIFIED_SOURCE ( 'ANY', '', #61, .NOT_KNOWN. ) ;
#56 = UNCERTAINTY_MEASURE_WITH_UNIT (LENGTH_MEASURE( 1.000000000000000082E-05 ), #179, 'distance_accuracy_value', 'NONE');
#57 = SURFACE_STYLE_FILL_AREA ( #79 ) ;
#58 = PRESENTATION_LAYER_ASSIGNMENT (  '', '', ( #281 ) ) ;
#59 = AXIS2_PLACEMENT_3D ( 'NONE', #172, #217, #283 ) ;
#60 = DIRECTION ( 'NONE',  ( 0.000000000000000000, 0.000000000000000000, -1.000000000000000000 ) ) ;
#61 = PRODUCT ( '59801', '59801', '', ( #48 ) ) ;
#62 = EDGE_CURVE ( 'NONE', #26, #76, #89, .T. ) ;
#63 = ADVANCED_FACE ( 'NONE', ( #212 ), #261, .F. ) ;
#64 = STYLED_ITEM ( 'NONE', ( #36 ), #50 ) ;
#65 = DIRECTION ( 'NONE',  ( 1.000000000000000000, 2.881521880346713429E-17, 0.000000000000000000 ) ) ;
#66 = ORIENTED_EDGE ( 'NONE', *, *, #87, .F. ) ;
#67 = PRODUCT_RELATED_PRODUCT_CATEGORY ( 'part', '', ( #61 ) ) ;
#68 =( NAMED_UNIT ( * ) PLANE_ANGLE_UNIT ( ) SI_UNIT ( $, .RADIAN. ) );
#69 = ORIENTED_EDGE ( 'NONE', *, *, #62, .F. ) ;
#70 = MECHANICAL_DESIGN_GEOMETRIC_PRESENTATION_REPRESENTATION (  '', ( #160 ), #210 ) ;
#71 = MECHANICAL_DESIGN_GEOMETRIC_PRESENTATION_REPRESENTATION (  '', ( #151 ), #131 ) ;
#72 = ADVANCED_FACE ( 'NONE', ( #279 ), #163, .T. ) ;
#73 = SURFACE_STYLE_FILL_AREA ( #250 ) ;
#74 = CARTESIAN_POINT ( 'NONE',  ( -4.000000000000003553, 75.00000000000000000, 0.000000000000000000 ) ) ;
#75 =( NAMED_UNIT ( * ) SI_UNIT ( $, .STERADIAN. ) SOLID_ANGLE_UNIT ( ) );
#76 = VERTEX_POINT ( 'NONE', #53 ) ;
#77 = PRESENTATION_LAYER_ASSIGNMENT (  '', '', ( #160 ) ) ;
#78 =( NAMED_UNIT ( * ) PLANE_ANGLE_UNIT ( ) SI_UNIT ( $, .RADIAN. ) );
#79 = FILL_AREA_STYLE ('',( #147 ) ) ;
#80 =( LENGTH_UNIT ( ) NAMED_UNIT ( * ) SI_UNIT ( .MILLI., .METRE. ) );
#81 = CARTESIAN_POINT ( 'NONE',  ( 0.000000000000000000, 0.000000000000000000, 0.000000000000000000 ) ) ;
#82 = AXIS2_PLACEMENT_3D ( 'NONE', #176, #241, #1 ) ;
#83 = EDGE_CURVE ( 'NONE', #26, #226, #140, .T. ) ;
#84 = DIRECTION ( 'NONE',  ( 0.000000000000000000, 0.000000000000000000, -1.000000000000000000 ) ) ;
#85 = ADVANCED_FACE ( 'NONE', ( #41 ), #216, .T. ) ;
#86 = DIRECTION ( 'NONE',  ( -0.000000000000000000, -1.000000000000000000, -0.000000000000000000 ) ) ;
#87 = EDGE_CURVE ( 'NONE', #76, #26, #215, .T. ) ;
#88 = EDGE_LOOP ( 'NONE', ( #25, #94 ) ) ;
#89 = CIRCLE ( 'NONE', #139, 4.000000000000000000 ) ;
#90 = APPLICATION_PROTOCOL_DEFINITION ( 'draft international standard', 'automotive_design', 1998, #205 ) ;
#91 = VERTEX_POINT ( 'NONE', #260 ) ;
#92 = FACE_OUTER_BOUND ( 'NONE', #197, .T. ) ;
#93 = VECTOR ( 'NONE', #288, 1000.000000000000000 ) ;
#94 = ORIENTED_EDGE ( 'NONE', *, *, #276, .T. ) ;
#95 = PRESENTATION_STYLE_ASSIGNMENT (( #285 ) ) ;
#96 = ADVANCED_BREP_SHAPE_REPRESENTATION ( '59801', ( #199, #10, #268 ), #29 ) ;
#97 = COLOUR_RGB ( '',1.000000000000000000, 0.000000000000000000, 0.000000000000000000 ) ;
#98 = FILL_AREA_STYLE_COLOUR ( '', #146 ) ;
#99 =( NAMED_UNIT ( * ) PLANE_ANGLE_UNIT ( ) SI_UNIT ( $, .RADIAN. ) );
#100 = DIRECTION ( 'NONE',  ( 0.000000000000000000, 0.000000000000000000, -1.000000000000000000 ) ) ;
#101 = DIRECTION ( 'NONE',  ( -0.000000000000000000, -1.000000000000000000, -0.000000000000000000 ) ) ;
#102 = EDGE_CURVE ( 'NONE', #49, #192, #191, .T. ) ;
#103 =( GEOMETRIC_REPRESENTATION_CONTEXT ( 3 ) GLOBAL_UNCERTAINTY_ASSIGNED_CONTEXT ( ( #17 ) ) GLOBAL_UNIT_ASSIGNED_CONTEXT ( ( #234, #208, #238 ) ) REPRESENTATION_CONTEXT ( 'NONE', 'WORKASPACE' ) );
#104 = EDGE_LOOP ( 'NONE', ( #180, #136, #19, #158 ) ) ;
#105 = CIRCLE ( 'NONE', #273, 4.000000000000001776 ) ;
#106 = ADVANCED_FACE ( 'NONE', ( #184 ), #183, .T. ) ;
#107 = ORIENTED_EDGE ( 'NONE', *, *, #242, .F. ) ;
#108 = LINE ( 'NONE', #129, #93 ) ;
#109 = CIRCLE ( 'NONE', #286, 4.000000000000000000 ) ;
#110 = CARTESIAN_POINT ( 'NONE',  ( -1.469576158976823750E-15, 75.00000000000000000, 0.000000000000000000 ) ) ;
#111 = ORIENTED_EDGE ( 'NONE', *, *, #32, .F. ) ;
#112 = SURFACE_SIDE_STYLE ('',( #24 ) ) ;
#113 = CARTESIAN_POINT ( 'NONE',  ( -4.000000000000002665, 75.00000000000000000, 0.000000000000000000 ) ) ;
#114 = DIRECTION ( 'NONE',  ( 1.000000000000000000, 0.000000000000000000, 0.000000000000000000 ) ) ;
#115 =( LENGTH_UNIT ( ) NAMED_UNIT ( * ) SI_UNIT ( .MILLI., .METRE. ) );
#116 = APPLICATION_CONTEXT ( 'automotive_design' ) ;
#117 = SHAPE_DEFINITION_REPRESENTATION ( #35, #96 ) ;
#118 = SURFACE_STYLE_USAGE ( .BOTH. , #282 ) ;
#119 = DIRECTION ( 'NONE',  ( -1.000000000000000000, 0.000000000000000000, 0.000000000000000000 ) ) ;
#120 = UNCERTAINTY_MEASURE_WITH_UNIT (LENGTH_MEASURE( 1.000000000000000082E-05 ), #156, 'distance_accuracy_value', 'NONE');
#121 = DIRECTION ( 'NONE',  ( 0.000000000000000000, 0.000000000000000000, -1.000000000000000000 ) ) ;
#122 = MECHANICAL_DESIGN_GEOMETRIC_PRESENTATION_REPRESENTATION (  '', ( #4 ), #225 ) ;
#123 = COLOUR_RGB ( '',0.7921568627450980005, 0.8196078431372548767, 0.9333333333333333481 ) ;
#124 = DIRECTION ( 'NONE',  ( -2.881521880346713429E-17, 1.000000000000000000, -0.000000000000000000 ) ) ;
#125 =( NAMED_UNIT ( * ) PLANE_ANGLE_UNIT ( ) SI_UNIT ( $, .RADIAN. ) );
#126 = FACE_OUTER_BOUND ( 'NONE', #246, .T. ) ;
#127 = FILL_AREA_STYLE_COLOUR ( '', #97 ) ;
#128 = SURFACE_STYLE_FILL_AREA ( #243 ) ;
#129 = CARTESIAN_POINT ( 'NONE',  ( 0.000000000000000000, 0.000000000000000000, -4.000000000000000000 ) ) ;
#130 = AXIS2_PLACEMENT_3D ( 'NONE', #37, #275, #121 ) ;
#131 =( GEOMETRIC_REPRESENTATION_CONTEXT ( 3 ) GLOBAL_UNCERTAINTY_ASSIGNED_CONTEXT ( ( #218 ) ) GLOBAL_UNIT_ASSIGNED_CONTEXT ( ( #80, #99, #274 ) ) REPRESENTATION_CONTEXT ( 'NONE', 'WORKASPACE' ) );
#132 = PRODUCT_DEFINITION ( 'UNKNOWN', '', #55, #157 ) ;
#133 = AXIS2_PLACEMENT_3D ( 'NONE', #27, #204, #272 ) ;
#134 = EDGE_CURVE ( 'NONE', #91, #192, #108, .T. ) ;
#135 = FACE_OUTER_BOUND ( 'NONE', #196, .T. ) ;
#136 = ORIENTED_EDGE ( 'NONE', *, *, #83, .T. ) ;
#137 = LINE ( 'NONE', #113, #185 ) ;
#138 =( LENGTH_UNIT ( ) NAMED_UNIT ( * ) SI_UNIT ( .MILLI., .METRE. ) );
#139 = AXIS2_PLACEMENT_3D ( 'NONE', #165, #278, #170 ) ;
#140 = LINE ( 'NONE', #171, #8 ) ;
#141 = AXIS2_PLACEMENT_3D ( 'NONE', #211, #262, #100 ) ;
#142 = FILL_AREA_STYLE_COLOUR ( '', #123 ) ;
#143 = SURFACE_SIDE_STYLE ('',( #73 ) ) ;
#144 = CARTESIAN_POINT ( 'NONE',  ( 0.000000000000000000, 0.000000000000000000, 0.000000000000000000 ) ) ;
#145 = CARTESIAN_POINT ( 'NONE',  ( 4.000000000000000000, 75.00000000000000000, 0.000000000000000000 ) ) ;
#146 = COLOUR_RGB ( '',1.000000000000000000, 0.000000000000000000, 0.000000000000000000 ) ;
#147 = FILL_AREA_STYLE_COLOUR ( '', #201 ) ;
#148 = CARTESIAN_POINT ( 'NONE',  ( -1.469576158976823750E-15, 75.00000000000000000, 0.000000000000000000 ) ) ;
#149 = PRESENTATION_STYLE_ASSIGNMENT (( #186 ) ) ;
#150 = DIRECTION ( 'NONE',  ( -1.000000000000000000, 0.000000000000000000, 0.000000000000000000 ) ) ;
#151 = STYLED_ITEM ( 'NONE', ( #149 ), #106 ) ;
#152 = DIRECTION ( 'NONE',  ( -0.000000000000000000, -1.000000000000000000, -0.000000000000000000 ) ) ;
#153 = CLOSED_SHELL ( 'NONE', ( #258, #232, #85, #63 ) ) ;
#154 = VERTEX_POINT ( 'NONE', #46 ) ;
#155 = DIRECTION ( 'NONE',  ( 0.000000000000000000, 0.000000000000000000, -1.000000000000000000 ) ) ;
#156 =( LENGTH_UNIT ( ) NAMED_UNIT ( * ) SI_UNIT ( .MILLI., .METRE. ) );
#157 = PRODUCT_DEFINITION_CONTEXT ( 'detailed design', #205, 'design' ) ;
#158 = ORIENTED_EDGE ( 'NONE', *, *, #15, .F. ) ;
#159 =( NAMED_UNIT ( * ) SI_UNIT ( $, .STERADIAN. ) SOLID_ANGLE_UNIT ( ) );
#160 = STYLED_ITEM ( 'NONE', ( #207 ), #199 ) ;
#161 = ORIENTED_EDGE ( 'NONE', *, *, #134, .T. ) ;
#162 = LINE ( 'NONE', #51, #240 ) ;
#163 = PLANE ( 'NONE',  #133 ) ;
#164 = ORIENTED_EDGE ( 'NONE', *, *, #239, .T. ) ;
#165 = CARTESIAN_POINT ( 'NONE',  ( 0.000000000000000000, 24.00000000000000000, 0.000000000000000000 ) ) ;
#166 =( LENGTH_UNIT ( ) NAMED_UNIT ( * ) SI_UNIT ( .MILLI., .METRE. ) );
#167 = DIRECTION ( 'NONE',  ( -1.000000000000000000, 0.000000000000000000, 0.000000000000000000 ) ) ;
#168 = EDGE_CURVE ( 'NONE', #192, #49, #109, .T. ) ;
#169 = AXIS2_PLACEMENT_3D ( 'NONE', #148, #187, #150 ) ;
#170 = DIRECTION ( 'NONE',  ( -1.000000000000000000, 0.000000000000000000, 0.000000000000000000 ) ) ;
#171 = CARTESIAN_POINT ( 'NONE',  ( 3.999999999999999112, 75.00000000000000000, 4.898587196589413815E-16 ) ) ;
#172 = CARTESIAN_POINT ( 'NONE',  ( 1.660633669383371668E-33, 24.00000000000000000, 0.000000000000000000 ) ) ;
#173 = ADVANCED_FACE ( 'NONE', ( #126 ), #18, .T. ) ;
#174 = EDGE_LOOP ( 'NONE', ( #20, #178 ) ) ;
#175 = AXIS2_PLACEMENT_3D ( 'NONE', #287, #152, #155 ) ;
#176 = CARTESIAN_POINT ( 'NONE',  ( -1.469576158976823750E-15, 75.00000000000000000, 0.000000000000000000 ) ) ;
#177 = COLOUR_RGB ( '',1.000000000000000000, 0.000000000000000000, 0.000000000000000000 ) ;
#178 = ORIENTED_EDGE ( 'NONE', *, *, #102, .T. ) ;
#179 =( LENGTH_UNIT ( ) NAMED_UNIT ( * ) SI_UNIT ( .MILLI., .METRE. ) );
#180 = ORIENTED_EDGE ( 'NONE', *, *, #87, .T. ) ;
#181 = SURFACE_SIDE_STYLE ('',( #57 ) ) ;
#182 =( GEOMETRIC_REPRESENTATION_CONTEXT ( 3 ) GLOBAL_UNCERTAINTY_ASSIGNED_CONTEXT ( ( #45 ) ) GLOBAL_UNIT_ASSIGNED_CONTEXT ( ( #115, #267, #75 ) ) REPRESENTATION_CONTEXT ( 'NONE', 'WORKASPACE' ) );
#183 = PLANE ( 'NONE',  #141 ) ;
#184 = FACE_OUTER_BOUND ( 'NONE', #174, .T. ) ;
#185 = VECTOR ( 'NONE', #229, 1000.000000000000000 ) ;
#186 = SURFACE_STYLE_USAGE ( .BOTH. , #9 ) ;
#187 = DIRECTION ( 'NONE',  ( -2.881521880346713429E-17, 1.000000000000000000, -0.000000000000000000 ) ) ;
#188 = EDGE_LOOP ( 'NONE', ( #248, #231, #223, #44 ) ) ;
#189 = MECHANICAL_DESIGN_GEOMETRIC_PRESENTATION_REPRESENTATION (  '', ( #281 ), #39 ) ;
#190 = CARTESIAN_POINT ( 'NONE',  ( 4.000000000000000000, 75.00000000000000000, 4.898587196589413815E-16 ) ) ;
#191 = CIRCLE ( 'NONE', #227, 4.000000000000000000 ) ;
#192 = VERTEX_POINT ( 'NONE', #22 ) ;
#193 = PLANE ( 'NONE',  #59 ) ;
#194 =( NAMED_UNIT ( * ) SI_UNIT ( $, .STERADIAN. ) SOLID_ANGLE_UNIT ( ) );
#195 = COLOUR_RGB ( '',0.7921568627450980005, 0.8196078431372548767, 0.9333333333333333481 ) ;
#196 = EDGE_LOOP ( 'NONE', ( #66, #69 ) ) ;
#197 = EDGE_LOOP ( 'NONE', ( #111, #284, #161, #271 ) ) ;
#198 = DIRECTION ( 'NONE',  ( -0.000000000000000000, -1.000000000000000000, -0.000000000000000000 ) ) ;
#199 = MANIFOLD_SOLID_BREP ( 'Revolve - Cutting Edge', #54 ) ;
#200 = ORIENTED_EDGE ( 'NONE', *, *, #134, .F. ) ;
#201 = COLOUR_RGB ( '',1.000000000000000000, 0.000000000000000000, 0.000000000000000000 ) ;
#202 = AXIS2_PLACEMENT_3D ( 'NONE', #16, #86, #224 ) ;
#203 = DIRECTION ( 'NONE',  ( 0.000000000000000000, 0.000000000000000000, 1.000000000000000000 ) ) ;
#204 = DIRECTION ( 'NONE',  ( 0.000000000000000000, 1.000000000000000000, 0.000000000000000000 ) ) ;
#205 = APPLICATION_CONTEXT ( 'automotive_design' ) ;
#206 = PRESENTATION_STYLE_ASSIGNMENT (( #118 ) ) ;
#207 = PRESENTATION_STYLE_ASSIGNMENT (( #31 ) ) ;
#208 =( NAMED_UNIT ( * ) PLANE_ANGLE_UNIT ( ) SI_UNIT ( $, .RADIAN. ) );
#209 = PRESENTATION_LAYER_ASSIGNMENT (  '', '', ( #64 ) ) ;
#210 =( GEOMETRIC_REPRESENTATION_CONTEXT ( 3 ) GLOBAL_UNCERTAINTY_ASSIGNED_CONTEXT ( ( #244 ) ) GLOBAL_UNIT_ASSIGNED_CONTEXT ( ( #166, #125, #194 ) ) REPRESENTATION_CONTEXT ( 'NONE', 'WORKASPACE' ) );
#211 = CARTESIAN_POINT ( 'NONE',  ( 0.000000000000000000, 0.000000000000000000, 0.000000000000000000 ) ) ;
#212 = FACE_OUTER_BOUND ( 'NONE', #88, .T. ) ;
#213 = FILL_AREA_STYLE_COLOUR ( '', #177 ) ;
#214 = CIRCLE ( 'NONE', #264, 4.000000000000001776 ) ;
#215 = CIRCLE ( 'NONE', #33, 4.000000000000000000 ) ;
#216 = CYLINDRICAL_SURFACE ( 'NONE', #169, 4.000000000000000888 ) ;
#217 = DIRECTION ( 'NONE',  ( -2.881521880346713429E-17, 1.000000000000000000, 0.000000000000000000 ) ) ;
#218 = UNCERTAINTY_MEASURE_WITH_UNIT (LENGTH_MEASURE( 1.000000000000000082E-05 ), #80, 'distance_accuracy_value', 'NONE');
#219 = SURFACE_STYLE_USAGE ( .BOTH. , #266 ) ;
#220 = MECHANICAL_DESIGN_GEOMETRIC_PRESENTATION_REPRESENTATION (  '', ( #64 ), #103 ) ;
#221 = STYLED_ITEM ( 'NONE', ( #253 ), #173 ) ;
#222 = DIRECTION ( 'NONE',  ( 2.881521880346713429E-17, -1.000000000000000000, 0.000000000000000000 ) ) ;
#223 = ORIENTED_EDGE ( 'NONE', *, *, #15, .T. ) ;
#224 = DIRECTION ( 'NONE',  ( 0.000000000000000000, 0.000000000000000000, -1.000000000000000000 ) ) ;
#225 =( GEOMETRIC_REPRESENTATION_CONTEXT ( 3 ) GLOBAL_UNCERTAINTY_ASSIGNED_CONTEXT ( ( #120 ) ) GLOBAL_UNIT_ASSIGNED_CONTEXT ( ( #156, #78, #254 ) ) REPRESENTATION_CONTEXT ( 'NONE', 'WORKASPACE' ) );
#226 = VERTEX_POINT ( 'NONE', #190 ) ;
#227 = AXIS2_PLACEMENT_3D ( 'NONE', #43, #101, #84 ) ;
#228 = FILL_AREA_STYLE ('',( #142 ) ) ;
#229 = DIRECTION ( 'NONE',  ( -2.881521880346713429E-17, 1.000000000000000000, -0.000000000000000000 ) ) ;
#230 = DIRECTION ( 'NONE',  ( -2.881521880346713429E-17, 1.000000000000000000, -0.000000000000000000 ) ) ;
#231 = ORIENTED_EDGE ( 'NONE', *, *, #62, .T. ) ;
#232 = ADVANCED_FACE ( 'NONE', ( #135 ), #193, .F. ) ;
#233 = DIRECTION ( 'NONE',  ( -1.000000000000000000, 0.000000000000000000, 0.000000000000000000 ) ) ;
#234 =( LENGTH_UNIT ( ) NAMED_UNIT ( * ) SI_UNIT ( .MILLI., .METRE. ) );
#235 = AXIS2_PLACEMENT_3D ( 'NONE', #144, #249, #47 ) ;
#236 = SURFACE_STYLE_USAGE ( .BOTH. , #181 ) ;
#237 = DIRECTION ( 'NONE',  ( -2.881521880346713429E-17, 1.000000000000000000, -0.000000000000000000 ) ) ;
#238 =( NAMED_UNIT ( * ) SI_UNIT ( $, .STERADIAN. ) SOLID_ANGLE_UNIT ( ) );
#239 = EDGE_CURVE ( 'NONE', #91, #154, #257, .T. ) ;
#240 = VECTOR ( 'NONE', #198, 1000.000000000000000 ) ;
#241 = DIRECTION ( 'NONE',  ( -2.881521880346713429E-17, 1.000000000000000000, -0.000000000000000000 ) ) ;
#242 = EDGE_CURVE ( 'NONE', #154, #91, #277, .T. ) ;
#243 = FILL_AREA_STYLE ('',( #213 ) ) ;
#244 = UNCERTAINTY_MEASURE_WITH_UNIT (LENGTH_MEASURE( 1.000000000000000082E-05 ), #166, 'distance_accuracy_value', 'NONE');
#245 = ORIENTED_EDGE ( 'NONE', *, *, #32, .T. ) ;
#246 = EDGE_LOOP ( 'NONE', ( #164, #245, #280, #200 ) ) ;
#247 = EDGE_LOOP ( 'NONE', ( #30, #107 ) ) ;
#248 = ORIENTED_EDGE ( 'NONE', *, *, #83, .F. ) ;
#249 = DIRECTION ( 'NONE',  ( -0.000000000000000000, -1.000000000000000000, -0.000000000000000000 ) ) ;
#250 = FILL_AREA_STYLE ('',( #269 ) ) ;
#251 = PRESENTATION_LAYER_ASSIGNMENT (  '', '', ( #4 ) ) ;
#252 = PRESENTATION_LAYER_ASSIGNMENT (  '', '', ( #221 ) ) ;
#253 = PRESENTATION_STYLE_ASSIGNMENT (( #219 ) ) ;
#254 =( NAMED_UNIT ( * ) SI_UNIT ( $, .STERADIAN. ) SOLID_ANGLE_UNIT ( ) );
#255 = SURFACE_STYLE_FILL_AREA ( #13 ) ;
#256 = DIRECTION ( 'NONE',  ( -2.881521880346713429E-17, 1.000000000000000000, -0.000000000000000000 ) ) ;
#257 = CIRCLE ( 'NONE', #175, 4.000000000000000000 ) ;
#258 = ADVANCED_FACE ( 'NONE', ( #21 ), #263, .T. ) ;
#259 = CYLINDRICAL_SURFACE ( 'NONE', #130, 4.000000000000000000 ) ;
#260 = CARTESIAN_POINT ( 'NONE',  ( 0.000000000000000000, 24.00000000000000000, -4.000000000000000000 ) ) ;
#261 = PLANE ( 'NONE',  #14 ) ;
#262 = DIRECTION ( 'NONE',  ( 0.000000000000000000, -1.000000000000000000, -0.000000000000000000 ) ) ;
#263 = CYLINDRICAL_SURFACE ( 'NONE', #82, 4.000000000000000888 ) ;
#264 = AXIS2_PLACEMENT_3D ( 'NONE', #11, #256, #119 ) ;
#265 = VERTEX_POINT ( 'NONE', #74 ) ;
#266 = SURFACE_SIDE_STYLE ('',( #128 ) ) ;
#267 =( NAMED_UNIT ( * ) PLANE_ANGLE_UNIT ( ) SI_UNIT ( $, .RADIAN. ) );
#268 = AXIS2_PLACEMENT_3D ( 'NONE', #28, #203, #114 ) ;
#269 = FILL_AREA_STYLE_COLOUR ( '', #195 ) ;
#270 =( NAMED_UNIT ( * ) SI_UNIT ( $, .STERADIAN. ) SOLID_ANGLE_UNIT ( ) );
#271 = ORIENTED_EDGE ( 'NONE', *, *, #102, .F. ) ;
#272 = DIRECTION ( 'NONE',  ( 0.000000000000000000, -0.000000000000000000, 1.000000000000000000 ) ) ;
#273 = AXIS2_PLACEMENT_3D ( 'NONE', #110, #230, #233 ) ;
#274 =( NAMED_UNIT ( * ) SI_UNIT ( $, .STERADIAN. ) SOLID_ANGLE_UNIT ( ) );
#275 = DIRECTION ( 'NONE',  ( -0.000000000000000000, -1.000000000000000000, -0.000000000000000000 ) ) ;
#276 = EDGE_CURVE ( 'NONE', #226, #265, #105, .T. ) ;
#277 = CIRCLE ( 'NONE', #202, 4.000000000000000000 ) ;
#278 = DIRECTION ( 'NONE',  ( -2.881521880346713429E-17, 1.000000000000000000, -0.000000000000000000 ) ) ;
#279 = FACE_OUTER_BOUND ( 'NONE', #247, .T. ) ;
#280 = ORIENTED_EDGE ( 'NONE', *, *, #168, .F. ) ;
#281 = STYLED_ITEM ( 'NONE', ( #95 ), #10 ) ;
#282 = SURFACE_SIDE_STYLE ('',( #255 ) ) ;
#283 = DIRECTION ( 'NONE',  ( -1.000000000000000000, -2.881521880346713429E-17, 0.000000000000000000 ) ) ;
#284 = ORIENTED_EDGE ( 'NONE', *, *, #242, .T. ) ;
#285 = SURFACE_STYLE_USAGE ( .BOTH. , #143 ) ;
#286 = AXIS2_PLACEMENT_3D ( 'NONE', #81, #42, #60 ) ;
#287 = CARTESIAN_POINT ( 'NONE',  ( 0.000000000000000000, 24.00000000000000000, 0.000000000000000000 ) ) ;
#288 = DIRECTION ( 'NONE',  ( -0.000000000000000000, -1.000000000000000000, -0.000000000000000000 ) ) ;
ENDSEC;
END-ISO-10303-21;
