ISO-10303-21;
HEADER;
FILE_DESCRIPTION (( 'STEP AP214' ),
    '1' );
FILE_NAME ('Micro_BMSM-010-4.STEP',
    '2021-09-03T15:41:35',
    ( '' ),
    ( '' ),
    'SwSTEP 2.0',
    'SolidWorks 2020',
    '' );
FILE_SCHEMA (( 'AUTOMOTIVE_DESIGN' ));
ENDSEC;

DATA;
#1 = EDGE_LOOP ( 'NONE', ( #13, #278, #225 ) ) ;
#2 = DIRECTION ( 'NONE',  ( 1.000000000000000000, 0.0000000000000000000, 0.0000000000000000000 ) ) ;
#3 = ORIENTED_EDGE ( 'NONE', *, *, #207, .F. ) ;
#4 = SURFACE_SIDE_STYLE ('',( #305 ) ) ;
#5 = DIRECTION ( 'NONE',  ( -1.000000000000000000, 0.0000000000000000000, 1.224646799147353207E-16 ) ) ;
#6 = CIRCLE ( 'NONE', #274, 0.05905500000000000332 ) ;
#7 = DIRECTION ( 'NONE',  ( 0.0000000000000000000, 0.0000000000000000000, -1.000000000000000000 ) ) ;
#8 = DIRECTION ( 'NONE',  ( -1.000000000000000000, 0.0000000000000000000, 0.0000000000000000000 ) ) ;
#9 = UNCERTAINTY_MEASURE_WITH_UNIT (LENGTH_MEASURE( 1.000000000000000082E-05 ), #121, 'distance_accuracy_value', 'NONE');
#10 = APPLICATION_CONTEXT ( 'automotive_design' ) ;
#11 = ORIENTED_EDGE ( 'NONE', *, *, #112, .F. ) ;
#12 = SHAPE_DEFINITION_REPRESENTATION ( #285, #146 ) ;
#13 = ORIENTED_EDGE ( 'NONE', *, *, #222, .F. ) ;
#14 = AXIS2_PLACEMENT_3D ( 'NONE', #313, #140, #247 ) ;
#15 = CYLINDRICAL_SURFACE ( 'NONE', #14, 0.01966531499999999225 ) ;
#16 = PRODUCT_DEFINITION_CONTEXT ( 'detailed design', #10, 'design' ) ;
#17 = PRODUCT ( 'Micro_BMSM-010-4', 'Micro_BMSM-010-4', '', ( #234 ) ) ;
#18 = CIRCLE ( 'NONE', #72, 0.01966531499999999918 ) ;
#19 = SURFACE_SIDE_STYLE ('',( #67 ) ) ;
#20 = CARTESIAN_POINT ( 'NONE',  ( 0.04405499999999973326, 6.313666573004162521E-18, 1.496062999999999921 ) ) ;
#21 = AXIS2_PLACEMENT_3D ( 'NONE', #152, #282, #27 ) ;
#22 = ADVANCED_FACE ( 'NONE', ( #261 ), #283, .T. ) ;
#23 = CARTESIAN_POINT ( 'NONE',  ( 0.01966531500000000265, 0.0000000000000000000, 0.05905500000000000332 ) ) ;
#24 = ORIENTED_EDGE ( 'NONE', *, *, #36, .F. ) ;
#25 = DIRECTION ( 'NONE',  ( 0.0000000000000000000, 0.0000000000000000000, 1.000000000000000000 ) ) ;
#26 = EDGE_LOOP ( 'NONE', ( #11, #30, #3 ) ) ;
#27 = DIRECTION ( 'NONE',  ( -1.000000000000000000, 0.0000000000000000000, 0.0000000000000000000 ) ) ;
#28 = ORIENTED_EDGE ( 'NONE', *, *, #192, .F. ) ;
#29 = LINE ( 'NONE', #205, #243 ) ;
#30 = ORIENTED_EDGE ( 'NONE', *, *, #222, .T. ) ;
#31 = VERTEX_POINT ( 'NONE', #38 ) ;
#32 = EDGE_CURVE ( 'NONE', #168, #153, #91, .T. ) ;
#33 = CARTESIAN_POINT ( 'NONE',  ( 0.0000000000000000000, 0.0000000000000000000, 1.481062999999999574 ) ) ;
#34 = FACE_OUTER_BOUND ( 'NONE', #1, .T. ) ;
#35 = VECTOR ( 'NONE', #189, 39.37007874015748143 ) ;
#36 = EDGE_CURVE ( 'NONE', #165, #31, #6, .T. ) ;
#37 = DIRECTION ( 'NONE',  ( -0.7071067811865482389, 0.0000000000000000000, -0.7071067811865469066 ) ) ;
#38 = CARTESIAN_POINT ( 'NONE',  ( 0.05905500000000004496, 7.232151672364700045E-18, 0.2824450044209672606 ) ) ;
#39 = EDGE_CURVE ( 'NONE', #168, #41, #134, .T. ) ;
#40 = ORIENTED_EDGE ( 'NONE', *, *, #39, .T. ) ;
#41 = VERTEX_POINT ( 'NONE', #62 ) ;
#42 = EDGE_CURVE ( 'NONE', #132, #31, #179, .T. ) ;
#43 = DIRECTION ( 'NONE',  ( 0.0000000000000000000, 0.0000000000000000000, -1.000000000000000000 ) ) ;
#44 = DIRECTION ( 'NONE',  ( 1.000000000000000000, 0.0000000000000000000, 0.0000000000000000000 ) ) ;
#45 = EDGE_CURVE ( 'NONE', #41, #148, #88, .T. ) ;
#46 = CARTESIAN_POINT ( 'NONE',  ( 0.0000000000000000000, 0.0000000000000000000, 1.481062999999999574 ) ) ;
#47 = VECTOR ( 'NONE', #80, 39.37007874015748143 ) ;
#48 = ORIENTED_EDGE ( 'NONE', *, *, #203, .F. ) ;
#49 = LINE ( 'NONE', #87, #318 ) ;
#50 = ORIENTED_EDGE ( 'NONE', *, *, #183, .F. ) ;
#51 = CARTESIAN_POINT ( 'NONE',  ( -0.01966531499999998878, 0.0000000000000000000, 0.01966531500000000265 ) ) ;
#52 = ORIENTED_EDGE ( 'NONE', *, *, #316, .F. ) ;
#53 = DIRECTION ( 'NONE',  ( -1.000000000000000000, 0.0000000000000000000, 0.0000000000000000000 ) ) ;
#54 = CIRCLE ( 'NONE', #136, 0.05905500000000000332 ) ;
#55 = ORIENTED_EDGE ( 'NONE', *, *, #192, .T. ) ;
#56 =( CONVERSION_BASED_UNIT ( 'INCH', #174 ) LENGTH_UNIT ( ) NAMED_UNIT ( #149 ) );
#57 = FACE_OUTER_BOUND ( 'NONE', #246, .T. ) ;
#58 = ADVANCED_FACE ( 'NONE', ( #34 ), #154, .T. ) ;
#59 = PRESENTATION_STYLE_ASSIGNMENT (( #81 ) ) ;
#60 = DIRECTION ( 'NONE',  ( -1.000000000000000000, 0.0000000000000000000, 2.170579261049422841E-16 ) ) ;
#61 = AXIS2_PLACEMENT_3D ( 'NONE', #268, #185, #5 ) ;
#62 = CARTESIAN_POINT ( 'NONE',  ( 0.01966531499999999918, 2.408306506897442331E-18, 0.01966531499999999225 ) ) ;
#63 = LINE ( 'NONE', #158, #186 ) ;
#64 = DIRECTION ( 'NONE',  ( 1.000000000000000000, 0.0000000000000000000, 0.0000000000000000000 ) ) ;
#65 = AXIS2_PLACEMENT_3D ( 'NONE', #252, #259, #226 ) ;
#66 = AXIS2_PLACEMENT_3D ( 'NONE', #307, #209, #184 ) ;
#67 = SURFACE_STYLE_FILL_AREA ( #114 ) ;
#68 = CARTESIAN_POINT ( 'NONE',  ( 0.0000000000000000000, 0.0000000000000000000, 1.496062999999999921 ) ) ;
#69 = LINE ( 'NONE', #241, #280 ) ;
#70 = ORIENTED_EDGE ( 'NONE', *, *, #270, .F. ) ;
#71 = DIRECTION ( 'NONE',  ( 0.0000000000000000000, 0.0000000000000000000, -1.000000000000000000 ) ) ;
#72 = AXIS2_PLACEMENT_3D ( 'NONE', #315, #93, #71 ) ;
#73 = DIRECTION ( 'NONE',  ( 0.0000000000000000000, 0.0000000000000000000, 1.000000000000000000 ) ) ;
#74 = ORIENTED_EDGE ( 'NONE', *, *, #253, .T. ) ;
#75 = DIRECTION ( 'NONE',  ( -1.000000000000000000, 0.0000000000000000000, 0.0000000000000000000 ) ) ;
#76 = ORIENTED_EDGE ( 'NONE', *, *, #312, .F. ) ;
#77 = ORIENTED_EDGE ( 'NONE', *, *, #45, .T. ) ;
#78 = PRODUCT_DEFINITION_FORMATION_WITH_SPECIFIED_SOURCE ( 'ANY', '', #17, .NOT_KNOWN. ) ;
#79 = FACE_OUTER_BOUND ( 'NONE', #250, .T. ) ;
#80 = DIRECTION ( 'NONE',  ( -1.224646799147353207E-16, -0.0000000000000000000, -1.000000000000000000 ) ) ;
#81 = SURFACE_STYLE_USAGE ( .BOTH. , #4 ) ;
#82 = CARTESIAN_POINT ( 'NONE',  ( 3.458953705992975487E-17, 0.0000000000000000000, 0.2824450044209672606 ) ) ;
#83 = CARTESIAN_POINT ( 'NONE',  ( 2.408306506897442716E-18, 0.0000000000000000000, 0.01966531499999999918 ) ) ;
#84 = AXIS2_PLACEMENT_3D ( 'NONE', #228, #7, #75 ) ;
#85 = CARTESIAN_POINT ( 'NONE',  ( 0.05905500000000000332, 7.232151672364695422E-18, 1.496062999999999921 ) ) ;
#86 = FACE_OUTER_BOUND ( 'NONE', #255, .T. ) ;
#87 = CARTESIAN_POINT ( 'NONE',  ( -0.05905500000000000332, 0.0000000000000000000, 1.496062999999999921 ) ) ;
#88 = CIRCLE ( 'NONE', #236, 0.01966531499999999225 ) ;
#89 = ADVANCED_FACE ( 'NONE', ( #105 ), #295, .T. ) ;
#90 = ADVANCED_FACE ( 'NONE', ( #57 ), #157, .T. ) ;
#91 = CIRCLE ( 'NONE', #155, 0.01966531499999999225 ) ;
#92 = CARTESIAN_POINT ( 'NONE',  ( 0.04405499999999973326, 5.395181473643630390E-18, 1.496062999999999921 ) ) ;
#93 = DIRECTION ( 'NONE',  ( 0.0000000000000000000, -1.000000000000000000, 0.0000000000000000000 ) ) ;
#94 = ORIENTED_EDGE ( 'NONE', *, *, #150, .T. ) ;
#95 = EDGE_CURVE ( 'NONE', #168, #31, #233, .T. ) ;
#96 = CYLINDRICAL_SURFACE ( 'NONE', #200, 0.05905500000000000332 ) ;
#97 = ORIENTED_EDGE ( 'NONE', *, *, #198, .F. ) ;
#98 = DIRECTION ( 'NONE',  ( 0.0000000000000000000, 0.0000000000000000000, -1.000000000000000000 ) ) ;
#99 = EDGE_LOOP ( 'NONE', ( #97, #48, #101, #28 ) ) ;
#100 = FACE_OUTER_BOUND ( 'NONE', #171, .T. ) ;
#101 = ORIENTED_EDGE ( 'NONE', *, *, #312, .T. ) ;
#102 =( NAMED_UNIT ( * ) PLANE_ANGLE_UNIT ( ) SI_UNIT ( $, .RADIAN. ) );
#103 = EDGE_LOOP ( 'NONE', ( #129, #275, #24, #227 ) ) ;
#104 = APPLICATION_PROTOCOL_DEFINITION ( 'draft international standard', 'automotive_design', 1998, #213 ) ;
#105 = FACE_OUTER_BOUND ( 'NONE', #110, .T. ) ;
#106 = CARTESIAN_POINT ( 'NONE',  ( 0.0000000000000000000, 0.0000000000000000000, 0.0000000000000000000 ) ) ;
#107 = CARTESIAN_POINT ( 'NONE',  ( 2.408306506897442716E-18, 0.0000000000000000000, 0.01966531499999999918 ) ) ;
#108 = CONICAL_SURFACE ( 'NONE', #115, 0.04405499999999973326, 0.7853981633974491672 ) ;
#109 = PRESENTATION_LAYER_ASSIGNMENT (  '', '', ( #177 ) ) ;
#110 = EDGE_LOOP ( 'NONE', ( #120, #117, #201, #217 ) ) ;
#111 =( CONVERSION_BASED_UNIT ( 'INCH', #169 ) LENGTH_UNIT ( ) NAMED_UNIT ( #119 ) );
#112 = EDGE_CURVE ( 'NONE', #223, #148, #303, .T. ) ;
#113 = CIRCLE ( 'NONE', #299, 0.04405499999999973326 ) ;
#114 = FILL_AREA_STYLE ('',( #319 ) ) ;
#115 = AXIS2_PLACEMENT_3D ( 'NONE', #279, #98, #53 ) ;
#116 = PRESENTATION_STYLE_ASSIGNMENT (( #190 ) ) ;
#117 = ORIENTED_EDGE ( 'NONE', *, *, #32, .F. ) ;
#118 =( NAMED_UNIT ( * ) SI_UNIT ( $, .STERADIAN. ) SOLID_ANGLE_UNIT ( ) );
#119 = DIMENSIONAL_EXPONENTS ( 1.000000000000000000, 0.0000000000000000000, 0.0000000000000000000, 0.0000000000000000000, 0.0000000000000000000, 0.0000000000000000000, 0.0000000000000000000 ) ;
#120 = ORIENTED_EDGE ( 'NONE', *, *, #138, .F. ) ;
#121 =( CONVERSION_BASED_UNIT ( 'INCH', #288 ) LENGTH_UNIT ( ) NAMED_UNIT ( #170 ) );
#122 = CIRCLE ( 'NONE', #65, 0.01966531499999999225 ) ;
#123 = ORIENTED_EDGE ( 'NONE', *, *, #238, .T. ) ;
#124 = FACE_OUTER_BOUND ( 'NONE', #99, .T. ) ;
#125 = ORIENTED_EDGE ( 'NONE', *, *, #203, .T. ) ;
#126 = FILL_AREA_STYLE ('',( #202 ) ) ;
#127 =( GEOMETRIC_REPRESENTATION_CONTEXT ( 3 ) GLOBAL_UNCERTAINTY_ASSIGNED_CONTEXT ( ( #130 ) ) GLOBAL_UNIT_ASSIGNED_CONTEXT ( ( #111, #212, #118 ) ) REPRESENTATION_CONTEXT ( 'NONE', 'WORKASPACE' ) );
#128 = CIRCLE ( 'NONE', #166, 0.05905500000000000332 ) ;
#129 = ORIENTED_EDGE ( 'NONE', *, *, #316, .T. ) ;
#130 = UNCERTAINTY_MEASURE_WITH_UNIT (LENGTH_MEASURE( 1.000000000000000082E-05 ), #111, 'distance_accuracy_value', 'NONE');
#131 =( NAMED_UNIT ( * ) SI_UNIT ( $, .STERADIAN. ) SOLID_ANGLE_UNIT ( ) );
#132 = VERTEX_POINT ( 'NONE', #290 ) ;
#133 = DIRECTION ( 'NONE',  ( 1.000000000000000000, 0.0000000000000000000, 0.0000000000000000000 ) ) ;
#134 = LINE ( 'NONE', #304, #47 ) ;
#135 = DIRECTION ( 'NONE',  ( -0.1736481776669311916, 2.126576849575783316E-17, 0.9848077530122080203 ) ) ;
#136 = AXIS2_PLACEMENT_3D ( 'NONE', #273, #194, #210 ) ;
#137 = DIRECTION ( 'NONE',  ( 0.0000000000000000000, 1.000000000000000000, 0.0000000000000000000 ) ) ;
#138 = EDGE_CURVE ( 'NONE', #153, #165, #63, .T. ) ;
#139 = COLOUR_RGB ( '',0.7921568627450980005, 0.8196078431372548767, 0.9333333333333333481 ) ;
#140 = DIRECTION ( 'NONE',  ( -1.224646799147353207E-16, -0.0000000000000000000, -1.000000000000000000 ) ) ;
#141 = DIRECTION ( 'NONE',  ( -1.000000000000000000, 0.0000000000000000000, 2.170579261049422841E-16 ) ) ;
#142 = CIRCLE ( 'NONE', #240, 0.05905500000000000332 ) ;
#143 = COLOUR_RGB ( '',0.7921568627450980005, 0.8196078431372548767, 0.9333333333333333481 ) ;
#144 = VERTEX_POINT ( 'NONE', #237 ) ;
#145 = ADVANCED_FACE ( 'NONE', ( #86 ), #15, .T. ) ;
#146 = ADVANCED_BREP_SHAPE_REPRESENTATION ( 'Micro_BMSM-010-4', ( #180, #271 ), #230 ) ;
#147 = CARTESIAN_POINT ( 'NONE',  ( 0.0000000000000000000, 0.0000000000000000000, 1.496062999999999921 ) ) ;
#148 = VERTEX_POINT ( 'NONE', #51 ) ;
#149 = DIMENSIONAL_EXPONENTS ( 1.000000000000000000, 0.0000000000000000000, 0.0000000000000000000, 0.0000000000000000000, 0.0000000000000000000, 0.0000000000000000000, 0.0000000000000000000 ) ;
#150 = EDGE_CURVE ( 'NONE', #153, #148, #69, .T. ) ;
#151 = ORIENTED_EDGE ( 'NONE', *, *, #150, .F. ) ;
#152 = CARTESIAN_POINT ( 'NONE',  ( 0.0000000000000000000, 0.0000000000000000000, 1.496062999999999921 ) ) ;
#153 = VERTEX_POINT ( 'NONE', #322 ) ;
#154 = SPHERICAL_SURFACE ( 'NONE', #161, 0.01966531499999999918 ) ;
#155 = AXIS2_PLACEMENT_3D ( 'NONE', #256, #156, #8 ) ;
#156 = DIRECTION ( 'NONE',  ( -1.224646799147353207E-16, -0.0000000000000000000, -1.000000000000000000 ) ) ;
#157 = CYLINDRICAL_SURFACE ( 'NONE', #61, 0.01966531499999999225 ) ;
#158 = CARTESIAN_POINT ( 'NONE',  ( -0.01966531499999998531, 2.408306506897442331E-18, 0.05905500000000000332 ) ) ;
#159 =( NAMED_UNIT ( * ) SI_UNIT ( $, .STERADIAN. ) SOLID_ANGLE_UNIT ( ) );
#160 = DIRECTION ( 'NONE',  ( 1.224646799147353207E-16, 0.0000000000000000000, 1.000000000000000000 ) ) ;
#161 = AXIS2_PLACEMENT_3D ( 'NONE', #83, #231, #182 ) ;
#162 = AXIS2_PLACEMENT_3D ( 'NONE', #235, #208, #311 ) ;
#163 = PLANE ( 'NONE',  #214 ) ;
#164 = CARTESIAN_POINT ( 'NONE',  ( -0.05905500000000000332, 0.0000000000000000000, 1.481062999999999574 ) ) ;
#165 = VERTEX_POINT ( 'NONE', #294 ) ;
#166 = AXIS2_PLACEMENT_3D ( 'NONE', #46, #43, #317 ) ;
#167 = DIRECTION ( 'NONE',  ( 1.224646799147353207E-16, 0.0000000000000000000, 1.000000000000000000 ) ) ;
#168 = VERTEX_POINT ( 'NONE', #23 ) ;
#169 = LENGTH_MEASURE_WITH_UNIT ( LENGTH_MEASURE( 0.02539999999999999897 ), #272 );
#170 = DIMENSIONAL_EXPONENTS ( 1.000000000000000000, 0.0000000000000000000, 0.0000000000000000000, 0.0000000000000000000, 0.0000000000000000000, 0.0000000000000000000, 0.0000000000000000000 ) ;
#171 = EDGE_LOOP ( 'NONE', ( #173, #55, #123, #50 ) ) ;
#172 = FACE_OUTER_BOUND ( 'NONE', #306, .T. ) ;
#173 = ORIENTED_EDGE ( 'NONE', *, *, #42, .F. ) ;
#174 = LENGTH_MEASURE_WITH_UNIT ( LENGTH_MEASURE( 0.02539999999999999897 ), #232 );
#175 = VECTOR ( 'NONE', #286, 39.37007874015748143 ) ;
#176 = ADVANCED_FACE ( 'NONE', ( #296 ), #163, .T. ) ;
#177 = STYLED_ITEM ( 'NONE', ( #59 ), #146 ) ;
#178 = VERTEX_POINT ( 'NONE', #164 ) ;
#179 = LINE ( 'NONE', #85, #175 ) ;
#180 = MANIFOLD_SOLID_BREP ( 'Fillet1', #310 ) ;
#181 = DIRECTION ( 'NONE',  ( 1.224646799147353207E-16, 0.0000000000000000000, 1.000000000000000000 ) ) ;
#182 = DIRECTION ( 'NONE',  ( 1.000000000000000000, 0.0000000000000000000, 0.0000000000000000000 ) ) ;
#183 = EDGE_CURVE ( 'NONE', #31, #165, #54, .T. ) ;
#184 = DIRECTION ( 'NONE',  ( -1.000000000000000000, 1.224646799147352961E-16, 0.0000000000000000000 ) ) ;
#185 = DIRECTION ( 'NONE',  ( -1.224646799147353207E-16, -0.0000000000000000000, -1.000000000000000000 ) ) ;
#186 = VECTOR ( 'NONE', #135, 39.37007874015747433 ) ;
#187 = CONICAL_SURFACE ( 'NONE', #289, 0.01966531499999999225, 0.1745329251994338915 ) ;
#188 = DIRECTION ( 'NONE',  ( 0.0000000000000000000, 0.0000000000000000000, 1.000000000000000000 ) ) ;
#189 = DIRECTION ( 'NONE',  ( 0.7071067811865482389, 8.659560562354941486E-17, -0.7071067811865469066 ) ) ;
#190 = SURFACE_STYLE_USAGE ( .BOTH. , #19 ) ;
#191 = CARTESIAN_POINT ( 'NONE',  ( 3.612459760346164074E-18, 0.0000000000000000000, 0.0000000000000000000 ) ) ;
#192 = EDGE_CURVE ( 'NONE', #132, #178, #128, .T. ) ;
#193 = VERTEX_POINT ( 'NONE', #20 ) ;
#194 = DIRECTION ( 'NONE',  ( -1.224646799147353207E-16, -0.0000000000000000000, -1.000000000000000000 ) ) ;
#195 = STYLED_ITEM ( 'NONE', ( #116 ), #180 ) ;
#196 = CARTESIAN_POINT ( 'NONE',  ( 0.0000000000000000000, 0.0000000000000000000, 1.496062999999999921 ) ) ;
#197 = ORIENTED_EDGE ( 'NONE', *, *, #270, .T. ) ;
#198 = EDGE_CURVE ( 'NONE', #193, #132, #300, .T. ) ;
#199 = ORIENTED_EDGE ( 'NONE', *, *, #198, .T. ) ;
#200 = AXIS2_PLACEMENT_3D ( 'NONE', #196, #284, #221 ) ;
#201 = ORIENTED_EDGE ( 'NONE', *, *, #95, .T. ) ;
#202 = FILL_AREA_STYLE_COLOUR ( '', #143 ) ;
#203 = EDGE_CURVE ( 'NONE', #144, #193, #323, .T. ) ;
#204 = DIRECTION ( 'NONE',  ( 1.000000000000000000, 0.0000000000000000000, 0.0000000000000000000 ) ) ;
#205 = CARTESIAN_POINT ( 'NONE',  ( -0.04405499999999973326, 0.0000000000000000000, 1.496062999999999921 ) ) ;
#206 = DIRECTION ( 'NONE',  ( 0.1736481776669313859, 0.0000000000000000000, 0.9848077530122077983 ) ) ;
#207 = EDGE_CURVE ( 'NONE', #148, #41, #266, .T. ) ;
#208 = DIRECTION ( 'NONE',  ( 1.224646799147353207E-16, 0.0000000000000000000, 1.000000000000000000 ) ) ;
#209 = DIRECTION ( 'NONE',  ( 1.224646799147353207E-16, 1.000000000000000000, -0.0000000000000000000 ) ) ;
#210 = DIRECTION ( 'NONE',  ( 1.000000000000000000, 0.0000000000000000000, 0.0000000000000000000 ) ) ;
#211 = AXIS2_PLACEMENT_3D ( 'NONE', #68, #73, #44 ) ;
#212 =( NAMED_UNIT ( * ) PLANE_ANGLE_UNIT ( ) SI_UNIT ( $, .RADIAN. ) );
#213 = APPLICATION_CONTEXT ( 'automotive_design' ) ;
#214 = AXIS2_PLACEMENT_3D ( 'NONE', #216, #320, #242 ) ;
#215 = MECHANICAL_DESIGN_GEOMETRIC_PRESENTATION_REPRESENTATION (  '', ( #177 ), #267 ) ;
#216 = CARTESIAN_POINT ( 'NONE',  ( 0.0000000000000000000, 0.0000000000000000000, 1.496062999999999921 ) ) ;
#217 = ORIENTED_EDGE ( 'NONE', *, *, #183, .T. ) ;
#218 = DIRECTION ( 'NONE',  ( 1.000000000000000000, 0.0000000000000000000, 0.0000000000000000000 ) ) ;
#219 = ORIENTED_EDGE ( 'NONE', *, *, #32, .T. ) ;
#220 = CONICAL_SURFACE ( 'NONE', #84, 0.04405499999999973326, 0.7853981633974491672 ) ;
#221 = DIRECTION ( 'NONE',  ( -1.000000000000000000, 0.0000000000000000000, 0.0000000000000000000 ) ) ;
#222 = EDGE_CURVE ( 'NONE', #223, #41, #18, .T. ) ;
#223 = VERTEX_POINT ( 'NONE', #191 ) ;
#224 = DIRECTION ( 'NONE',  ( 0.0000000000000000000, 0.0000000000000000000, -1.000000000000000000 ) ) ;
#225 = ORIENTED_EDGE ( 'NONE', *, *, #45, .F. ) ;
#226 = DIRECTION ( 'NONE',  ( -1.000000000000000000, 0.0000000000000000000, 0.0000000000000000000 ) ) ;
#227 = ORIENTED_EDGE ( 'NONE', *, *, #238, .F. ) ;
#228 = CARTESIAN_POINT ( 'NONE',  ( 0.0000000000000000000, 0.0000000000000000000, 1.496062999999999921 ) ) ;
#229 = PRESENTATION_LAYER_ASSIGNMENT (  '', '', ( #195 ) ) ;
#230 =( GEOMETRIC_REPRESENTATION_CONTEXT ( 3 ) GLOBAL_UNCERTAINTY_ASSIGNED_CONTEXT ( ( #309 ) ) GLOBAL_UNIT_ASSIGNED_CONTEXT ( ( #56, #102, #131 ) ) REPRESENTATION_CONTEXT ( 'NONE', 'WORKASPACE' ) );
#231 = DIRECTION ( 'NONE',  ( 0.0000000000000000000, 1.000000000000000000, 0.0000000000000000000 ) ) ;
#232 =( LENGTH_UNIT ( ) NAMED_UNIT ( * ) SI_UNIT ( $, .METRE. ) );
#233 = LINE ( 'NONE', #292, #258 ) ;
#234 = PRODUCT_CONTEXT ( 'NONE', #213, 'mechanical' ) ;
#235 = CARTESIAN_POINT ( 'NONE',  ( 7.232151672364695422E-18, 0.0000000000000000000, 0.05905500000000000332 ) ) ;
#236 = AXIS2_PLACEMENT_3D ( 'NONE', #107, #160, #60 ) ;
#237 = CARTESIAN_POINT ( 'NONE',  ( -0.04405499999999973326, 0.0000000000000000000, 1.496062999999999921 ) ) ;
#238 = EDGE_CURVE ( 'NONE', #178, #165, #49, .T. ) ;
#239 = MECHANICAL_DESIGN_GEOMETRIC_PRESENTATION_REPRESENTATION (  '', ( #195 ), #127 ) ;
#240 = AXIS2_PLACEMENT_3D ( 'NONE', #33, #224, #2 ) ;
#241 = CARTESIAN_POINT ( 'NONE',  ( -0.01966531499999999225, 0.0000000000000000000, 2.408306506897442331E-18 ) ) ;
#242 = DIRECTION ( 'NONE',  ( 1.000000000000000000, 0.0000000000000000000, -0.0000000000000000000 ) ) ;
#243 = VECTOR ( 'NONE', #37, 39.37007874015748143 ) ;
#244 = PRODUCT_DEFINITION ( 'UNKNOWN', '', #78, #16 ) ;
#245 = DIRECTION ( 'NONE',  ( -1.224646799147353207E-16, -0.0000000000000000000, -1.000000000000000000 ) ) ;
#246 = EDGE_LOOP ( 'NONE', ( #321, #219, #94, #276 ) ) ;
#247 = DIRECTION ( 'NONE',  ( -1.000000000000000000, 0.0000000000000000000, 1.224646799147353207E-16 ) ) ;
#248 = ORIENTED_EDGE ( 'NONE', *, *, #253, .F. ) ;
#249 =( LENGTH_UNIT ( ) NAMED_UNIT ( * ) SI_UNIT ( $, .METRE. ) );
#250 = EDGE_LOOP ( 'NONE', ( #70, #302, #324, #293 ) ) ;
#251 = AXIS2_PLACEMENT_3D ( 'NONE', #298, #167, #141 ) ;
#252 = CARTESIAN_POINT ( 'NONE',  ( 7.232151672364695422E-18, 0.0000000000000000000, 0.05905500000000000332 ) ) ;
#253 = EDGE_CURVE ( 'NONE', #193, #144, #113, .T. ) ;
#254 = EDGE_LOOP ( 'NONE', ( #125, #74 ) ) ;
#255 = EDGE_LOOP ( 'NONE', ( #197, #40, #77, #151 ) ) ;
#256 = CARTESIAN_POINT ( 'NONE',  ( 7.232151672364695422E-18, 0.0000000000000000000, 0.05905500000000000332 ) ) ;
#257 = ADVANCED_FACE ( 'NONE', ( #277 ), #301, .T. ) ;
#258 = VECTOR ( 'NONE', #206, 39.37007874015748143 ) ;
#259 = DIRECTION ( 'NONE',  ( -1.224646799147353207E-16, -0.0000000000000000000, -1.000000000000000000 ) ) ;
#260 = CARTESIAN_POINT ( 'NONE',  ( 2.408306506897442716E-18, 0.0000000000000000000, 0.01966531499999999918 ) ) ;
#261 = FACE_OUTER_BOUND ( 'NONE', #26, .T. ) ;
#262 =( NAMED_UNIT ( * ) PLANE_ANGLE_UNIT ( ) SI_UNIT ( $, .RADIAN. ) );
#263 = ADVANCED_FACE ( 'NONE', ( #172 ), #220, .T. ) ;
#264 = ADVANCED_FACE ( 'NONE', ( #124 ), #108, .T. ) ;
#265 = DIRECTION ( 'NONE',  ( -1.224646799147353207E-16, -0.0000000000000000000, -1.000000000000000000 ) ) ;
#266 = CIRCLE ( 'NONE', #251, 0.01966531499999999225 ) ;
#267 =( GEOMETRIC_REPRESENTATION_CONTEXT ( 3 ) GLOBAL_UNCERTAINTY_ASSIGNED_CONTEXT ( ( #9 ) ) GLOBAL_UNIT_ASSIGNED_CONTEXT ( ( #121, #262, #159 ) ) REPRESENTATION_CONTEXT ( 'NONE', 'WORKASPACE' ) );
#268 = CARTESIAN_POINT ( 'NONE',  ( 0.0000000000000000000, 0.0000000000000000000, 0.0000000000000000000 ) ) ;
#269 = ADVANCED_FACE ( 'NONE', ( #100 ), #96, .T. ) ;
#270 = EDGE_CURVE ( 'NONE', #153, #168, #122, .T. ) ;
#271 = AXIS2_PLACEMENT_3D ( 'NONE', #106, #188, #133 ) ;
#272 =( LENGTH_UNIT ( ) NAMED_UNIT ( * ) SI_UNIT ( $, .METRE. ) );
#273 = CARTESIAN_POINT ( 'NONE',  ( 3.458953705992975487E-17, 0.0000000000000000000, 0.2824450044209672606 ) ) ;
#274 = AXIS2_PLACEMENT_3D ( 'NONE', #82, #265, #64 ) ;
#275 = ORIENTED_EDGE ( 'NONE', *, *, #42, .T. ) ;
#276 = ORIENTED_EDGE ( 'NONE', *, *, #207, .T. ) ;
#277 = FACE_OUTER_BOUND ( 'NONE', #103, .T. ) ;
#278 = ORIENTED_EDGE ( 'NONE', *, *, #112, .T. ) ;
#279 = CARTESIAN_POINT ( 'NONE',  ( 0.0000000000000000000, 0.0000000000000000000, 1.496062999999999921 ) ) ;
#280 = VECTOR ( 'NONE', #245, 39.37007874015748143 ) ;
#281 = CARTESIAN_POINT ( 'NONE',  ( 7.232151672364695422E-18, 0.0000000000000000000, 0.05905500000000000332 ) ) ;
#282 = DIRECTION ( 'NONE',  ( -0.0000000000000000000, -0.0000000000000000000, -1.000000000000000000 ) ) ;
#283 = SPHERICAL_SURFACE ( 'NONE', #287, 0.01966531499999999918 ) ;
#284 = DIRECTION ( 'NONE',  ( -0.0000000000000000000, -0.0000000000000000000, -1.000000000000000000 ) ) ;
#285 = PRODUCT_DEFINITION_SHAPE ( 'NONE', 'NONE',  #244 ) ;
#286 = DIRECTION ( 'NONE',  ( -0.0000000000000000000, -0.0000000000000000000, -1.000000000000000000 ) ) ;
#287 = AXIS2_PLACEMENT_3D ( 'NONE', #260, #137, #204 ) ;
#288 = LENGTH_MEASURE_WITH_UNIT ( LENGTH_MEASURE( 0.02539999999999999897 ), #249 );
#289 = AXIS2_PLACEMENT_3D ( 'NONE', #281, #181, #325 ) ;
#290 = CARTESIAN_POINT ( 'NONE',  ( 0.05905500000000000332, 7.232151672364695422E-18, 1.481062999999999574 ) ) ;
#291 = APPLICATION_PROTOCOL_DEFINITION ( 'draft international standard', 'automotive_design', 1998, #10 ) ;
#292 = CARTESIAN_POINT ( 'NONE',  ( 0.01966531500000000265, 0.0000000000000000000, 0.05905500000000000332 ) ) ;
#293 = ORIENTED_EDGE ( 'NONE', *, *, #95, .F. ) ;
#294 = CARTESIAN_POINT ( 'NONE',  ( -0.05905499999999996863, 0.0000000000000000000, 0.2824450044209672606 ) ) ;
#295 = CONICAL_SURFACE ( 'NONE', #162, 0.01966531499999999225, 0.1745329251994338915 ) ;
#296 = FACE_OUTER_BOUND ( 'NONE', #254, .T. ) ;
#297 = DIRECTION ( 'NONE',  ( -0.0000000000000000000, -0.0000000000000000000, -1.000000000000000000 ) ) ;
#298 = CARTESIAN_POINT ( 'NONE',  ( 2.408306506897442716E-18, 0.0000000000000000000, 0.01966531499999999918 ) ) ;
#299 = AXIS2_PLACEMENT_3D ( 'NONE', #147, #25, #218 ) ;
#300 = LINE ( 'NONE', #92, #35 ) ;
#301 = CYLINDRICAL_SURFACE ( 'NONE', #21, 0.05905500000000000332 ) ;
#302 = ORIENTED_EDGE ( 'NONE', *, *, #138, .T. ) ;
#303 = CIRCLE ( 'NONE', #66, 0.01966531499999999918 ) ;
#304 = CARTESIAN_POINT ( 'NONE',  ( 0.01966531499999999225, 2.408306506897442331E-18, -2.408306506897442331E-18 ) ) ;
#305 = SURFACE_STYLE_FILL_AREA ( #126 ) ;
#306 = EDGE_LOOP ( 'NONE', ( #248, #199, #52, #76 ) ) ;
#307 = CARTESIAN_POINT ( 'NONE',  ( 2.408306506897442716E-18, 0.0000000000000000000, 0.01966531499999999918 ) ) ;
#308 = PRODUCT_RELATED_PRODUCT_CATEGORY ( 'part', '', ( #17 ) ) ;
#309 = UNCERTAINTY_MEASURE_WITH_UNIT (LENGTH_MEASURE( 1.000000000000000082E-05 ), #56, 'distance_accuracy_value', 'NONE');
#310 = CLOSED_SHELL ( 'NONE', ( #58, #145, #314, #263, #257, #269, #176, #264, #89, #90, #22 ) ) ;
#311 = DIRECTION ( 'NONE',  ( 1.000000000000000000, 0.0000000000000000000, 0.0000000000000000000 ) ) ;
#312 = EDGE_CURVE ( 'NONE', #144, #178, #29, .T. ) ;
#313 = CARTESIAN_POINT ( 'NONE',  ( 0.0000000000000000000, 0.0000000000000000000, 0.0000000000000000000 ) ) ;
#314 = ADVANCED_FACE ( 'NONE', ( #79 ), #187, .T. ) ;
#315 = CARTESIAN_POINT ( 'NONE',  ( 2.408306506897442716E-18, 0.0000000000000000000, 0.01966531499999999918 ) ) ;
#316 = EDGE_CURVE ( 'NONE', #178, #132, #142, .T. ) ;
#317 = DIRECTION ( 'NONE',  ( 1.000000000000000000, 0.0000000000000000000, 0.0000000000000000000 ) ) ;
#318 = VECTOR ( 'NONE', #297, 39.37007874015748143 ) ;
#319 = FILL_AREA_STYLE_COLOUR ( '', #139 ) ;
#320 = DIRECTION ( 'NONE',  ( 0.0000000000000000000, 0.0000000000000000000, 1.000000000000000000 ) ) ;
#321 = ORIENTED_EDGE ( 'NONE', *, *, #39, .F. ) ;
#322 = CARTESIAN_POINT ( 'NONE',  ( -0.01966531499999998531, 4.820229089631068299E-18, 0.05905500000000000332 ) ) ;
#323 = CIRCLE ( 'NONE', #211, 0.04405499999999973326 ) ;
#324 = ORIENTED_EDGE ( 'NONE', *, *, #36, .T. ) ;
#325 = DIRECTION ( 'NONE',  ( 1.000000000000000000, 0.0000000000000000000, 0.0000000000000000000 ) ) ;
ENDSEC;
END-ISO-10303-21;
