ISO-10303-21;
HEADER;
FILE_DESCRIPTION (( 'STEP AP214' ),
    '1' );
FILE_NAME ('Micro_AMRM-007-2X.STEP',
    '2021-09-01T17:11:05',
    ( '' ),
    ( '' ),
    'SwSTEP 2.0',
    'SolidWorks 2020',
    '' );
FILE_SCHEMA (( 'AUTOMOTIVE_DESIGN' ));
ENDSEC;

DATA;
#1 = ORIENTED_EDGE ( 'NONE', *, *, #192, .T. ) ;
#2 = ORIENTED_EDGE ( 'NONE', *, *, #42, .T. ) ;
#3 = LINE ( 'NONE', #101, #91 ) ;
#4 = DIMENSIONAL_EXPONENTS ( 1.000000000000000000, 0.0000000000000000000, 0.0000000000000000000, 0.0000000000000000000, 0.0000000000000000000, 0.0000000000000000000, 0.0000000000000000000 ) ;
#5 = DIRECTION ( 'NONE',  ( 1.224646799147353207E-16, 0.0000000000000000000, 1.000000000000000000 ) ) ;
#6 = EDGE_CURVE ( 'NONE', #180, #295, #3, .T. ) ;
#7 = DIRECTION ( 'NONE',  ( -1.000000000000000000, 0.0000000000000000000, 0.0000000000000000000 ) ) ;
#8 = DIRECTION ( 'NONE',  ( 1.000000000000000000, 0.0000000000000000000, 0.0000000000000000000 ) ) ;
#9 = LINE ( 'NONE', #57, #133 ) ;
#10 = CARTESIAN_POINT ( 'NONE',  ( 1.012501234131057143E-17, 0.0000000000000000000, 0.08267699999999998661 ) ) ;
#11 = EDGE_LOOP ( 'NONE', ( #41, #95, #45, #233 ) ) ;
#12 = DIRECTION ( 'NONE',  ( -1.000000000000000000, 0.0000000000000000000, 1.224646799147353207E-16 ) ) ;
#13 = CIRCLE ( 'NONE', #81, 0.07874000000000001831 ) ;
#14 = ORIENTED_EDGE ( 'NONE', *, *, #58, .T. ) ;
#15 = ADVANCED_FACE ( 'NONE', ( #55 ), #216, .T. ) ;
#16 = DIRECTION ( 'NONE',  ( -1.224646799147353207E-16, -0.0000000000000000000, -1.000000000000000000 ) ) ;
#17 = ORIENTED_EDGE ( 'NONE', *, *, #111, .T. ) ;
#18 = CARTESIAN_POINT ( 'NONE',  ( 0.06374000000000018540, 8.724383797125754882E-18, 1.968503999999999809 ) ) ;
#19 = VECTOR ( 'NONE', #168, 39.37007874015748143 ) ;
#20 = CARTESIAN_POINT ( 'NONE',  ( 0.0000000000000000000, 0.0000000000000000000, 0.0000000000000000000 ) ) ;
#21 = CIRCLE ( 'NONE', #165, 0.01376572049999999839 ) ;
#22 = DIRECTION ( 'NONE',  ( 1.000000000000000000, 0.0000000000000000000, 0.0000000000000000000 ) ) ;
#23 = DIRECTION ( 'NONE',  ( -1.224646799147353207E-16, -0.0000000000000000000, -1.000000000000000000 ) ) ;
#24 = STYLED_ITEM ( 'NONE', ( #148 ), #118 ) ;
#25 = EDGE_LOOP ( 'NONE', ( #86, #110, #67, #250 ) ) ;
#26 = VECTOR ( 'NONE', #138, 39.37007874015748143 ) ;
#27 = EDGE_LOOP ( 'NONE', ( #271, #2, #84, #137 ) ) ;
#28 = CONICAL_SURFACE ( 'NONE', #287, 0.06374000000000018540, 0.7853981633974528309 ) ;
#29 = DIRECTION ( 'NONE',  ( 1.000000000000000000, 0.0000000000000000000, 0.0000000000000000000 ) ) ;
#30 = SURFACE_SIDE_STYLE ('',( #282 ) ) ;
#31 = LENGTH_MEASURE_WITH_UNIT ( LENGTH_MEASURE( 0.02539999999999999897 ), #261 );
#32 = VECTOR ( 'NONE', #291, 39.37007874015748143 ) ;
#33 = DIRECTION ( 'NONE',  ( -0.0000000000000000000, -0.0000000000000000000, -1.000000000000000000 ) ) ;
#34 = CARTESIAN_POINT ( 'NONE',  ( -0.01376572049999998798, 5.664341725657233897E-18, 0.08267699999999998661 ) ) ;
#35 = CARTESIAN_POINT ( 'NONE',  ( 0.0000000000000000000, 0.0000000000000000000, 0.0000000000000000000 ) ) ;
#36 = EDGE_CURVE ( 'NONE', #125, #180, #279, .T. ) ;
#37 = CARTESIAN_POINT ( 'NONE',  ( 0.0000000000000000000, 0.0000000000000000000, 1.968503999999999809 ) ) ;
#38 = ORIENTED_EDGE ( 'NONE', *, *, #157, .F. ) ;
#39 = STYLED_ITEM ( 'NONE', ( #64 ), #54 ) ;
#40 = CARTESIAN_POINT ( 'NONE',  ( -0.06374000000000018540, 0.0000000000000000000, 1.968503999999999809 ) ) ;
#41 = ORIENTED_EDGE ( 'NONE', *, *, #188, .T. ) ;
#42 = EDGE_CURVE ( 'NONE', #248, #125, #100, .T. ) ;
#43 = AXIS2_PLACEMENT_3D ( 'NONE', #65, #179, #153 ) ;
#44 = FACE_OUTER_BOUND ( 'NONE', #124, .T. ) ;
#45 = ORIENTED_EDGE ( 'NONE', *, *, #252, .F. ) ;
#46 = CARTESIAN_POINT ( 'NONE',  ( 2.064527398526388451E-34, 0.0000000000000000000, 1.685814554828210826E-18 ) ) ;
#47 = DIRECTION ( 'NONE',  ( 0.0000000000000000000, 0.0000000000000000000, -1.000000000000000000 ) ) ;
#48 = PRODUCT_DEFINITION_CONTEXT ( 'detailed design', #213, 'design' ) ;
#49 = CIRCLE ( 'NONE', #223, 0.01376572049999999839 ) ;
#50 = EDGE_LOOP ( 'NONE', ( #214, #211 ) ) ;
#51 = FACE_OUTER_BOUND ( 'NONE', #115, .T. ) ;
#52 = CARTESIAN_POINT ( 'NONE',  ( 0.0000000000000000000, 0.0000000000000000000, 1.968503999999999809 ) ) ;
#53 = EDGE_CURVE ( 'NONE', #237, #180, #70, .T. ) ;
#54 = ADVANCED_BREP_SHAPE_REPRESENTATION ( 'Micro_AMRM-007-2X', ( #118, #68 ), #289 ) ;
#55 = FACE_OUTER_BOUND ( 'NONE', #254, .T. ) ;
#56 = PLANE ( 'NONE',  #90 ) ;
#57 = CARTESIAN_POINT ( 'NONE',  ( 0.01376572050000000012, 1.685814554828210248E-18, -1.685814554828210248E-18 ) ) ;
#58 = EDGE_CURVE ( 'NONE', #256, #183, #49, .T. ) ;
#59 =( NAMED_UNIT ( * ) PLANE_ANGLE_UNIT ( ) SI_UNIT ( $, .RADIAN. ) );
#60 = CARTESIAN_POINT ( 'NONE',  ( 2.064527398526388451E-34, 0.0000000000000000000, 1.685814554828210826E-18 ) ) ;
#61 = ADVANCED_FACE ( 'NONE', ( #51 ), #260, .T. ) ;
#62 = DIRECTION ( 'NONE',  ( -1.224646799147353207E-16, -0.0000000000000000000, -1.000000000000000000 ) ) ;
#63 = EDGE_CURVE ( 'NONE', #295, #155, #13, .T. ) ;
#64 = PRESENTATION_STYLE_ASSIGNMENT (( #266 ) ) ;
#65 = CARTESIAN_POINT ( 'NONE',  ( 0.0000000000000000000, 0.0000000000000000000, 1.968503999999999809 ) ) ;
#66 = UNCERTAINTY_MEASURE_WITH_UNIT (LENGTH_MEASURE( 1.000000000000000082E-05 ), #113, 'distance_accuracy_value', 'NONE');
#67 = ORIENTED_EDGE ( 'NONE', *, *, #53, .T. ) ;
#68 = AXIS2_PLACEMENT_3D ( 'NONE', #231, #236, #255 ) ;
#69 = CARTESIAN_POINT ( 'NONE',  ( 0.0000000000000000000, 0.0000000000000000000, 1.953504000000000129 ) ) ;
#70 = LINE ( 'NONE', #94, #26 ) ;
#71 = DIRECTION ( 'NONE',  ( 1.000000000000000000, 0.0000000000000000000, 0.0000000000000000000 ) ) ;
#72 = EDGE_CURVE ( 'NONE', #237, #248, #263, .T. ) ;
#73 = CARTESIAN_POINT ( 'NONE',  ( 0.0000000000000000000, 0.0000000000000000000, 1.968503999999999809 ) ) ;
#74 = DIRECTION ( 'NONE',  ( -1.224646799147353207E-16, -0.0000000000000000000, -1.000000000000000000 ) ) ;
#75 = ADVANCED_FACE ( 'NONE', ( #162 ), #164, .T. ) ;
#76 = DIRECTION ( 'NONE',  ( -1.224646799147353207E-16, -0.0000000000000000000, -1.000000000000000000 ) ) ;
#77 = FACE_OUTER_BOUND ( 'NONE', #50, .T. ) ;
#78 = DIRECTION ( 'NONE',  ( 1.000000000000000000, 0.0000000000000000000, -0.0000000000000000000 ) ) ;
#79 = DIRECTION ( 'NONE',  ( -1.224646799147353207E-16, -0.0000000000000000000, -1.000000000000000000 ) ) ;
#80 = CONICAL_SURFACE ( 'NONE', #43, 0.06374000000000018540, 0.7853981633974528309 ) ;
#81 = AXIS2_PLACEMENT_3D ( 'NONE', #189, #259, #277 ) ;
#82 = EDGE_CURVE ( 'NONE', #256, #155, #121, .T. ) ;
#83 = FACE_OUTER_BOUND ( 'NONE', #27, .T. ) ;
#84 = ORIENTED_EDGE ( 'NONE', *, *, #140, .F. ) ;
#85 = CARTESIAN_POINT ( 'NONE',  ( 0.07874000000000001831, 9.642868896486260050E-18, 1.968503999999999809 ) ) ;
#86 = ORIENTED_EDGE ( 'NONE', *, *, #42, .F. ) ;
#87 = EDGE_LOOP ( 'NONE', ( #212, #226, #119, #290 ) ) ;
#88 = PRESENTATION_LAYER_ASSIGNMENT (  '', '', ( #24 ) ) ;
#89 = MECHANICAL_DESIGN_GEOMETRIC_PRESENTATION_REPRESENTATION (  '', ( #24 ), #205 ) ;
#90 = AXIS2_PLACEMENT_3D ( 'NONE', #147, #284, #78 ) ;
#91 = VECTOR ( 'NONE', #253, 39.37007874015748143 ) ;
#92 = SHAPE_DEFINITION_REPRESENTATION ( #257, #54 ) ;
#93 = EDGE_CURVE ( 'NONE', #248, #237, #135, .T. ) ;
#94 = CARTESIAN_POINT ( 'NONE',  ( -0.06374000000000018540, 0.0000000000000000000, 1.968503999999999809 ) ) ;
#95 = ORIENTED_EDGE ( 'NONE', *, *, #157, .T. ) ;
#96 = DIMENSIONAL_EXPONENTS ( 1.000000000000000000, 0.0000000000000000000, 0.0000000000000000000, 0.0000000000000000000, 0.0000000000000000000, 0.0000000000000000000, 0.0000000000000000000 ) ;
#97 = AXIS2_PLACEMENT_3D ( 'NONE', #98, #5, #71 ) ;
#98 = CARTESIAN_POINT ( 'NONE',  ( 1.012501234131057143E-17, 0.0000000000000000000, 0.08267699999999998661 ) ) ;
#99 = AXIS2_PLACEMENT_3D ( 'NONE', #60, #76, #150 ) ;
#100 = LINE ( 'NONE', #275, #19 ) ;
#101 = CARTESIAN_POINT ( 'NONE',  ( -0.07874000000000001831, 0.0000000000000000000, 1.968503999999999809 ) ) ;
#102 = FILL_AREA_STYLE ('',( #239 ) ) ;
#103 = ADVANCED_FACE ( 'NONE', ( #108 ), #28, .T. ) ;
#104 = CARTESIAN_POINT ( 'NONE',  ( 0.0000000000000000000, 0.0000000000000000000, 0.0000000000000000000 ) ) ;
#105 = PLANE ( 'NONE',  #177 ) ;
#106 = CARTESIAN_POINT ( 'NONE',  ( 5.525170996686579413E-17, 0.0000000000000000000, 0.4511644500711077255 ) ) ;
#107 = ADVANCED_FACE ( 'NONE', ( #77 ), #105, .F. ) ;
#108 = FACE_OUTER_BOUND ( 'NONE', #25, .T. ) ;
#109 = DIRECTION ( 'NONE',  ( -1.000000000000000000, 0.0000000000000000000, 0.0000000000000000000 ) ) ;
#110 = ORIENTED_EDGE ( 'NONE', *, *, #72, .F. ) ;
#111 = EDGE_CURVE ( 'NONE', #155, #295, #200, .T. ) ;
#112 = COLOUR_RGB ( '',0.7921568627450980005, 0.8196078431372548767, 0.9333333333333333481 ) ;
#113 =( CONVERSION_BASED_UNIT ( 'INCH', #222 ) LENGTH_UNIT ( ) NAMED_UNIT ( #4 ) );
#114 = DIRECTION ( 'NONE',  ( -1.000000000000000000, 0.0000000000000000000, 1.224646799147353207E-16 ) ) ;
#115 = EDGE_LOOP ( 'NONE', ( #152, #203, #269, #142 ) ) ;
#116 = CARTESIAN_POINT ( 'NONE',  ( -0.07873999999999996280, 0.0000000000000000000, 0.4511644500711077255 ) ) ;
#117 = ORIENTED_EDGE ( 'NONE', *, *, #72, .T. ) ;
#118 = MANIFOLD_SOLID_BREP ( 'Cut-Revolve1', #182 ) ;
#119 = ORIENTED_EDGE ( 'NONE', *, *, #63, .F. ) ;
#120 = ADVANCED_FACE ( 'NONE', ( #196 ), #56, .T. ) ;
#121 = LINE ( 'NONE', #123, #126 ) ;
#122 = DIRECTION ( 'NONE',  ( 0.0000000000000000000, 0.0000000000000000000, 1.000000000000000000 ) ) ;
#123 = CARTESIAN_POINT ( 'NONE',  ( 0.01376572050000000880, 0.0000000000000000000, 0.08267699999999998661 ) ) ;
#124 = EDGE_LOOP ( 'NONE', ( #38, #14, #1, #184 ) ) ;
#125 = VERTEX_POINT ( 'NONE', #215 ) ;
#126 = VECTOR ( 'NONE', #139, 39.37007874015748143 ) ;
#127 = CARTESIAN_POINT ( 'NONE',  ( 0.0000000000000000000, 0.0000000000000000000, 1.968503999999999809 ) ) ;
#128 = AXIS2_PLACEMENT_3D ( 'NONE', #106, #240, #8 ) ;
#129 = DIRECTION ( 'NONE',  ( -1.000000000000000000, 0.0000000000000000000, 0.0000000000000000000 ) ) ;
#130 = LINE ( 'NONE', #286, #224 ) ;
#131 = AXIS2_PLACEMENT_3D ( 'NONE', #73, #230, #144 ) ;
#132 =( NAMED_UNIT ( * ) SI_UNIT ( $, .STERADIAN. ) SOLID_ANGLE_UNIT ( ) );
#133 = VECTOR ( 'NONE', #79, 39.37007874015748143 ) ;
#134 = CYLINDRICAL_SURFACE ( 'NONE', #191, 0.01376572050000000012 ) ;
#135 = CIRCLE ( 'NONE', #172, 0.06374000000000018540 ) ;
#136 = CARTESIAN_POINT ( 'NONE',  ( 0.01376572050000000880, 0.0000000000000000000, 0.08267699999999998661 ) ) ;
#137 = ORIENTED_EDGE ( 'NONE', *, *, #53, .F. ) ;
#138 = DIRECTION ( 'NONE',  ( -0.7071067811865507924, 0.0000000000000000000, -0.7071067811865443531 ) ) ;
#139 = DIRECTION ( 'NONE',  ( 0.1736481776669313581, 0.0000000000000000000, 0.9848077530122077983 ) ) ;
#140 = EDGE_CURVE ( 'NONE', #180, #125, #292, .T. ) ;
#141 =( NAMED_UNIT ( * ) PLANE_ANGLE_UNIT ( ) SI_UNIT ( $, .RADIAN. ) );
#142 = ORIENTED_EDGE ( 'NONE', *, *, #82, .F. ) ;
#143 = DIRECTION ( 'NONE',  ( -1.000000000000000000, 0.0000000000000000000, 1.224646799147353207E-16 ) ) ;
#144 = DIRECTION ( 'NONE',  ( 1.000000000000000000, 0.0000000000000000000, 0.0000000000000000000 ) ) ;
#145 = AXIS2_PLACEMENT_3D ( 'NONE', #171, #264, #29 ) ;
#146 = ADVANCED_FACE ( 'NONE', ( #281 ), #242, .T. ) ;
#147 = CARTESIAN_POINT ( 'NONE',  ( 0.0000000000000000000, 0.0000000000000000000, 1.968503999999999809 ) ) ;
#148 = PRESENTATION_STYLE_ASSIGNMENT (( #278 ) ) ;
#149 =( NAMED_UNIT ( * ) SI_UNIT ( $, .STERADIAN. ) SOLID_ANGLE_UNIT ( ) );
#150 = DIRECTION ( 'NONE',  ( -1.000000000000000000, 0.0000000000000000000, 1.224646799147353207E-16 ) ) ;
#151 = FILL_AREA_STYLE_COLOUR ( '', #195 ) ;
#152 = ORIENTED_EDGE ( 'NONE', *, *, #188, .F. ) ;
#153 = DIRECTION ( 'NONE',  ( -1.000000000000000000, 0.0000000000000000000, 0.0000000000000000000 ) ) ;
#154 = EDGE_CURVE ( 'NONE', #183, #295, #130, .T. ) ;
#155 = VERTEX_POINT ( 'NONE', #218 ) ;
#156 = PRODUCT_DEFINITION_FORMATION_WITH_SPECIFIED_SOURCE ( 'ANY', '', #232, .NOT_KNOWN. ) ;
#157 = EDGE_CURVE ( 'NONE', #256, #176, #9, .T. ) ;
#158 = CARTESIAN_POINT ( 'NONE',  ( -0.01376572050000000533, 0.0000000000000000000, 3.371629109656421651E-18 ) ) ;
#159 = ORIENTED_EDGE ( 'NONE', *, *, #154, .F. ) ;
#160 = EDGE_LOOP ( 'NONE', ( #206, #267, #166, #178 ) ) ;
#161 = EDGE_CURVE ( 'NONE', #176, #299, #238, .T. ) ;
#162 = FACE_OUTER_BOUND ( 'NONE', #11, .T. ) ;
#163 = AXIS2_PLACEMENT_3D ( 'NONE', #20, #23, #143 ) ;
#164 = CYLINDRICAL_SURFACE ( 'NONE', #163, 0.01376572050000000012 ) ;
#165 = AXIS2_PLACEMENT_3D ( 'NONE', #10, #74, #7 ) ;
#166 = ORIENTED_EDGE ( 'NONE', *, *, #6, .T. ) ;
#167 = APPLICATION_CONTEXT ( 'automotive_design' ) ;
#168 = DIRECTION ( 'NONE',  ( 0.7071067811865507924, 8.659560562354973534E-17, -0.7071067811865443531 ) ) ;
#169 = DIRECTION ( 'NONE',  ( 0.0000000000000000000, 0.0000000000000000000, 1.000000000000000000 ) ) ;
#170 =( CONVERSION_BASED_UNIT ( 'INCH', #31 ) LENGTH_UNIT ( ) NAMED_UNIT ( #187 ) );
#171 = CARTESIAN_POINT ( 'NONE',  ( 0.0000000000000000000, 0.0000000000000000000, 1.953504000000000129 ) ) ;
#172 = AXIS2_PLACEMENT_3D ( 'NONE', #52, #122, #210 ) ;
#173 = CARTESIAN_POINT ( 'NONE',  ( 0.0000000000000000000, 0.0000000000000000000, 1.968503999999999809 ) ) ;
#174 = LINE ( 'NONE', #270, #298 ) ;
#175 =( LENGTH_UNIT ( ) NAMED_UNIT ( * ) SI_UNIT ( $, .METRE. ) );
#176 = VERTEX_POINT ( 'NONE', #219 ) ;
#177 = AXIS2_PLACEMENT_3D ( 'NONE', #104, #169, #193 ) ;
#178 = ORIENTED_EDGE ( 'NONE', *, *, #111, .F. ) ;
#179 = DIRECTION ( 'NONE',  ( 0.0000000000000000000, 0.0000000000000000000, -1.000000000000000000 ) ) ;
#180 = VERTEX_POINT ( 'NONE', #244 ) ;
#181 = UNCERTAINTY_MEASURE_WITH_UNIT (LENGTH_MEASURE( 1.000000000000000082E-05 ), #170, 'distance_accuracy_value', 'NONE');
#182 = CLOSED_SHELL ( 'NONE', ( #75, #61, #285, #146, #262, #120, #103, #15, #201, #107 ) ) ;
#183 = VERTEX_POINT ( 'NONE', #34 ) ;
#184 = ORIENTED_EDGE ( 'NONE', *, *, #161, .F. ) ;
#185 = CARTESIAN_POINT ( 'NONE',  ( 1.012501234131057143E-17, 0.0000000000000000000, 0.08267699999999998661 ) ) ;
#186 = DIRECTION ( 'NONE',  ( -1.000000000000000000, 0.0000000000000000000, 0.0000000000000000000 ) ) ;
#187 = DIMENSIONAL_EXPONENTS ( 1.000000000000000000, 0.0000000000000000000, 0.0000000000000000000, 0.0000000000000000000, 0.0000000000000000000, 0.0000000000000000000, 0.0000000000000000000 ) ;
#188 = EDGE_CURVE ( 'NONE', #183, #256, #21, .T. ) ;
#189 = CARTESIAN_POINT ( 'NONE',  ( 5.525170996686579413E-17, 0.0000000000000000000, 0.4511644500711077255 ) ) ;
#190 = DIRECTION ( 'NONE',  ( -0.1736481776669311639, 2.126576849575783008E-17, 0.9848077530122080203 ) ) ;
#191 = AXIS2_PLACEMENT_3D ( 'NONE', #35, #62, #114 ) ;
#192 = EDGE_CURVE ( 'NONE', #183, #299, #174, .T. ) ;
#193 = DIRECTION ( 'NONE',  ( 1.000000000000000000, 0.0000000000000000000, -0.0000000000000000000 ) ) ;
#194 = UNCERTAINTY_MEASURE_WITH_UNIT (LENGTH_MEASURE( 1.000000000000000082E-05 ), #268, 'distance_accuracy_value', 'NONE');
#195 = COLOUR_RGB ( '',0.7921568627450980005, 0.8196078431372548767, 0.9333333333333333481 ) ;
#196 = FACE_OUTER_BOUND ( 'NONE', #207, .T. ) ;
#197 = DIRECTION ( 'NONE',  ( -1.000000000000000000, 0.0000000000000000000, 0.0000000000000000000 ) ) ;
#198 = AXIS2_PLACEMENT_3D ( 'NONE', #173, #33, #129 ) ;
#199 = DIRECTION ( 'NONE',  ( -1.224646799147353207E-16, -0.0000000000000000000, -1.000000000000000000 ) ) ;
#200 = CIRCLE ( 'NONE', #128, 0.07874000000000001831 ) ;
#201 = ADVANCED_FACE ( 'NONE', ( #44 ), #134, .T. ) ;
#202 =( GEOMETRIC_REPRESENTATION_CONTEXT ( 3 ) GLOBAL_UNCERTAINTY_ASSIGNED_CONTEXT ( ( #194 ) ) GLOBAL_UNIT_ASSIGNED_CONTEXT ( ( #268, #141, #227 ) ) REPRESENTATION_CONTEXT ( 'NONE', 'WORKASPACE' ) );
#203 = ORIENTED_EDGE ( 'NONE', *, *, #154, .T. ) ;
#204 = FILL_AREA_STYLE ('',( #151 ) ) ;
#205 =( GEOMETRIC_REPRESENTATION_CONTEXT ( 3 ) GLOBAL_UNCERTAINTY_ASSIGNED_CONTEXT ( ( #181 ) ) GLOBAL_UNIT_ASSIGNED_CONTEXT ( ( #170, #59, #149 ) ) REPRESENTATION_CONTEXT ( 'NONE', 'WORKASPACE' ) );
#206 = ORIENTED_EDGE ( 'NONE', *, *, #243, .F. ) ;
#207 = EDGE_LOOP ( 'NONE', ( #117, #273 ) ) ;
#208 = AXIS2_PLACEMENT_3D ( 'NONE', #69, #47, #22 ) ;
#209 = DIRECTION ( 'NONE',  ( -1.224646799147353207E-16, -0.0000000000000000000, -1.000000000000000000 ) ) ;
#210 = DIRECTION ( 'NONE',  ( 1.000000000000000000, 0.0000000000000000000, 0.0000000000000000000 ) ) ;
#211 = ORIENTED_EDGE ( 'NONE', *, *, #161, .T. ) ;
#212 = ORIENTED_EDGE ( 'NONE', *, *, #140, .T. ) ;
#213 = APPLICATION_CONTEXT ( 'automotive_design' ) ;
#214 = ORIENTED_EDGE ( 'NONE', *, *, #252, .T. ) ;
#215 = CARTESIAN_POINT ( 'NONE',  ( 0.07874000000000001831, 9.642868896486260050E-18, 1.953504000000000129 ) ) ;
#216 = CONICAL_SURFACE ( 'NONE', #296, 0.01376572049999999839, 0.1745329251994338637 ) ;
#217 = DIRECTION ( 'NONE',  ( 0.0000000000000000000, 0.0000000000000000000, -1.000000000000000000 ) ) ;
#218 = CARTESIAN_POINT ( 'NONE',  ( 0.07874000000000007382, 9.642868896486266213E-18, 0.4511644500711077255 ) ) ;
#219 = CARTESIAN_POINT ( 'NONE',  ( 0.01376572050000000533, 1.685814554828210826E-18, 0.0000000000000000000 ) ) ;
#220 = SURFACE_SIDE_STYLE ('',( #245 ) ) ;
#221 = PRESENTATION_LAYER_ASSIGNMENT (  '', '', ( #39 ) ) ;
#222 = LENGTH_MEASURE_WITH_UNIT ( LENGTH_MEASURE( 0.02539999999999999897 ), #246 );
#223 = AXIS2_PLACEMENT_3D ( 'NONE', #228, #209, #186 ) ;
#224 = VECTOR ( 'NONE', #190, 39.37007874015747433 ) ;
#225 = CYLINDRICAL_SURFACE ( 'NONE', #272, 0.07874000000000001831 ) ;
#226 = ORIENTED_EDGE ( 'NONE', *, *, #243, .T. ) ;
#227 =( NAMED_UNIT ( * ) SI_UNIT ( $, .STERADIAN. ) SOLID_ANGLE_UNIT ( ) );
#228 = CARTESIAN_POINT ( 'NONE',  ( 1.012501234131057143E-17, 0.0000000000000000000, 0.08267699999999998661 ) ) ;
#229 = PRODUCT_RELATED_PRODUCT_CATEGORY ( 'part', '', ( #232 ) ) ;
#230 = DIRECTION ( 'NONE',  ( 0.0000000000000000000, 0.0000000000000000000, 1.000000000000000000 ) ) ;
#231 = CARTESIAN_POINT ( 'NONE',  ( 0.0000000000000000000, 0.0000000000000000000, 0.0000000000000000000 ) ) ;
#232 = PRODUCT ( 'Micro_AMRM-007-2X', 'Micro_AMRM-007-2X', '', ( #234 ) ) ;
#233 = ORIENTED_EDGE ( 'NONE', *, *, #192, .F. ) ;
#234 = PRODUCT_CONTEXT ( 'NONE', #167, 'mechanical' ) ;
#235 = ORIENTED_EDGE ( 'NONE', *, *, #82, .T. ) ;
#236 = DIRECTION ( 'NONE',  ( 0.0000000000000000000, 0.0000000000000000000, 1.000000000000000000 ) ) ;
#237 = VERTEX_POINT ( 'NONE', #40 ) ;
#238 = CIRCLE ( 'NONE', #99, 0.01376572050000000533 ) ;
#239 = FILL_AREA_STYLE_COLOUR ( '', #112 ) ;
#240 = DIRECTION ( 'NONE',  ( -1.224646799147353207E-16, -0.0000000000000000000, -1.000000000000000000 ) ) ;
#241 = CIRCLE ( 'NONE', #276, 0.01376572050000000533 ) ;
#242 = CYLINDRICAL_SURFACE ( 'NONE', #198, 0.07874000000000001831 ) ;
#243 = EDGE_CURVE ( 'NONE', #125, #155, #293, .T. ) ;
#244 = CARTESIAN_POINT ( 'NONE',  ( -0.07874000000000001831, 0.0000000000000000000, 1.953504000000000129 ) ) ;
#245 = SURFACE_STYLE_FILL_AREA ( #204 ) ;
#246 =( LENGTH_UNIT ( ) NAMED_UNIT ( * ) SI_UNIT ( $, .METRE. ) );
#247 = DIRECTION ( 'NONE',  ( -0.0000000000000000000, -0.0000000000000000000, -1.000000000000000000 ) ) ;
#248 = VERTEX_POINT ( 'NONE', #18 ) ;
#249 = LENGTH_MEASURE_WITH_UNIT ( LENGTH_MEASURE( 0.02539999999999999897 ), #175 );
#250 = ORIENTED_EDGE ( 'NONE', *, *, #36, .F. ) ;
#251 =( NAMED_UNIT ( * ) PLANE_ANGLE_UNIT ( ) SI_UNIT ( $, .RADIAN. ) );
#252 = EDGE_CURVE ( 'NONE', #299, #176, #241, .T. ) ;
#253 = DIRECTION ( 'NONE',  ( -0.0000000000000000000, -0.0000000000000000000, -1.000000000000000000 ) ) ;
#254 = EDGE_LOOP ( 'NONE', ( #159, #294, #235, #17 ) ) ;
#255 = DIRECTION ( 'NONE',  ( 1.000000000000000000, 0.0000000000000000000, 0.0000000000000000000 ) ) ;
#256 = VERTEX_POINT ( 'NONE', #136 ) ;
#257 = PRODUCT_DEFINITION_SHAPE ( 'NONE', 'NONE',  #280 ) ;
#258 = DIRECTION ( 'NONE',  ( 1.224646799147353207E-16, 0.0000000000000000000, 1.000000000000000000 ) ) ;
#259 = DIRECTION ( 'NONE',  ( -1.224646799147353207E-16, -0.0000000000000000000, -1.000000000000000000 ) ) ;
#260 = CONICAL_SURFACE ( 'NONE', #97, 0.01376572049999999839, 0.1745329251994338637 ) ;
#261 =( LENGTH_UNIT ( ) NAMED_UNIT ( * ) SI_UNIT ( $, .METRE. ) );
#262 = ADVANCED_FACE ( 'NONE', ( #288 ), #225, .T. ) ;
#263 = CIRCLE ( 'NONE', #131, 0.06374000000000018540 ) ;
#264 = DIRECTION ( 'NONE',  ( 0.0000000000000000000, 0.0000000000000000000, -1.000000000000000000 ) ) ;
#265 = APPLICATION_PROTOCOL_DEFINITION ( 'draft international standard', 'automotive_design', 1998, #167 ) ;
#266 = SURFACE_STYLE_USAGE ( .BOTH. , #220 ) ;
#267 = ORIENTED_EDGE ( 'NONE', *, *, #36, .T. ) ;
#268 =( CONVERSION_BASED_UNIT ( 'INCH', #249 ) LENGTH_UNIT ( ) NAMED_UNIT ( #96 ) );
#269 = ORIENTED_EDGE ( 'NONE', *, *, #63, .T. ) ;
#270 = CARTESIAN_POINT ( 'NONE',  ( -0.01376572050000000012, 0.0000000000000000000, 1.685814554828210248E-18 ) ) ;
#271 = ORIENTED_EDGE ( 'NONE', *, *, #93, .F. ) ;
#272 = AXIS2_PLACEMENT_3D ( 'NONE', #37, #247, #109 ) ;
#273 = ORIENTED_EDGE ( 'NONE', *, *, #93, .T. ) ;
#274 = DIRECTION ( 'NONE',  ( 1.000000000000000000, 0.0000000000000000000, 0.0000000000000000000 ) ) ;
#275 = CARTESIAN_POINT ( 'NONE',  ( 0.06374000000000018540, 7.805898697765251255E-18, 1.968503999999999809 ) ) ;
#276 = AXIS2_PLACEMENT_3D ( 'NONE', #46, #199, #12 ) ;
#277 = DIRECTION ( 'NONE',  ( 1.000000000000000000, 0.0000000000000000000, 0.0000000000000000000 ) ) ;
#278 = SURFACE_STYLE_USAGE ( .BOTH. , #30 ) ;
#279 = CIRCLE ( 'NONE', #208, 0.07874000000000001831 ) ;
#280 = PRODUCT_DEFINITION ( 'UNKNOWN', '', #156, #48 ) ;
#281 = FACE_OUTER_BOUND ( 'NONE', #87, .T. ) ;
#282 = SURFACE_STYLE_FILL_AREA ( #102 ) ;
#283 = MECHANICAL_DESIGN_GEOMETRIC_PRESENTATION_REPRESENTATION (  '', ( #39 ), #202 ) ;
#284 = DIRECTION ( 'NONE',  ( 0.0000000000000000000, 0.0000000000000000000, 1.000000000000000000 ) ) ;
#285 = ADVANCED_FACE ( 'NONE', ( #83 ), #80, .T. ) ;
#286 = CARTESIAN_POINT ( 'NONE',  ( -0.01376572049999998798, 1.685814554828210055E-18, 0.08267699999999998661 ) ) ;
#287 = AXIS2_PLACEMENT_3D ( 'NONE', #127, #217, #197 ) ;
#288 = FACE_OUTER_BOUND ( 'NONE', #160, .T. ) ;
#289 =( GEOMETRIC_REPRESENTATION_CONTEXT ( 3 ) GLOBAL_UNCERTAINTY_ASSIGNED_CONTEXT ( ( #66 ) ) GLOBAL_UNIT_ASSIGNED_CONTEXT ( ( #113, #251, #132 ) ) REPRESENTATION_CONTEXT ( 'NONE', 'WORKASPACE' ) );
#290 = ORIENTED_EDGE ( 'NONE', *, *, #6, .F. ) ;
#291 = DIRECTION ( 'NONE',  ( -0.0000000000000000000, -0.0000000000000000000, -1.000000000000000000 ) ) ;
#292 = CIRCLE ( 'NONE', #145, 0.07874000000000001831 ) ;
#293 = LINE ( 'NONE', #85, #32 ) ;
#294 = ORIENTED_EDGE ( 'NONE', *, *, #58, .F. ) ;
#295 = VERTEX_POINT ( 'NONE', #116 ) ;
#296 = AXIS2_PLACEMENT_3D ( 'NONE', #185, #258, #274 ) ;
#297 = APPLICATION_PROTOCOL_DEFINITION ( 'draft international standard', 'automotive_design', 1998, #213 ) ;
#298 = VECTOR ( 'NONE', #16, 39.37007874015748143 ) ;
#299 = VERTEX_POINT ( 'NONE', #158 ) ;
ENDSEC;
END-ISO-10303-21;
