ISO-10303-21;
HEADER;
FILE_DESCRIPTION (( 'STEP AP214' ),
    '1' );
FILE_NAME ('Micro_BMRM-015-2.STEP',
    '2021-09-03T14:27:58',
    ( '' ),
    ( '' ),
    'SwSTEP 2.0',
    'SolidWorks 2020',
    '' );
FILE_SCHEMA (( 'AUTOMOTIVE_DESIGN' ));
ENDSEC;

DATA;
#1 = DIRECTION ( 'NONE',  ( -1.224646799147353207E-16, -0.0000000000000000000, -1.000000000000000000 ) ) ;
#2 = ADVANCED_BREP_SHAPE_REPRESENTATION ( 'Micro_BMRM-015-2', ( #241, #115 ), #4 ) ;
#3 = ADVANCED_FACE ( 'NONE', ( #156 ), #37, .T. ) ;
#4 =( GEOMETRIC_REPRESENTATION_CONTEXT ( 3 ) GLOBAL_UNCERTAINTY_ASSIGNED_CONTEXT ( ( #81 ) ) GLOBAL_UNIT_ASSIGNED_CONTEXT ( ( #95, #203, #278 ) ) REPRESENTATION_CONTEXT ( 'NONE', 'WORKASPACE' ) );
#5 = CARTESIAN_POINT ( 'NONE',  ( -0.07873999999999994892, 0.0000000000000000000, 0.4446194153218638312 ) ) ;
#6 = ORIENTED_EDGE ( 'NONE', *, *, #65, .F. ) ;
#7 = EDGE_CURVE ( 'NONE', #206, #283, #259, .T. ) ;
#8 =( NAMED_UNIT ( * ) SI_UNIT ( $, .STERADIAN. ) SOLID_ANGLE_UNIT ( ) );
#9 = CARTESIAN_POINT ( 'NONE',  ( -0.02949797250000000398, 0.0000000000000000000, 3.612459760346164844E-18 ) ) ;
#10 = ORIENTED_EDGE ( 'NONE', *, *, #154, .F. ) ;
#11 = ORIENTED_EDGE ( 'NONE', *, *, #79, .F. ) ;
#12 = CIRCLE ( 'NONE', #265, 0.02949797250000000398 ) ;
#13 = ORIENTED_EDGE ( 'NONE', *, *, #171, .T. ) ;
#14 = APPLICATION_PROTOCOL_DEFINITION ( 'draft international standard', 'automotive_design', 1998, #286 ) ;
#15 = CARTESIAN_POINT ( 'NONE',  ( 0.02949797250000000745, 3.612459760346164844E-18, 0.02949797249999999357 ) ) ;
#16 = DIRECTION ( 'NONE',  ( 0.0000000000000000000, 0.0000000000000000000, 1.000000000000000000 ) ) ;
#17 = CARTESIAN_POINT ( 'NONE',  ( 0.0000000000000000000, 0.0000000000000000000, 1.953504000000000129 ) ) ;
#18 = CARTESIAN_POINT ( 'NONE',  ( -0.07874000000000000443, 0.0000000000000000000, 1.953504000000000129 ) ) ;
#19 = VECTOR ( 'NONE', #113, 39.37007874015747433 ) ;
#20 = CARTESIAN_POINT ( 'NONE',  ( -0.06374000000000018540, 0.0000000000000000000, 1.968503999999999809 ) ) ;
#21 = ORIENTED_EDGE ( 'NONE', *, *, #165, .F. ) ;
#22 = CARTESIAN_POINT ( 'NONE',  ( 0.0000000000000000000, 0.0000000000000000000, 1.968503999999999809 ) ) ;
#23 = SURFACE_SIDE_STYLE ('',( #306 ) ) ;
#24 = AXIS2_PLACEMENT_3D ( 'NONE', #144, #185, #189 ) ;
#25 = ORIENTED_EDGE ( 'NONE', *, *, #134, .F. ) ;
#26 = ADVANCED_FACE ( 'NONE', ( #132 ), #304, .T. ) ;
#27 = DIRECTION ( 'NONE',  ( -1.000000000000000000, 1.224646799147353454E-16, 0.0000000000000000000 ) ) ;
#28 = DIMENSIONAL_EXPONENTS ( 1.000000000000000000, 0.0000000000000000000, 0.0000000000000000000, 0.0000000000000000000, 0.0000000000000000000, 0.0000000000000000000, 0.0000000000000000000 ) ;
#29 = LENGTH_MEASURE_WITH_UNIT ( LENGTH_MEASURE( 0.02539999999999999897 ), #97 );
#30 = AXIS2_PLACEMENT_3D ( 'NONE', #289, #270, #211 ) ;
#31 = AXIS2_PLACEMENT_3D ( 'NONE', #161, #117, #295 ) ;
#32 = EDGE_CURVE ( 'NONE', #309, #283, #114, .T. ) ;
#33 = ORIENTED_EDGE ( 'NONE', *, *, #251, .F. ) ;
#34 = ORIENTED_EDGE ( 'NONE', *, *, #165, .T. ) ;
#35 = CONICAL_SURFACE ( 'NONE', #61, 0.02949797249999999704, 0.1745329251994338360 ) ;
#36 = MECHANICAL_DESIGN_GEOMETRIC_PRESENTATION_REPRESENTATION (  '', ( #227 ), #191 ) ;
#37 = SPHERICAL_SURFACE ( 'NONE', #207, 0.02949797249999999704 ) ;
#38 = UNCERTAINTY_MEASURE_WITH_UNIT (LENGTH_MEASURE( 1.000000000000000082E-05 ), #253, 'distance_accuracy_value', 'NONE');
#39 = VERTEX_POINT ( 'NONE', #135 ) ;
#40 = DIRECTION ( 'NONE',  ( 1.000000000000000000, 0.0000000000000000000, 0.0000000000000000000 ) ) ;
#41 = MECHANICAL_DESIGN_GEOMETRIC_PRESENTATION_REPRESENTATION (  '', ( #274 ), #52 ) ;
#42 = FACE_OUTER_BOUND ( 'NONE', #145, .T. ) ;
#43 = DIRECTION ( 'NONE',  ( -0.0000000000000000000, -0.0000000000000000000, -1.000000000000000000 ) ) ;
#44 = ORIENTED_EDGE ( 'NONE', *, *, #319, .T. ) ;
#45 = DIRECTION ( 'NONE',  ( -0.7071067811865502373, 0.0000000000000000000, -0.7071067811865446862 ) ) ;
#46 = EDGE_CURVE ( 'NONE', #287, #283, #235, .T. ) ;
#47 = SPHERICAL_SURFACE ( 'NONE', #146, 0.02949797249999999704 ) ;
#48 = CIRCLE ( 'NONE', #137, 0.02949797249999999704 ) ;
#49 = ORIENTED_EDGE ( 'NONE', *, *, #195, .T. ) ;
#50 = DIRECTION ( 'NONE',  ( 0.0000000000000000000, 0.0000000000000000000, -1.000000000000000000 ) ) ;
#51 = CARTESIAN_POINT ( 'NONE',  ( 0.0000000000000000000, 0.0000000000000000000, 1.968503999999999809 ) ) ;
#52 =( GEOMETRIC_REPRESENTATION_CONTEXT ( 3 ) GLOBAL_UNCERTAINTY_ASSIGNED_CONTEXT ( ( #101 ) ) GLOBAL_UNIT_ASSIGNED_CONTEXT ( ( #77, #246, #194 ) ) REPRESENTATION_CONTEXT ( 'NONE', 'WORKASPACE' ) );
#53 = DIRECTION ( 'NONE',  ( 0.0000000000000000000, 0.0000000000000000000, 1.000000000000000000 ) ) ;
#54 = PRESENTATION_STYLE_ASSIGNMENT (( #96 ) ) ;
#55 = CIRCLE ( 'NONE', #122, 0.02949797249999999704 ) ;
#56 =( NAMED_UNIT ( * ) PLANE_ANGLE_UNIT ( ) SI_UNIT ( $, .RADIAN. ) );
#57 = DIRECTION ( 'NONE',  ( 1.000000000000000000, 0.0000000000000000000, 0.0000000000000000000 ) ) ;
#58 = SURFACE_STYLE_USAGE ( .BOTH. , #173 ) ;
#59 = ORIENTED_EDGE ( 'NONE', *, *, #154, .T. ) ;
#60 = ORIENTED_EDGE ( 'NONE', *, *, #195, .F. ) ;
#61 = AXIS2_PLACEMENT_3D ( 'NONE', #148, #300, #244 ) ;
#62 = CARTESIAN_POINT ( 'NONE',  ( 3.612459760346164844E-18, 0.0000000000000000000, 0.02949797249999999704 ) ) ;
#63 = ORIENTED_EDGE ( 'NONE', *, *, #46, .F. ) ;
#64 = DIRECTION ( 'NONE',  ( 1.224646799147353207E-16, 0.0000000000000000000, 1.000000000000000000 ) ) ;
#65 = EDGE_CURVE ( 'NONE', #162, #250, #12, .T. ) ;
#66 = ORIENTED_EDGE ( 'NONE', *, *, #237, .F. ) ;
#67 = VECTOR ( 'NONE', #152, 39.37007874015748854 ) ;
#68 = FACE_OUTER_BOUND ( 'NONE', #107, .T. ) ;
#69 = FACE_OUTER_BOUND ( 'NONE', #167, .T. ) ;
#70 = CARTESIAN_POINT ( 'NONE',  ( 3.612459760346164844E-18, 0.0000000000000000000, 0.02949797249999999704 ) ) ;
#71 = CONICAL_SURFACE ( 'NONE', #284, 0.06374000000000018540, 0.7853981633974522758 ) ;
#72 = FACE_OUTER_BOUND ( 'NONE', #82, .T. ) ;
#73 = PRESENTATION_LAYER_ASSIGNMENT (  '', '', ( #227 ) ) ;
#74 = CARTESIAN_POINT ( 'NONE',  ( 0.07874000000000004607, 9.642868896486264672E-18, 0.4446194153218638312 ) ) ;
#75 = DIRECTION ( 'NONE',  ( -0.0000000000000000000, -0.0000000000000000000, -1.000000000000000000 ) ) ;
#76 = VECTOR ( 'NONE', #197, 39.37007874015748143 ) ;
#77 =( CONVERSION_BASED_UNIT ( 'INCH', #29 ) LENGTH_UNIT ( ) NAMED_UNIT ( #28 ) );
#78 = ORIENTED_EDGE ( 'NONE', *, *, #171, .F. ) ;
#79 = EDGE_CURVE ( 'NONE', #39, #250, #229, .T. ) ;
#80 = DIRECTION ( 'NONE',  ( 1.224646799147353207E-16, 0.0000000000000000000, 1.000000000000000000 ) ) ;
#81 = UNCERTAINTY_MEASURE_WITH_UNIT (LENGTH_MEASURE( 1.000000000000000082E-05 ), #95, 'distance_accuracy_value', 'NONE');
#82 = EDGE_LOOP ( 'NONE', ( #49, #103, #281, #11 ) ) ;
#83 = LENGTH_MEASURE_WITH_UNIT ( LENGTH_MEASURE( 0.02539999999999999897 ), #129 );
#84 = ORIENTED_EDGE ( 'NONE', *, *, #32, .T. ) ;
#85 = ADVANCED_FACE ( 'NONE', ( #201 ), #291, .T. ) ;
#86 = VERTEX_POINT ( 'NONE', #18 ) ;
#87 = CARTESIAN_POINT ( 'NONE',  ( 2.025002468262114287E-17, 0.0000000000000000000, 0.1653539999999999732 ) ) ;
#88 = FACE_OUTER_BOUND ( 'NONE', #273, .T. ) ;
#89 = CARTESIAN_POINT ( 'NONE',  ( -0.06374000000000018540, 0.0000000000000000000, 1.968503999999999809 ) ) ;
#90 = CIRCLE ( 'NONE', #131, 0.07874000000000000443 ) ;
#91 = DIRECTION ( 'NONE',  ( 0.0000000000000000000, 0.0000000000000000000, -1.000000000000000000 ) ) ;
#92 = DIRECTION ( 'NONE',  ( 1.000000000000000000, 0.0000000000000000000, 0.0000000000000000000 ) ) ;
#93 = CARTESIAN_POINT ( 'NONE',  ( 5.418689640519246881E-18, 0.0000000000000000000, 0.0000000000000000000 ) ) ;
#94 = AXIS2_PLACEMENT_3D ( 'NONE', #271, #272, #27 ) ;
#95 =( CONVERSION_BASED_UNIT ( 'INCH', #220 ) LENGTH_UNIT ( ) NAMED_UNIT ( #247 ) );
#96 = SURFACE_STYLE_USAGE ( .BOTH. , #23 ) ;
#97 =( LENGTH_UNIT ( ) NAMED_UNIT ( * ) SI_UNIT ( $, .METRE. ) );
#98 = CARTESIAN_POINT ( 'NONE',  ( -0.07874000000000000443, 0.0000000000000000000, 1.968503999999999809 ) ) ;
#99 = AXIS2_PLACEMENT_3D ( 'NONE', #87, #128, #158 ) ;
#100 = DIRECTION ( 'NONE',  ( -1.000000000000000000, 0.0000000000000000000, 0.0000000000000000000 ) ) ;
#101 = UNCERTAINTY_MEASURE_WITH_UNIT (LENGTH_MEASURE( 1.000000000000000082E-05 ), #77, 'distance_accuracy_value', 'NONE');
#102 = CARTESIAN_POINT ( 'NONE',  ( 3.612459760346164844E-18, 0.0000000000000000000, 0.02949797249999999704 ) ) ;
#103 = ORIENTED_EDGE ( 'NONE', *, *, #182, .T. ) ;
#104 = CARTESIAN_POINT ( 'NONE',  ( 0.07874000000000000443, 9.642868896486258509E-18, 1.968503999999999809 ) ) ;
#105 = VERTEX_POINT ( 'NONE', #93 ) ;
#106 = PRODUCT ( 'Micro_BMRM-015-2', 'Micro_BMRM-015-2', '', ( #311 ) ) ;
#107 = EDGE_LOOP ( 'NONE', ( #285, #310, #13, #21 ) ) ;
#108 = VECTOR ( 'NONE', #178, 39.37007874015748143 ) ;
#109 = ADVANCED_FACE ( 'NONE', ( #68 ), #71, .T. ) ;
#110 = CARTESIAN_POINT ( 'NONE',  ( 0.02949797250000002133, 0.0000000000000000000, 0.1653539999999999732 ) ) ;
#111 = PRODUCT_DEFINITION_CONTEXT ( 'detailed design', #116, 'design' ) ;
#112 = DIRECTION ( 'NONE',  ( 0.0000000000000000000, -1.000000000000000000, 0.0000000000000000000 ) ) ;
#113 = DIRECTION ( 'NONE',  ( -0.1736481776669311639, 2.126576849575782392E-17, 0.9848077530122080203 ) ) ;
#114 = CIRCLE ( 'NONE', #210, 0.07874000000000000443 ) ;
#115 = AXIS2_PLACEMENT_3D ( 'NONE', #205, #16, #231 ) ;
#116 = APPLICATION_CONTEXT ( 'automotive_design' ) ;
#117 = DIRECTION ( 'NONE',  ( -1.224646799147353207E-16, -0.0000000000000000000, -1.000000000000000000 ) ) ;
#118 = ADVANCED_FACE ( 'NONE', ( #269 ), #267, .T. ) ;
#119 = CARTESIAN_POINT ( 'NONE',  ( 2.025002468262114287E-17, 0.0000000000000000000, 0.1653539999999999732 ) ) ;
#120 = CARTESIAN_POINT ( 'NONE',  ( 5.445017438126880810E-17, 0.0000000000000000000, 0.4446194153218638312 ) ) ;
#121 = EDGE_CURVE ( 'NONE', #39, #309, #139, .T. ) ;
#122 = AXIS2_PLACEMENT_3D ( 'NONE', #163, #112, #50 ) ;
#123 = PRODUCT_DEFINITION_FORMATION_WITH_SPECIFIED_SOURCE ( 'ANY', '', #106, .NOT_KNOWN. ) ;
#124 = DIRECTION ( 'NONE',  ( 1.000000000000000000, 0.0000000000000000000, 0.0000000000000000000 ) ) ;
#125 = ORIENTED_EDGE ( 'NONE', *, *, #134, .T. ) ;
#126 = CARTESIAN_POINT ( 'NONE',  ( 0.0000000000000000000, 0.0000000000000000000, 1.953504000000000129 ) ) ;
#127 = AXIS2_PLACEMENT_3D ( 'NONE', #316, #64, #159 ) ;
#128 = DIRECTION ( 'NONE',  ( 1.224646799147353207E-16, 0.0000000000000000000, 1.000000000000000000 ) ) ;
#129 =( LENGTH_UNIT ( ) NAMED_UNIT ( * ) SI_UNIT ( $, .METRE. ) );
#130 = ORIENTED_EDGE ( 'NONE', *, *, #182, .F. ) ;
#131 = AXIS2_PLACEMENT_3D ( 'NONE', #120, #1, #303 ) ;
#132 = FACE_OUTER_BOUND ( 'NONE', #133, .T. ) ;
#133 = EDGE_LOOP ( 'NONE', ( #60, #301, #84, #63 ) ) ;
#134 = EDGE_CURVE ( 'NONE', #105, #162, #55, .T. ) ;
#135 = CARTESIAN_POINT ( 'NONE',  ( -0.02949797249999997623, 6.627664328416212062E-18, 0.1653539999999999732 ) ) ;
#136 = APPLICATION_PROTOCOL_DEFINITION ( 'draft international standard', 'automotive_design', 1998, #116 ) ;
#137 = AXIS2_PLACEMENT_3D ( 'NONE', #119, #219, #297 ) ;
#138 = CYLINDRICAL_SURFACE ( 'NONE', #186, 0.07874000000000000443 ) ;
#139 = LINE ( 'NONE', #321, #19 ) ;
#140 = ADVANCED_FACE ( 'NONE', ( #88 ), #184, .T. ) ;
#141 = LINE ( 'NONE', #239, #240 ) ;
#142 = CIRCLE ( 'NONE', #258, 0.02949797249999999704 ) ;
#143 = DIRECTION ( 'NONE',  ( 0.0000000000000000000, 0.0000000000000000000, -1.000000000000000000 ) ) ;
#144 = CARTESIAN_POINT ( 'NONE',  ( 0.0000000000000000000, 0.0000000000000000000, 1.968503999999999809 ) ) ;
#145 = EDGE_LOOP ( 'NONE', ( #183, #279, #180, #323 ) ) ;
#146 = AXIS2_PLACEMENT_3D ( 'NONE', #70, #238, #92 ) ;
#147 = LINE ( 'NONE', #223, #67 ) ;
#148 = CARTESIAN_POINT ( 'NONE',  ( 2.025002468262114287E-17, 0.0000000000000000000, 0.1653539999999999732 ) ) ;
#149 = ADVANCED_FACE ( 'NONE', ( #69 ), #47, .T. ) ;
#150 = DIRECTION ( 'NONE',  ( -1.000000000000000000, 0.0000000000000000000, 0.0000000000000000000 ) ) ;
#151 = ORIENTED_EDGE ( 'NONE', *, *, #208, .F. ) ;
#152 = DIRECTION ( 'NONE',  ( 0.7071067811865502373, 8.659560562354966138E-17, -0.7071067811865446862 ) ) ;
#153 = ORIENTED_EDGE ( 'NONE', *, *, #251, .T. ) ;
#154 = EDGE_CURVE ( 'NONE', #288, #202, #324, .T. ) ;
#155 = EDGE_LOOP ( 'NONE', ( #25, #179, #6 ) ) ;
#156 = FACE_OUTER_BOUND ( 'NONE', #155, .T. ) ;
#157 = CARTESIAN_POINT ( 'NONE',  ( 5.445017438126880810E-17, 0.0000000000000000000, 0.4446194153218638312 ) ) ;
#158 = DIRECTION ( 'NONE',  ( 1.000000000000000000, 0.0000000000000000000, 0.0000000000000000000 ) ) ;
#159 = DIRECTION ( 'NONE',  ( -1.000000000000000000, 0.0000000000000000000, 1.447052840699614406E-16 ) ) ;
#160 = CARTESIAN_POINT ( 'NONE',  ( 0.0000000000000000000, 0.0000000000000000000, 1.968503999999999809 ) ) ;
#161 = CARTESIAN_POINT ( 'NONE',  ( 0.0000000000000000000, 0.0000000000000000000, 0.0000000000000000000 ) ) ;
#162 = VERTEX_POINT ( 'NONE', #15 ) ;
#163 = CARTESIAN_POINT ( 'NONE',  ( 3.612459760346164844E-18, 0.0000000000000000000, 0.02949797249999999704 ) ) ;
#164 = CIRCLE ( 'NONE', #196, 0.07874000000000000443 ) ;
#165 = EDGE_CURVE ( 'NONE', #206, #86, #164, .T. ) ;
#166 = CYLINDRICAL_SURFACE ( 'NONE', #30, 0.02949797250000000398 ) ;
#167 = EDGE_LOOP ( 'NONE', ( #230, #125, #151 ) ) ;
#168 = DIRECTION ( 'NONE',  ( 0.0000000000000000000, 0.0000000000000000000, -1.000000000000000000 ) ) ;
#169 = CIRCLE ( 'NONE', #216, 0.06374000000000018540 ) ;
#170 = FACE_OUTER_BOUND ( 'NONE', #320, .T. ) ;
#171 = EDGE_CURVE ( 'NONE', #202, #86, #188, .T. ) ;
#172 = DIRECTION ( 'NONE',  ( -1.224646799147353207E-16, -0.0000000000000000000, -1.000000000000000000 ) ) ;
#173 = SURFACE_SIDE_STYLE ('',( #199 ) ) ;
#174 = CIRCLE ( 'NONE', #277, 0.07874000000000000443 ) ;
#175 = ADVANCED_FACE ( 'NONE', ( #214 ), #292, .T. ) ;
#176 = EDGE_LOOP ( 'NONE', ( #10, #290, #66, #78 ) ) ;
#177 = FILL_AREA_STYLE ('',( #280 ) ) ;
#178 = DIRECTION ( 'NONE',  ( -1.224646799147353207E-16, -0.0000000000000000000, -1.000000000000000000 ) ) ;
#179 = ORIENTED_EDGE ( 'NONE', *, *, #228, .T. ) ;
#180 = ORIENTED_EDGE ( 'NONE', *, *, #32, .F. ) ;
#181 = AXIS2_PLACEMENT_3D ( 'NONE', #22, #43, #217 ) ;
#182 = EDGE_CURVE ( 'NONE', #287, #162, #141, .T. ) ;
#183 = ORIENTED_EDGE ( 'NONE', *, *, #237, .T. ) ;
#184 = PLANE ( 'NONE',  #24 ) ;
#185 = DIRECTION ( 'NONE',  ( 0.0000000000000000000, 0.0000000000000000000, 1.000000000000000000 ) ) ;
#186 = AXIS2_PLACEMENT_3D ( 'NONE', #305, #75, #100 ) ;
#187 = DIRECTION ( 'NONE',  ( -1.000000000000000000, 0.0000000000000000000, 0.0000000000000000000 ) ) ;
#188 = LINE ( 'NONE', #20, #298 ) ;
#189 = DIRECTION ( 'NONE',  ( 1.000000000000000000, 0.0000000000000000000, -0.0000000000000000000 ) ) ;
#190 = VECTOR ( 'NONE', #315, 39.37007874015748143 ) ;
#191 =( GEOMETRIC_REPRESENTATION_CONTEXT ( 3 ) GLOBAL_UNCERTAINTY_ASSIGNED_CONTEXT ( ( #38 ) ) GLOBAL_UNIT_ASSIGNED_CONTEXT ( ( #253, #56, #8 ) ) REPRESENTATION_CONTEXT ( 'NONE', 'WORKASPACE' ) );
#192 = CARTESIAN_POINT ( 'NONE',  ( 0.02949797250000002133, 0.0000000000000000000, 0.1653539999999999732 ) ) ;
#193 = CLOSED_SHELL ( 'NONE', ( #3, #198, #26, #175, #213, #118, #140, #109, #263, #85, #149 ) ) ;
#194 =( NAMED_UNIT ( * ) SI_UNIT ( $, .STERADIAN. ) SOLID_ANGLE_UNIT ( ) );
#195 = EDGE_CURVE ( 'NONE', #39, #287, #48, .T. ) ;
#196 = AXIS2_PLACEMENT_3D ( 'NONE', #17, #143, #242 ) ;
#197 = DIRECTION ( 'NONE',  ( -0.0000000000000000000, -0.0000000000000000000, -1.000000000000000000 ) ) ;
#198 = ADVANCED_FACE ( 'NONE', ( #72 ), #166, .T. ) ;
#199 = SURFACE_STYLE_FILL_AREA ( #177 ) ;
#200 = VECTOR ( 'NONE', #307, 39.37007874015748143 ) ;
#201 = FACE_OUTER_BOUND ( 'NONE', #296, .T. ) ;
#202 = VERTEX_POINT ( 'NONE', #89 ) ;
#203 =( NAMED_UNIT ( * ) PLANE_ANGLE_UNIT ( ) SI_UNIT ( $, .RADIAN. ) );
#204 = ORIENTED_EDGE ( 'NONE', *, *, #208, .T. ) ;
#205 = CARTESIAN_POINT ( 'NONE',  ( 0.0000000000000000000, 0.0000000000000000000, 0.0000000000000000000 ) ) ;
#206 = VERTEX_POINT ( 'NONE', #243 ) ;
#207 = AXIS2_PLACEMENT_3D ( 'NONE', #62, #312, #57 ) ;
#208 = EDGE_CURVE ( 'NONE', #250, #162, #252, .T. ) ;
#209 = ORIENTED_EDGE ( 'NONE', *, *, #46, .T. ) ;
#210 = AXIS2_PLACEMENT_3D ( 'NONE', #157, #262, #40 ) ;
#211 = DIRECTION ( 'NONE',  ( -1.000000000000000000, 0.0000000000000000000, 1.224646799147352961E-16 ) ) ;
#212 = ORIENTED_EDGE ( 'NONE', *, *, #319, .F. ) ;
#213 = ADVANCED_FACE ( 'NONE', ( #42 ), #138, .T. ) ;
#214 = FACE_OUTER_BOUND ( 'NONE', #176, .T. ) ;
#215 = CARTESIAN_POINT ( 'NONE',  ( 0.0000000000000000000, 0.0000000000000000000, 1.968503999999999809 ) ) ;
#216 = AXIS2_PLACEMENT_3D ( 'NONE', #51, #53, #124 ) ;
#217 = DIRECTION ( 'NONE',  ( -1.000000000000000000, 0.0000000000000000000, 0.0000000000000000000 ) ) ;
#218 = EDGE_CURVE ( 'NONE', #288, #206, #147, .T. ) ;
#219 = DIRECTION ( 'NONE',  ( -1.224646799147353207E-16, -0.0000000000000000000, -1.000000000000000000 ) ) ;
#220 = LENGTH_MEASURE_WITH_UNIT ( LENGTH_MEASURE( 0.02539999999999999897 ), #249 );
#221 = AXIS2_PLACEMENT_3D ( 'NONE', #264, #91, #293 ) ;
#222 = FILL_AREA_STYLE ('',( #248 ) ) ;
#223 = CARTESIAN_POINT ( 'NONE',  ( 0.06374000000000018540, 7.805898697765251255E-18, 1.968503999999999809 ) ) ;
#224 = CARTESIAN_POINT ( 'NONE',  ( 0.06374000000000018540, 8.724383797125754882E-18, 1.968503999999999809 ) ) ;
#225 = CIRCLE ( 'NONE', #94, 0.02949797249999999704 ) ;
#226 = CARTESIAN_POINT ( 'NONE',  ( 2.025002468262114287E-17, 0.0000000000000000000, 0.1653539999999999732 ) ) ;
#227 = STYLED_ITEM ( 'NONE', ( #255 ), #2 ) ;
#228 = EDGE_CURVE ( 'NONE', #105, #250, #225, .T. ) ;
#229 = LINE ( 'NONE', #9, #108 ) ;
#230 = ORIENTED_EDGE ( 'NONE', *, *, #228, .F. ) ;
#231 = DIRECTION ( 'NONE',  ( 1.000000000000000000, 0.0000000000000000000, 0.0000000000000000000 ) ) ;
#232 = ORIENTED_EDGE ( 'NONE', *, *, #7, .F. ) ;
#233 = ORIENTED_EDGE ( 'NONE', *, *, #79, .T. ) ;
#234 = PRODUCT_DEFINITION_SHAPE ( 'NONE', 'NONE',  #294 ) ;
#235 = LINE ( 'NONE', #110, #200 ) ;
#236 = AXIS2_PLACEMENT_3D ( 'NONE', #215, #318, #322 ) ;
#237 = EDGE_CURVE ( 'NONE', #86, #206, #174, .T. ) ;
#238 = DIRECTION ( 'NONE',  ( 0.0000000000000000000, 1.000000000000000000, 0.0000000000000000000 ) ) ;
#239 = CARTESIAN_POINT ( 'NONE',  ( 0.02949797250000000398, 3.612459760346164844E-18, -3.612459760346164844E-18 ) ) ;
#240 = VECTOR ( 'NONE', #317, 39.37007874015748143 ) ;
#241 = MANIFOLD_SOLID_BREP ( 'Fillet1', #193 ) ;
#242 = DIRECTION ( 'NONE',  ( 1.000000000000000000, 0.0000000000000000000, 0.0000000000000000000 ) ) ;
#243 = CARTESIAN_POINT ( 'NONE',  ( 0.07874000000000000443, 9.642868896486258509E-18, 1.953504000000000129 ) ) ;
#244 = DIRECTION ( 'NONE',  ( 1.000000000000000000, 0.0000000000000000000, 0.0000000000000000000 ) ) ;
#245 = PRESENTATION_LAYER_ASSIGNMENT (  '', '', ( #274 ) ) ;
#246 =( NAMED_UNIT ( * ) PLANE_ANGLE_UNIT ( ) SI_UNIT ( $, .RADIAN. ) );
#247 = DIMENSIONAL_EXPONENTS ( 1.000000000000000000, 0.0000000000000000000, 0.0000000000000000000, 0.0000000000000000000, 0.0000000000000000000, 0.0000000000000000000, 0.0000000000000000000 ) ;
#248 = FILL_AREA_STYLE_COLOUR ( '', #308 ) ;
#249 =( LENGTH_UNIT ( ) NAMED_UNIT ( * ) SI_UNIT ( $, .METRE. ) );
#250 = VERTEX_POINT ( 'NONE', #276 ) ;
#251 = EDGE_CURVE ( 'NONE', #283, #309, #90, .T. ) ;
#252 = CIRCLE ( 'NONE', #127, 0.02949797250000000398 ) ;
#253 =( CONVERSION_BASED_UNIT ( 'INCH', #83 ) LENGTH_UNIT ( ) NAMED_UNIT ( #275 ) );
#254 = DIRECTION ( 'NONE',  ( -1.000000000000000000, 0.0000000000000000000, 1.447052840699614406E-16 ) ) ;
#255 = PRESENTATION_STYLE_ASSIGNMENT (( #58 ) ) ;
#256 = EDGE_LOOP ( 'NONE', ( #232, #34, #268, #33 ) ) ;
#257 = ORIENTED_EDGE ( 'NONE', *, *, #121, .F. ) ;
#258 = AXIS2_PLACEMENT_3D ( 'NONE', #226, #172, #150 ) ;
#259 = LINE ( 'NONE', #104, #190 ) ;
#260 = ORIENTED_EDGE ( 'NONE', *, *, #282, .T. ) ;
#261 = SHAPE_DEFINITION_REPRESENTATION ( #234, #2 ) ;
#262 = DIRECTION ( 'NONE',  ( -1.224646799147353207E-16, -0.0000000000000000000, -1.000000000000000000 ) ) ;
#263 = ADVANCED_FACE ( 'NONE', ( #170 ), #35, .T. ) ;
#264 = CARTESIAN_POINT ( 'NONE',  ( 0.0000000000000000000, 0.0000000000000000000, 1.968503999999999809 ) ) ;
#265 = AXIS2_PLACEMENT_3D ( 'NONE', #102, #80, #254 ) ;
#266 = DIRECTION ( 'NONE',  ( 0.0000000000000000000, 0.0000000000000000000, -1.000000000000000000 ) ) ;
#267 = CYLINDRICAL_SURFACE ( 'NONE', #181, 0.07874000000000000443 ) ;
#268 = ORIENTED_EDGE ( 'NONE', *, *, #313, .T. ) ;
#269 = FACE_OUTER_BOUND ( 'NONE', #256, .T. ) ;
#270 = DIRECTION ( 'NONE',  ( -1.224646799147353207E-16, -0.0000000000000000000, -1.000000000000000000 ) ) ;
#271 = CARTESIAN_POINT ( 'NONE',  ( 3.612459760346164844E-18, 0.0000000000000000000, 0.02949797249999999704 ) ) ;
#272 = DIRECTION ( 'NONE',  ( 1.224646799147353207E-16, 1.000000000000000000, -0.0000000000000000000 ) ) ;
#273 = EDGE_LOOP ( 'NONE', ( #260, #59 ) ) ;
#274 = STYLED_ITEM ( 'NONE', ( #54 ), #241 ) ;
#275 = DIMENSIONAL_EXPONENTS ( 1.000000000000000000, 0.0000000000000000000, 0.0000000000000000000, 0.0000000000000000000, 0.0000000000000000000, 0.0000000000000000000, 0.0000000000000000000 ) ;
#276 = CARTESIAN_POINT ( 'NONE',  ( -0.02949797249999999704, 0.0000000000000000000, 0.02949797250000000398 ) ) ;
#277 = AXIS2_PLACEMENT_3D ( 'NONE', #126, #168, #325 ) ;
#278 =( NAMED_UNIT ( * ) SI_UNIT ( $, .STERADIAN. ) SOLID_ANGLE_UNIT ( ) );
#279 = ORIENTED_EDGE ( 'NONE', *, *, #7, .T. ) ;
#280 = FILL_AREA_STYLE_COLOUR ( '', #314 ) ;
#281 = ORIENTED_EDGE ( 'NONE', *, *, #65, .T. ) ;
#282 = EDGE_CURVE ( 'NONE', #202, #288, #169, .T. ) ;
#283 = VERTEX_POINT ( 'NONE', #74 ) ;
#284 = AXIS2_PLACEMENT_3D ( 'NONE', #160, #266, #187 ) ;
#285 = ORIENTED_EDGE ( 'NONE', *, *, #218, .F. ) ;
#286 = APPLICATION_CONTEXT ( 'automotive_design' ) ;
#287 = VERTEX_POINT ( 'NONE', #192 ) ;
#288 = VERTEX_POINT ( 'NONE', #224 ) ;
#289 = CARTESIAN_POINT ( 'NONE',  ( 0.0000000000000000000, 0.0000000000000000000, 0.0000000000000000000 ) ) ;
#290 = ORIENTED_EDGE ( 'NONE', *, *, #218, .T. ) ;
#291 = CYLINDRICAL_SURFACE ( 'NONE', #31, 0.02949797250000000398 ) ;
#292 = CONICAL_SURFACE ( 'NONE', #221, 0.06374000000000018540, 0.7853981633974522758 ) ;
#293 = DIRECTION ( 'NONE',  ( -1.000000000000000000, 0.0000000000000000000, 0.0000000000000000000 ) ) ;
#294 = PRODUCT_DEFINITION ( 'UNKNOWN', '', #123, #111 ) ;
#295 = DIRECTION ( 'NONE',  ( -1.000000000000000000, 0.0000000000000000000, 1.224646799147352961E-16 ) ) ;
#296 = EDGE_LOOP ( 'NONE', ( #130, #44, #233, #204 ) ) ;
#297 = DIRECTION ( 'NONE',  ( -1.000000000000000000, 0.0000000000000000000, 0.0000000000000000000 ) ) ;
#298 = VECTOR ( 'NONE', #45, 39.37007874015748854 ) ;
#299 = PRODUCT_RELATED_PRODUCT_CATEGORY ( 'part', '', ( #106 ) ) ;
#300 = DIRECTION ( 'NONE',  ( 1.224646799147353207E-16, 0.0000000000000000000, 1.000000000000000000 ) ) ;
#301 = ORIENTED_EDGE ( 'NONE', *, *, #121, .T. ) ;
#302 = LINE ( 'NONE', #98, #76 ) ;
#303 = DIRECTION ( 'NONE',  ( 1.000000000000000000, 0.0000000000000000000, 0.0000000000000000000 ) ) ;
#304 = CONICAL_SURFACE ( 'NONE', #99, 0.02949797249999999704, 0.1745329251994338360 ) ;
#305 = CARTESIAN_POINT ( 'NONE',  ( 0.0000000000000000000, 0.0000000000000000000, 1.968503999999999809 ) ) ;
#306 = SURFACE_STYLE_FILL_AREA ( #222 ) ;
#307 = DIRECTION ( 'NONE',  ( 0.1736481776669313304, 0.0000000000000000000, 0.9848077530122077983 ) ) ;
#308 = COLOUR_RGB ( '',0.7921568627450980005, 0.8196078431372548767, 0.9333333333333333481 ) ;
#309 = VERTEX_POINT ( 'NONE', #5 ) ;
#310 = ORIENTED_EDGE ( 'NONE', *, *, #282, .F. ) ;
#311 = PRODUCT_CONTEXT ( 'NONE', #286, 'mechanical' ) ;
#312 = DIRECTION ( 'NONE',  ( 0.0000000000000000000, 1.000000000000000000, 0.0000000000000000000 ) ) ;
#313 = EDGE_CURVE ( 'NONE', #86, #309, #302, .T. ) ;
#314 = COLOUR_RGB ( '',0.7921568627450980005, 0.8196078431372548767, 0.9333333333333333481 ) ;
#315 = DIRECTION ( 'NONE',  ( -0.0000000000000000000, -0.0000000000000000000, -1.000000000000000000 ) ) ;
#316 = CARTESIAN_POINT ( 'NONE',  ( 3.612459760346164844E-18, 0.0000000000000000000, 0.02949797249999999704 ) ) ;
#317 = DIRECTION ( 'NONE',  ( -1.224646799147353207E-16, -0.0000000000000000000, -1.000000000000000000 ) ) ;
#318 = DIRECTION ( 'NONE',  ( 0.0000000000000000000, 0.0000000000000000000, 1.000000000000000000 ) ) ;
#319 = EDGE_CURVE ( 'NONE', #287, #39, #142, .T. ) ;
#320 = EDGE_LOOP ( 'NONE', ( #257, #212, #209, #153 ) ) ;
#321 = CARTESIAN_POINT ( 'NONE',  ( -0.02949797249999997623, 3.612459760346164844E-18, 0.1653539999999999732 ) ) ;
#322 = DIRECTION ( 'NONE',  ( 1.000000000000000000, 0.0000000000000000000, 0.0000000000000000000 ) ) ;
#323 = ORIENTED_EDGE ( 'NONE', *, *, #313, .F. ) ;
#324 = CIRCLE ( 'NONE', #236, 0.06374000000000018540 ) ;
#325 = DIRECTION ( 'NONE',  ( 1.000000000000000000, 0.0000000000000000000, 0.0000000000000000000 ) ) ;
ENDSEC;
END-ISO-10303-21;
