ISO-10303-21;
HEADER;
FILE_DESCRIPTION (( 'STEP AP214' ),
    '1' );
FILE_NAME ('84088.STEP',
    '2023-06-23T11:42:46',
    ( '' ),
    ( '' ),
    'SwSTEP 2.0',
    'SolidWorks 2023',
    '' );
FILE_SCHEMA (( 'AUTOMOTIVE_DESIGN' ));
ENDSEC;

DATA;
#1 = CONICAL_SURFACE ( 'NONE', #248, 0.03905000000000000138, 0.2617993877991500740 ) ;
#2 =( NAMED_UNIT ( * ) SI_UNIT ( $, .STERADIAN. ) SOLID_ANGLE_UNIT ( ) );
#3 = ORIENTED_EDGE ( 'NONE', *, *, #123, .T. ) ;
#4 = EDGE_LOOP ( 'NONE', ( #215, #150, #86, #144 ) ) ;
#5 = VERTEX_POINT ( 'NONE', #227 ) ;
#6 = PRODUCT_DEFINITION_SHAPE ( 'NONE', 'NONE',  #30 ) ;
#7 = CARTESIAN_POINT ( 'NONE',  ( 0.1249999999999999584, 2.500000000000000000, 1.530808498934191817E-17 ) ) ;
#8 = LENGTH_MEASURE_WITH_UNIT ( LENGTH_MEASURE( 0.02539999999999999897 ), #316 );
#9 = EDGE_LOOP ( 'NONE', ( #324, #97, #116, #340 ) ) ;
#10 = CARTESIAN_POINT ( 'NONE',  ( 0.000000000000000000, 0.000000000000000000, 0.000000000000000000 ) ) ;
#11 = STYLED_ITEM ( 'NONE', ( #16 ), #240 ) ;
#12 =( NAMED_UNIT ( * ) PLANE_ANGLE_UNIT ( ) SI_UNIT ( $, .RADIAN. ) );
#13 = DIRECTION ( 'NONE',  ( -0.000000000000000000, -1.000000000000000000, -0.000000000000000000 ) ) ;
#14 = FILL_AREA_STYLE ('',( #47 ) ) ;
#15 = DIRECTION ( 'NONE',  ( -0.000000000000000000, -1.000000000000000000, -0.000000000000000000 ) ) ;
#16 = PRESENTATION_STYLE_ASSIGNMENT (( #53 ) ) ;
#17 = SURFACE_SIDE_STYLE ('',( #333 ) ) ;
#18 = CIRCLE ( 'NONE', #252, 0.03905000000000000138 ) ;
#19 = AXIS2_PLACEMENT_3D ( 'NONE', #271, #110, #347 ) ;
#20 = FILL_AREA_STYLE_COLOUR ( '', #314 ) ;
#21 = CARTESIAN_POINT ( 'NONE',  ( 4.782245750670414162E-18, 0.000000000000000000, 0.03905000000000000138 ) ) ;
#22 = PLANE ( 'NONE',  #243 ) ;
#23 = DIRECTION ( 'NONE',  ( -1.000000000000000000, 0.000000000000000000, 0.000000000000000000 ) ) ;
#24 = ORIENTED_EDGE ( 'NONE', *, *, #111, .T. ) ;
#25 = CYLINDRICAL_SURFACE ( 'NONE', #114, 0.03905000000000000138 ) ;
#26 = AXIS2_PLACEMENT_3D ( 'NONE', #159, #332, #287 ) ;
#27 = CARTESIAN_POINT ( 'NONE',  ( -0.03905000000000000138, 0.3749999999999999445, 0.000000000000000000 ) ) ;
#28 = MECHANICAL_DESIGN_GEOMETRIC_PRESENTATION_REPRESENTATION (  '', ( #11 ), #95 ) ;
#29 = DIRECTION ( 'NONE',  ( -2.881521880346713429E-17, 1.000000000000000000, -0.000000000000000000 ) ) ;
#30 = PRODUCT_DEFINITION ( 'UNKNOWN', '', #257, #289 ) ;
#31 = EDGE_LOOP ( 'NONE', ( #167, #218, #146, #65 ) ) ;
#32 = APPLICATION_CONTEXT ( 'automotive_design' ) ;
#33 = ORIENTED_EDGE ( 'NONE', *, *, #334, .F. ) ;
#34 = CARTESIAN_POINT ( 'NONE',  ( -0.03905000000000000138, 0.3749999999999999445, 0.000000000000000000 ) ) ;
#35 = EDGE_LOOP ( 'NONE', ( #329, #288, #36, #245 ) ) ;
#36 = ORIENTED_EDGE ( 'NONE', *, *, #98, .T. ) ;
#37 = EDGE_CURVE ( 'NONE', #337, #343, #226, .T. ) ;
#38 = DIRECTION ( 'NONE',  ( -2.881521880346713429E-17, 1.000000000000000000, -0.000000000000000000 ) ) ;
#39 = CLOSED_SHELL ( 'NONE', ( #214, #277, #283, #240 ) ) ;
#40 =( NAMED_UNIT ( * ) SI_UNIT ( $, .STERADIAN. ) SOLID_ANGLE_UNIT ( ) );
#41 = PRESENTATION_LAYER_ASSIGNMENT (  '', '', ( #90 ) ) ;
#42 = LENGTH_MEASURE_WITH_UNIT ( LENGTH_MEASURE( 0.02539999999999999897 ), #122 );
#43 = CARTESIAN_POINT ( 'NONE',  ( -0.1250000000000001110, 2.500000000000000000, 0.000000000000000000 ) ) ;
#44 = DIRECTION ( 'NONE',  ( -2.881521880346713429E-17, 1.000000000000000000, -0.000000000000000000 ) ) ;
#45 = CIRCLE ( 'NONE', #219, 0.03905000000000000138 ) ;
#46 = AXIS2_PLACEMENT_3D ( 'NONE', #152, #102, #230 ) ;
#47 = FILL_AREA_STYLE_COLOUR ( '', #154 ) ;
#48 = SURFACE_SIDE_STYLE ('',( #179 ) ) ;
#49 = SURFACE_STYLE_FILL_AREA ( #163 ) ;
#50 =( GEOMETRIC_REPRESENTATION_CONTEXT ( 3 ) GLOBAL_UNCERTAINTY_ASSIGNED_CONTEXT ( ( #142 ) ) GLOBAL_UNIT_ASSIGNED_CONTEXT ( ( #356, #187, #276 ) ) REPRESENTATION_CONTEXT ( 'NONE', 'WORKASPACE' ) );
#51 = CARTESIAN_POINT ( 'NONE',  ( -6.123233995736766036E-17, 2.500000000000000000, 0.000000000000000000 ) ) ;
#52 = ADVANCED_FACE ( 'NONE', ( #170 ), #310, .F. ) ;
#53 = SURFACE_STYLE_USAGE ( .BOTH. , #185 ) ;
#54 = VERTEX_POINT ( 'NONE', #76 ) ;
#55 =( NAMED_UNIT ( * ) SI_UNIT ( $, .STERADIAN. ) SOLID_ANGLE_UNIT ( ) );
#56 =( GEOMETRIC_REPRESENTATION_CONTEXT ( 3 ) GLOBAL_UNCERTAINTY_ASSIGNED_CONTEXT ( ( #58 ) ) GLOBAL_UNIT_ASSIGNED_CONTEXT ( ( #282, #308, #2 ) ) REPRESENTATION_CONTEXT ( 'NONE', 'WORKASPACE' ) );
#57 = VECTOR ( 'NONE', #105, 39.37007874015748854 ) ;
#58 = UNCERTAINTY_MEASURE_WITH_UNIT (LENGTH_MEASURE( 1.000000000000000082E-05 ), #282, 'distance_accuracy_value', 'NONE');
#59 =( GEOMETRIC_REPRESENTATION_CONTEXT ( 3 ) GLOBAL_UNCERTAINTY_ASSIGNED_CONTEXT ( ( #339 ) ) GLOBAL_UNIT_ASSIGNED_CONTEXT ( ( #125, #12, #256 ) ) REPRESENTATION_CONTEXT ( 'NONE', 'WORKASPACE' ) );
#60 = FILL_AREA_STYLE ('',( #293 ) ) ;
#61 =( LENGTH_UNIT ( ) NAMED_UNIT ( * ) SI_UNIT ( $, .METRE. ) );
#62 = EDGE_CURVE ( 'NONE', #141, #54, #18, .T. ) ;
#63 = ORIENTED_EDGE ( 'NONE', *, *, #244, .T. ) ;
#64 = FACE_OUTER_BOUND ( 'NONE', #330, .T. ) ;
#65 = ORIENTED_EDGE ( 'NONE', *, *, #37, .F. ) ;
#66 = UNCERTAINTY_MEASURE_WITH_UNIT (LENGTH_MEASURE( 1.000000000000000082E-05 ), #292, 'distance_accuracy_value', 'NONE');
#67 = DIRECTION ( 'NONE',  ( 0.000000000000000000, 0.000000000000000000, 1.000000000000000000 ) ) ;
#68 = CYLINDRICAL_SURFACE ( 'NONE', #19, 0.03905000000000000138 ) ;
#69 = DIMENSIONAL_EXPONENTS ( 1.000000000000000000, 0.000000000000000000, 0.000000000000000000, 0.000000000000000000, 0.000000000000000000, 0.000000000000000000, 0.000000000000000000 ) ;
#70 = DIRECTION ( 'NONE',  ( -1.000000000000000000, 0.000000000000000000, 0.000000000000000000 ) ) ;
#71 = AXIS2_PLACEMENT_3D ( 'NONE', #313, #195, #70 ) ;
#72 = AXIS2_PLACEMENT_3D ( 'NONE', #209, #270, #23 ) ;
#73 = EDGE_CURVE ( 'NONE', #117, #199, #84, .T. ) ;
#74 = PRESENTATION_STYLE_ASSIGNMENT (( #182 ) ) ;
#75 = FILL_AREA_STYLE_COLOUR ( '', #296 ) ;
#76 = CARTESIAN_POINT ( 'NONE',  ( 0.000000000000000000, 0.000000000000000000, -0.03905000000000000138 ) ) ;
#77 = DIRECTION ( 'NONE',  ( -0.000000000000000000, -1.000000000000000000, -0.000000000000000000 ) ) ;
#78 = AXIS2_PLACEMENT_3D ( 'NONE', #198, #38, #172 ) ;
#79 = VECTOR ( 'NONE', #44, 39.37007874015748143 ) ;
#80 = DIRECTION ( 'NONE',  ( -0.000000000000000000, -1.000000000000000000, -0.000000000000000000 ) ) ;
#81 = SURFACE_STYLE_USAGE ( .BOTH. , #48 ) ;
#82 =( NAMED_UNIT ( * ) PLANE_ANGLE_UNIT ( ) SI_UNIT ( $, .RADIAN. ) );
#83 = LINE ( 'NONE', #323, #264 ) ;
#84 = CIRCLE ( 'NONE', #128, 0.03905000000000000138 ) ;
#85 = CARTESIAN_POINT ( 'NONE',  ( -9.243051019064479102E-18, 0.6957697669105442628, 0.000000000000000000 ) ) ;
#86 = ORIENTED_EDGE ( 'NONE', *, *, #255, .T. ) ;
#87 = DIRECTION ( 'NONE',  ( -1.000000000000000000, 0.000000000000000000, 0.000000000000000000 ) ) ;
#88 = CARTESIAN_POINT ( 'NONE',  ( 7.582401355855259480E-33, 0.3749999999999999445, 0.000000000000000000 ) ) ;
#89 = AXIS2_PLACEMENT_3D ( 'NONE', #51, #156, #268 ) ;
#90 = STYLED_ITEM ( 'NONE', ( #265 ), #283 ) ;
#91 = CARTESIAN_POINT ( 'NONE',  ( -0.1250000000000000555, 0.6957697669105442628, 0.000000000000000000 ) ) ;
#92 = DIRECTION ( 'NONE',  ( 0.000000000000000000, 1.000000000000000000, 0.000000000000000000 ) ) ;
#93 = SURFACE_STYLE_USAGE ( .BOTH. , #17 ) ;
#94 = AXIS2_PLACEMENT_3D ( 'NONE', #319, #261, #317 ) ;
#95 =( GEOMETRIC_REPRESENTATION_CONTEXT ( 3 ) GLOBAL_UNCERTAINTY_ASSIGNED_CONTEXT ( ( #284 ) ) GLOBAL_UNIT_ASSIGNED_CONTEXT ( ( #273, #205, #259 ) ) REPRESENTATION_CONTEXT ( 'NONE', 'WORKASPACE' ) );
#96 = CYLINDRICAL_SURFACE ( 'NONE', #78, 0.1250000000000000278 ) ;
#97 = ORIENTED_EDGE ( 'NONE', *, *, #260, .T. ) ;
#98 = EDGE_CURVE ( 'NONE', #199, #286, #304, .T. ) ;
#99 = AXIS2_PLACEMENT_3D ( 'NONE', #135, #238, #355 ) ;
#100 = AXIS2_PLACEMENT_3D ( 'NONE', #85, #29, #280 ) ;
#101 = CARTESIAN_POINT ( 'NONE',  ( 7.582401355855259480E-33, 0.3749999999999999445, 0.000000000000000000 ) ) ;
#102 = DIRECTION ( 'NONE',  ( -2.881521880346713429E-17, 1.000000000000000000, -0.000000000000000000 ) ) ;
#103 = FACE_OUTER_BOUND ( 'NONE', #315, .T. ) ;
#104 =( GEOMETRIC_REPRESENTATION_CONTEXT ( 3 ) GLOBAL_UNCERTAINTY_ASSIGNED_CONTEXT ( ( #318 ) ) GLOBAL_UNIT_ASSIGNED_CONTEXT ( ( #203, #165, #124 ) ) REPRESENTATION_CONTEXT ( 'NONE', 'WORKASPACE' ) );
#105 = DIRECTION ( 'NONE',  ( 0.2588190451025212946, 0.9659258262890682012, 3.169619151431772337E-17 ) ) ;
#106 = SURFACE_STYLE_FILL_AREA ( #189 ) ;
#107 =( LENGTH_UNIT ( ) NAMED_UNIT ( * ) SI_UNIT ( $, .METRE. ) );
#108 = MECHANICAL_DESIGN_GEOMETRIC_PRESENTATION_REPRESENTATION (  '', ( #90 ), #104 ) ;
#109 = ORIENTED_EDGE ( 'NONE', *, *, #73, .F. ) ;
#110 = DIRECTION ( 'NONE',  ( -0.000000000000000000, -1.000000000000000000, -0.000000000000000000 ) ) ;
#111 = EDGE_CURVE ( 'NONE', #117, #157, #192, .T. ) ;
#112 = EDGE_LOOP ( 'NONE', ( #200, #109 ) ) ;
#113 = MANIFOLD_SOLID_BREP ( 'Revolve - Tool Body (Reduced Cut Diameter)', #290 ) ;
#114 = AXIS2_PLACEMENT_3D ( 'NONE', #190, #15, #216 ) ;
#115 = ADVANCED_FACE ( 'NONE', ( #103 ), #1, .T. ) ;
#116 = ORIENTED_EDGE ( 'NONE', *, *, #194, .F. ) ;
#117 = VERTEX_POINT ( 'NONE', #225 ) ;
#118 = ORIENTED_EDGE ( 'NONE', *, *, #37, .T. ) ;
#119 = STYLED_ITEM ( 'NONE', ( #285 ), #214 ) ;
#120 = CARTESIAN_POINT ( 'NONE',  ( 0.1250000000000000000, 2.500000000000000000, 0.000000000000000000 ) ) ;
#121 = ORIENTED_EDGE ( 'NONE', *, *, #98, .F. ) ;
#122 =( LENGTH_UNIT ( ) NAMED_UNIT ( * ) SI_UNIT ( $, .METRE. ) );
#123 = EDGE_CURVE ( 'NONE', #199, #117, #191, .T. ) ;
#124 =( NAMED_UNIT ( * ) SI_UNIT ( $, .STERADIAN. ) SOLID_ANGLE_UNIT ( ) );
#125 =( CONVERSION_BASED_UNIT ( 'INCH', #297 ) LENGTH_UNIT ( ) NAMED_UNIT ( #127 ) );
#126 =( NAMED_UNIT ( * ) PLANE_ANGLE_UNIT ( ) SI_UNIT ( $, .RADIAN. ) );
#127 = DIMENSIONAL_EXPONENTS ( 1.000000000000000000, 0.000000000000000000, 0.000000000000000000, 0.000000000000000000, 0.000000000000000000, 0.000000000000000000, 0.000000000000000000 ) ;
#128 = AXIS2_PLACEMENT_3D ( 'NONE', #131, #178, #272 ) ;
#129 = CARTESIAN_POINT ( 'NONE',  ( 0.1249999999999999861, 0.6957697669105442628, 1.530808498934191817E-17 ) ) ;
#130 = DIRECTION ( 'NONE',  ( 0.000000000000000000, 0.000000000000000000, -1.000000000000000000 ) ) ;
#131 = CARTESIAN_POINT ( 'NONE',  ( 7.582401355855259480E-33, 0.3749999999999999445, 0.000000000000000000 ) ) ;
#132 =( GEOMETRIC_REPRESENTATION_CONTEXT ( 3 ) GLOBAL_UNCERTAINTY_ASSIGNED_CONTEXT ( ( #294 ) ) GLOBAL_UNIT_ASSIGNED_CONTEXT ( ( #327, #82, #55 ) ) REPRESENTATION_CONTEXT ( 'NONE', 'WORKASPACE' ) );
#133 = COLOUR_RGB ( '',1.000000000000000000, 0.000000000000000000, 0.000000000000000000 ) ;
#134 = ADVANCED_FACE ( 'NONE', ( #354 ), #302, .T. ) ;
#135 = CARTESIAN_POINT ( 'NONE',  ( 0.000000000000000000, 0.3750000000000000555, 0.000000000000000000 ) ) ;
#136 = CARTESIAN_POINT ( 'NONE',  ( 0.1250000000000000278, 2.500000000000000000, 1.530808498934192125E-17 ) ) ;
#137 = STYLED_ITEM ( 'NONE', ( #359 ), #113 ) ;
#138 = VECTOR ( 'NONE', #341, 39.37007874015748143 ) ;
#139 = LINE ( 'NONE', #7, #79 ) ;
#140 = SURFACE_SIDE_STYLE ('',( #106 ) ) ;
#141 = VERTEX_POINT ( 'NONE', #21 ) ;
#142 = UNCERTAINTY_MEASURE_WITH_UNIT (LENGTH_MEASURE( 1.000000000000000082E-05 ), #356, 'distance_accuracy_value', 'NONE');
#143 = PRESENTATION_LAYER_ASSIGNMENT (  '', '', ( #137 ) ) ;
#144 = ORIENTED_EDGE ( 'NONE', *, *, #62, .F. ) ;
#145 = AXIS2_PLACEMENT_3D ( 'NONE', #269, #208, #130 ) ;
#146 = ORIENTED_EDGE ( 'NONE', *, *, #350, .T. ) ;
#147 = SURFACE_SIDE_STYLE ('',( #278 ) ) ;
#148 = FILL_AREA_STYLE ('',( #20 ) ) ;
#149 = DIMENSIONAL_EXPONENTS ( 1.000000000000000000, 0.000000000000000000, 0.000000000000000000, 0.000000000000000000, 0.000000000000000000, 0.000000000000000000, 0.000000000000000000 ) ;
#150 = ORIENTED_EDGE ( 'NONE', *, *, #181, .T. ) ;
#151 = EDGE_CURVE ( 'NONE', #251, #5, #357, .T. ) ;
#152 = CARTESIAN_POINT ( 'NONE',  ( -6.123233995736766036E-17, 2.500000000000000000, 0.000000000000000000 ) ) ;
#153 = COLOUR_RGB ( '',0.7921568627450980005, 0.8196078431372548767, 0.9333333333333333481 ) ;
#154 = COLOUR_RGB ( '',1.000000000000000000, 0.000000000000000000, 0.000000000000000000 ) ;
#155 = SURFACE_SIDE_STYLE ('',( #49 ) ) ;
#156 = DIRECTION ( 'NONE',  ( -2.881521880346713429E-17, 1.000000000000000000, -0.000000000000000000 ) ) ;
#157 = VERTEX_POINT ( 'NONE', #129 ) ;
#158 = FILL_AREA_STYLE_COLOUR ( '', #153 ) ;
#159 = CARTESIAN_POINT ( 'NONE',  ( 0.000000000000000000, 0.000000000000000000, 0.000000000000000000 ) ) ;
#160 = MECHANICAL_DESIGN_GEOMETRIC_PRESENTATION_REPRESENTATION (  '', ( #119 ), #132 ) ;
#161 = FACE_OUTER_BOUND ( 'NONE', #237, .T. ) ;
#162 = AXIS2_PLACEMENT_3D ( 'NONE', #196, #171, #174 ) ;
#163 = FILL_AREA_STYLE ('',( #158 ) ) ;
#164 = FACE_OUTER_BOUND ( 'NONE', #4, .T. ) ;
#165 =( NAMED_UNIT ( * ) PLANE_ANGLE_UNIT ( ) SI_UNIT ( $, .RADIAN. ) );
#166 = PRESENTATION_LAYER_ASSIGNMENT (  '', '', ( #176 ) ) ;
#167 = ORIENTED_EDGE ( 'NONE', *, *, #235, .F. ) ;
#168 = PRODUCT ( '84088', '84088', '', ( #175 ) ) ;
#169 = APPLICATION_PROTOCOL_DEFINITION ( 'draft international standard', 'automotive_design', 1998, #353 ) ;
#170 = FACE_OUTER_BOUND ( 'NONE', #112, .T. ) ;
#171 = DIRECTION ( 'NONE',  ( -2.881521880346713429E-17, 1.000000000000000000, -0.000000000000000000 ) ) ;
#172 = DIRECTION ( 'NONE',  ( -1.000000000000000000, 0.000000000000000000, 0.000000000000000000 ) ) ;
#173 = ORIENTED_EDGE ( 'NONE', *, *, #244, .F. ) ;
#174 = DIRECTION ( 'NONE',  ( -1.000000000000000000, 0.000000000000000000, 0.000000000000000000 ) ) ;
#175 = PRODUCT_CONTEXT ( 'NONE', #353, 'mechanical' ) ;
#176 = STYLED_ITEM ( 'NONE', ( #300 ), #277 ) ;
#177 = LINE ( 'NONE', #298, #253 ) ;
#178 = DIRECTION ( 'NONE',  ( -2.881521880346713429E-17, 1.000000000000000000, -0.000000000000000000 ) ) ;
#179 = SURFACE_STYLE_FILL_AREA ( #14 ) ;
#180 = DIMENSIONAL_EXPONENTS ( 1.000000000000000000, 0.000000000000000000, 0.000000000000000000, 0.000000000000000000, 0.000000000000000000, 0.000000000000000000, 0.000000000000000000 ) ;
#181 = EDGE_CURVE ( 'NONE', #5, #251, #45, .T. ) ;
#182 = SURFACE_STYLE_USAGE ( .BOTH. , #147 ) ;
#183 = PLANE ( 'NONE',  #145 ) ;
#184 =( LENGTH_UNIT ( ) NAMED_UNIT ( * ) SI_UNIT ( $, .METRE. ) );
#185 = SURFACE_SIDE_STYLE ('',( #262 ) ) ;
#186 = ORIENTED_EDGE ( 'NONE', *, *, #350, .F. ) ;
#187 =( NAMED_UNIT ( * ) PLANE_ANGLE_UNIT ( ) SI_UNIT ( $, .RADIAN. ) );
#188 = EDGE_LOOP ( 'NONE', ( #311, #274 ) ) ;
#189 = FILL_AREA_STYLE ('',( #75 ) ) ;
#190 = CARTESIAN_POINT ( 'NONE',  ( 0.000000000000000000, 0.000000000000000000, 0.000000000000000000 ) ) ;
#191 = CIRCLE ( 'NONE', #336, 0.03905000000000000138 ) ;
#192 = LINE ( 'NONE', #266, #57 ) ;
#193 = CARTESIAN_POINT ( 'NONE',  ( 0.000000000000000000, 0.3750000000000000555, 0.000000000000000000 ) ) ;
#194 = EDGE_CURVE ( 'NONE', #54, #141, #242, .T. ) ;
#195 = DIRECTION ( 'NONE',  ( -2.881521880346713429E-17, 1.000000000000000000, -0.000000000000000000 ) ) ;
#196 = CARTESIAN_POINT ( 'NONE',  ( 7.582401355855259480E-33, 0.3749999999999999445, 0.000000000000000000 ) ) ;
#197 = PRESENTATION_LAYER_ASSIGNMENT (  '', '', ( #221 ) ) ;
#198 = CARTESIAN_POINT ( 'NONE',  ( -6.123233995736766036E-17, 2.500000000000000000, 0.000000000000000000 ) ) ;
#199 = VERTEX_POINT ( 'NONE', #34 ) ;
#200 = ORIENTED_EDGE ( 'NONE', *, *, #123, .F. ) ;
#201 = DIMENSIONAL_EXPONENTS ( 1.000000000000000000, 0.000000000000000000, 0.000000000000000000, 0.000000000000000000, 0.000000000000000000, 0.000000000000000000, 0.000000000000000000 ) ;
#202 = DIRECTION ( 'NONE',  ( -2.881521880346713429E-17, 1.000000000000000000, -0.000000000000000000 ) ) ;
#203 =( CONVERSION_BASED_UNIT ( 'INCH', #207 ) LENGTH_UNIT ( ) NAMED_UNIT ( #201 ) );
#204 = AXIS2_PLACEMENT_3D ( 'NONE', #10, #67, #295 ) ;
#205 =( NAMED_UNIT ( * ) PLANE_ANGLE_UNIT ( ) SI_UNIT ( $, .RADIAN. ) );
#206 = DIRECTION ( 'NONE',  ( -2.881521880346713429E-17, 1.000000000000000000, -0.000000000000000000 ) ) ;
#207 = LENGTH_MEASURE_WITH_UNIT ( LENGTH_MEASURE( 0.02539999999999999897 ), #61 );
#208 = DIRECTION ( 'NONE',  ( 0.000000000000000000, -1.000000000000000000, -0.000000000000000000 ) ) ;
#209 = CARTESIAN_POINT ( 'NONE',  ( -9.243051019064479102E-18, 0.6957697669105442628, 0.000000000000000000 ) ) ;
#210 = SURFACE_STYLE_USAGE ( .BOTH. , #155 ) ;
#211 = ADVANCED_FACE ( 'NONE', ( #342 ), #96, .T. ) ;
#212 = DIRECTION ( 'NONE',  ( 1.000000000000000000, 2.881521880346713429E-17, 0.000000000000000000 ) ) ;
#213 = ORIENTED_EDGE ( 'NONE', *, *, #62, .T. ) ;
#214 = ADVANCED_FACE ( 'NONE', ( #312 ), #25, .T. ) ;
#215 = ORIENTED_EDGE ( 'NONE', *, *, #260, .F. ) ;
#216 = DIRECTION ( 'NONE',  ( 0.000000000000000000, 0.000000000000000000, -1.000000000000000000 ) ) ;
#217 = FILL_AREA_STYLE ('',( #247 ) ) ;
#218 = ORIENTED_EDGE ( 'NONE', *, *, #325, .T. ) ;
#219 = AXIS2_PLACEMENT_3D ( 'NONE', #229, #345, #250 ) ;
#220 = ADVANCED_FACE ( 'NONE', ( #161 ), #224, .F. ) ;
#221 = STYLED_ITEM ( 'NONE', ( #74 ), #351 ) ;
#222 = EDGE_LOOP ( 'NONE', ( #281, #279, #173, #186 ) ) ;
#223 = DIMENSIONAL_EXPONENTS ( 1.000000000000000000, 0.000000000000000000, 0.000000000000000000, 0.000000000000000000, 0.000000000000000000, 0.000000000000000000, 0.000000000000000000 ) ;
#224 = PLANE ( 'NONE',  #306 ) ;
#225 = CARTESIAN_POINT ( 'NONE',  ( 0.03905000000000000138, 0.3749999999999999445, 1.004516537000616463E-17 ) ) ;
#226 = CIRCLE ( 'NONE', #71, 0.1250000000000000555 ) ;
#227 = CARTESIAN_POINT ( 'NONE',  ( 4.782245750670414162E-18, 0.3750000000000000555, 0.03905000000000000138 ) ) ;
#228 = SURFACE_STYLE_USAGE ( .BOTH. , #140 ) ;
#229 = CARTESIAN_POINT ( 'NONE',  ( 0.000000000000000000, 0.3750000000000000555, 0.000000000000000000 ) ) ;
#230 = DIRECTION ( 'NONE',  ( -1.000000000000000000, 0.000000000000000000, 0.000000000000000000 ) ) ;
#231 = SHAPE_DEFINITION_REPRESENTATION ( #6, #326 ) ;
#232 = DIRECTION ( 'NONE',  ( -1.000000000000000000, 0.000000000000000000, 0.000000000000000000 ) ) ;
#233 = LINE ( 'NONE', #43, #138 ) ;
#234 = LENGTH_MEASURE_WITH_UNIT ( LENGTH_MEASURE( 0.02539999999999999897 ), #303 );
#235 = EDGE_CURVE ( 'NONE', #157, #337, #139, .T. ) ;
#236 = CIRCLE ( 'NONE', #72, 0.1250000000000000278 ) ;
#237 = EDGE_LOOP ( 'NONE', ( #63, #118 ) ) ;
#238 = DIRECTION ( 'NONE',  ( -0.000000000000000000, -1.000000000000000000, -0.000000000000000000 ) ) ;
#239 = LENGTH_MEASURE_WITH_UNIT ( LENGTH_MEASURE( 0.02539999999999999897 ), #184 );
#240 = ADVANCED_FACE ( 'NONE', ( #64 ), #183, .T. ) ;
#241 = DIRECTION ( 'NONE',  ( 2.881521880346713429E-17, -1.000000000000000000, 0.000000000000000000 ) ) ;
#242 = CIRCLE ( 'NONE', #26, 0.03905000000000000138 ) ;
#243 = AXIS2_PLACEMENT_3D ( 'NONE', #193, #92, #307 ) ;
#244 = EDGE_CURVE ( 'NONE', #343, #337, #249, .T. ) ;
#245 = ORIENTED_EDGE ( 'NONE', *, *, #325, .F. ) ;
#246 = ORIENTED_EDGE ( 'NONE', *, *, #194, .T. ) ;
#247 = FILL_AREA_STYLE_COLOUR ( '', #133 ) ;
#248 = AXIS2_PLACEMENT_3D ( 'NONE', #88, #206, #232 ) ;
#249 = CIRCLE ( 'NONE', #46, 0.1250000000000000555 ) ;
#250 = DIRECTION ( 'NONE',  ( 0.000000000000000000, 0.000000000000000000, -1.000000000000000000 ) ) ;
#251 = VERTEX_POINT ( 'NONE', #346 ) ;
#252 = AXIS2_PLACEMENT_3D ( 'NONE', #322, #13, #348 ) ;
#253 = VECTOR ( 'NONE', #80, 39.37007874015748143 ) ;
#254 = DIMENSIONAL_EXPONENTS ( 1.000000000000000000, 0.000000000000000000, 0.000000000000000000, 0.000000000000000000, 0.000000000000000000, 0.000000000000000000, 0.000000000000000000 ) ;
#255 = EDGE_CURVE ( 'NONE', #251, #54, #83, .T. ) ;
#256 =( NAMED_UNIT ( * ) SI_UNIT ( $, .STERADIAN. ) SOLID_ANGLE_UNIT ( ) );
#257 = PRODUCT_DEFINITION_FORMATION_WITH_SPECIFIED_SOURCE ( 'ANY', '', #168, .NOT_KNOWN. ) ;
#258 = APPLICATION_PROTOCOL_DEFINITION ( 'draft international standard', 'automotive_design', 1998, #32 ) ;
#259 =( NAMED_UNIT ( * ) SI_UNIT ( $, .STERADIAN. ) SOLID_ANGLE_UNIT ( ) );
#260 = EDGE_CURVE ( 'NONE', #5, #141, #177, .T. ) ;
#261 = DIRECTION ( 'NONE',  ( -2.881521880346713429E-17, 1.000000000000000000, 0.000000000000000000 ) ) ;
#262 = SURFACE_STYLE_FILL_AREA ( #148 ) ;
#263 = DIRECTION ( 'NONE',  ( -0.2588190451025214611, 0.9659258262890682012, 0.000000000000000000 ) ) ;
#264 = VECTOR ( 'NONE', #77, 39.37007874015748143 ) ;
#265 = PRESENTATION_STYLE_ASSIGNMENT (( #93 ) ) ;
#266 = CARTESIAN_POINT ( 'NONE',  ( 0.03905000000000000138, 0.3749999999999999445, 4.782245750670414162E-18 ) ) ;
#267 = PRODUCT_RELATED_PRODUCT_CATEGORY ( 'part', '', ( #168 ) ) ;
#268 = DIRECTION ( 'NONE',  ( -1.000000000000000000, 0.000000000000000000, 0.000000000000000000 ) ) ;
#269 = CARTESIAN_POINT ( 'NONE',  ( 0.000000000000000000, 0.000000000000000000, 0.000000000000000000 ) ) ;
#270 = DIRECTION ( 'NONE',  ( -2.881521880346713429E-17, 1.000000000000000000, -0.000000000000000000 ) ) ;
#271 = CARTESIAN_POINT ( 'NONE',  ( 0.000000000000000000, 0.000000000000000000, 0.000000000000000000 ) ) ;
#272 = DIRECTION ( 'NONE',  ( -1.000000000000000000, 0.000000000000000000, 0.000000000000000000 ) ) ;
#273 =( CONVERSION_BASED_UNIT ( 'INCH', #234 ) LENGTH_UNIT ( ) NAMED_UNIT ( #254 ) );
#274 = ORIENTED_EDGE ( 'NONE', *, *, #181, .F. ) ;
#275 = VECTOR ( 'NONE', #263, 39.37007874015747433 ) ;
#276 =( NAMED_UNIT ( * ) SI_UNIT ( $, .STERADIAN. ) SOLID_ANGLE_UNIT ( ) );
#277 = ADVANCED_FACE ( 'NONE', ( #352 ), #22, .T. ) ;
#278 = SURFACE_STYLE_FILL_AREA ( #60 ) ;
#279 = ORIENTED_EDGE ( 'NONE', *, *, #235, .T. ) ;
#280 = DIRECTION ( 'NONE',  ( -1.000000000000000000, 0.000000000000000000, 0.000000000000000000 ) ) ;
#281 = ORIENTED_EDGE ( 'NONE', *, *, #334, .T. ) ;
#282 =( CONVERSION_BASED_UNIT ( 'INCH', #42 ) LENGTH_UNIT ( ) NAMED_UNIT ( #223 ) );
#283 = ADVANCED_FACE ( 'NONE', ( #164 ), #68, .T. ) ;
#284 = UNCERTAINTY_MEASURE_WITH_UNIT (LENGTH_MEASURE( 1.000000000000000082E-05 ), #273, 'distance_accuracy_value', 'NONE');
#285 = PRESENTATION_STYLE_ASSIGNMENT (( #228 ) ) ;
#286 = VERTEX_POINT ( 'NONE', #91 ) ;
#287 = DIRECTION ( 'NONE',  ( 0.000000000000000000, 0.000000000000000000, -1.000000000000000000 ) ) ;
#288 = ORIENTED_EDGE ( 'NONE', *, *, #73, .T. ) ;
#289 = PRODUCT_DEFINITION_CONTEXT ( 'detailed design', #32, 'design' ) ;
#290 = CLOSED_SHELL ( 'NONE', ( #134, #115, #52, #358, #211, #220 ) ) ;
#291 = MECHANICAL_DESIGN_GEOMETRIC_PRESENTATION_REPRESENTATION (  '', ( #221 ), #59 ) ;
#292 =( CONVERSION_BASED_UNIT ( 'INCH', #8 ) LENGTH_UNIT ( ) NAMED_UNIT ( #180 ) );
#293 = FILL_AREA_STYLE_COLOUR ( '', #338 ) ;
#294 = UNCERTAINTY_MEASURE_WITH_UNIT (LENGTH_MEASURE( 1.000000000000000082E-05 ), #327, 'distance_accuracy_value', 'NONE');
#295 = DIRECTION ( 'NONE',  ( 1.000000000000000000, 0.000000000000000000, 0.000000000000000000 ) ) ;
#296 = COLOUR_RGB ( '',1.000000000000000000, 0.000000000000000000, 0.000000000000000000 ) ;
#297 = LENGTH_MEASURE_WITH_UNIT ( LENGTH_MEASURE( 0.02539999999999999897 ), #299 );
#298 = CARTESIAN_POINT ( 'NONE',  ( 4.782245750670414162E-18, 0.000000000000000000, 0.03905000000000000138 ) ) ;
#299 =( LENGTH_UNIT ( ) NAMED_UNIT ( * ) SI_UNIT ( $, .METRE. ) );
#300 = PRESENTATION_STYLE_ASSIGNMENT (( #81 ) ) ;
#301 = LENGTH_MEASURE_WITH_UNIT ( LENGTH_MEASURE( 0.02539999999999999897 ), #107 );
#302 = CYLINDRICAL_SURFACE ( 'NONE', #89, 0.1250000000000000278 ) ;
#303 =( LENGTH_UNIT ( ) NAMED_UNIT ( * ) SI_UNIT ( $, .METRE. ) );
#304 = LINE ( 'NONE', #27, #275 ) ;
#305 = MECHANICAL_DESIGN_GEOMETRIC_PRESENTATION_REPRESENTATION (  '', ( #137 ), #56 ) ;
#306 = AXIS2_PLACEMENT_3D ( 'NONE', #120, #241, #212 ) ;
#307 = DIRECTION ( 'NONE',  ( 0.000000000000000000, -0.000000000000000000, 1.000000000000000000 ) ) ;
#308 =( NAMED_UNIT ( * ) PLANE_ANGLE_UNIT ( ) SI_UNIT ( $, .RADIAN. ) );
#309 = CARTESIAN_POINT ( 'NONE',  ( -0.1250000000000001388, 2.500000000000000000, 0.000000000000000000 ) ) ;
#310 = PLANE ( 'NONE',  #94 ) ;
#311 = ORIENTED_EDGE ( 'NONE', *, *, #151, .F. ) ;
#312 = FACE_OUTER_BOUND ( 'NONE', #9, .T. ) ;
#313 = CARTESIAN_POINT ( 'NONE',  ( -6.123233995736766036E-17, 2.500000000000000000, 0.000000000000000000 ) ) ;
#314 = COLOUR_RGB ( '',1.000000000000000000, 0.000000000000000000, 0.000000000000000000 ) ;
#315 = EDGE_LOOP ( 'NONE', ( #3, #24, #33, #121 ) ) ;
#316 =( LENGTH_UNIT ( ) NAMED_UNIT ( * ) SI_UNIT ( $, .METRE. ) );
#317 = DIRECTION ( 'NONE',  ( -1.000000000000000000, -2.881521880346713429E-17, 0.000000000000000000 ) ) ;
#318 = UNCERTAINTY_MEASURE_WITH_UNIT (LENGTH_MEASURE( 1.000000000000000082E-05 ), #203, 'distance_accuracy_value', 'NONE');
#319 = CARTESIAN_POINT ( 'NONE',  ( 1.621193619735516857E-35, 0.3750000000000000555, 0.000000000000000000 ) ) ;
#320 = PRESENTATION_LAYER_ASSIGNMENT (  '', '', ( #119 ) ) ;
#321 = MECHANICAL_DESIGN_GEOMETRIC_PRESENTATION_REPRESENTATION (  '', ( #176 ), #50 ) ;
#322 = CARTESIAN_POINT ( 'NONE',  ( 0.000000000000000000, 0.000000000000000000, 0.000000000000000000 ) ) ;
#323 = CARTESIAN_POINT ( 'NONE',  ( 0.000000000000000000, 0.000000000000000000, -0.03905000000000000138 ) ) ;
#324 = ORIENTED_EDGE ( 'NONE', *, *, #151, .T. ) ;
#325 = EDGE_CURVE ( 'NONE', #157, #286, #349, .T. ) ;
#326 = ADVANCED_BREP_SHAPE_REPRESENTATION ( '84088', ( #351, #113, #204 ), #344 ) ;
#327 =( CONVERSION_BASED_UNIT ( 'INCH', #301 ) LENGTH_UNIT ( ) NAMED_UNIT ( #149 ) );
#328 = PRESENTATION_LAYER_ASSIGNMENT (  '', '', ( #11 ) ) ;
#329 = ORIENTED_EDGE ( 'NONE', *, *, #111, .F. ) ;
#330 = EDGE_LOOP ( 'NONE', ( #246, #213 ) ) ;
#331 = CONICAL_SURFACE ( 'NONE', #162, 0.03905000000000000138, 0.2617993877991500740 ) ;
#332 = DIRECTION ( 'NONE',  ( -0.000000000000000000, -1.000000000000000000, -0.000000000000000000 ) ) ;
#333 = SURFACE_STYLE_FILL_AREA ( #217 ) ;
#334 = EDGE_CURVE ( 'NONE', #286, #157, #236, .T. ) ;
#335 = FACE_OUTER_BOUND ( 'NONE', #35, .T. ) ;
#336 = AXIS2_PLACEMENT_3D ( 'NONE', #101, #202, #87 ) ;
#337 = VERTEX_POINT ( 'NONE', #136 ) ;
#338 = COLOUR_RGB ( '',0.7921568627450980005, 0.8196078431372548767, 0.9333333333333333481 ) ;
#339 = UNCERTAINTY_MEASURE_WITH_UNIT (LENGTH_MEASURE( 1.000000000000000082E-05 ), #125, 'distance_accuracy_value', 'NONE');
#340 = ORIENTED_EDGE ( 'NONE', *, *, #255, .F. ) ;
#341 = DIRECTION ( 'NONE',  ( -2.881521880346713429E-17, 1.000000000000000000, -0.000000000000000000 ) ) ;
#342 = FACE_OUTER_BOUND ( 'NONE', #31, .T. ) ;
#343 = VERTEX_POINT ( 'NONE', #309 ) ;
#344 =( GEOMETRIC_REPRESENTATION_CONTEXT ( 3 ) GLOBAL_UNCERTAINTY_ASSIGNED_CONTEXT ( ( #66 ) ) GLOBAL_UNIT_ASSIGNED_CONTEXT ( ( #292, #126, #40 ) ) REPRESENTATION_CONTEXT ( 'NONE', 'WORKASPACE' ) );
#345 = DIRECTION ( 'NONE',  ( -0.000000000000000000, -1.000000000000000000, -0.000000000000000000 ) ) ;
#346 = CARTESIAN_POINT ( 'NONE',  ( 0.000000000000000000, 0.3750000000000000555, -0.03905000000000000138 ) ) ;
#347 = DIRECTION ( 'NONE',  ( 0.000000000000000000, 0.000000000000000000, -1.000000000000000000 ) ) ;
#348 = DIRECTION ( 'NONE',  ( 0.000000000000000000, 0.000000000000000000, -1.000000000000000000 ) ) ;
#349 = CIRCLE ( 'NONE', #100, 0.1250000000000000278 ) ;
#350 = EDGE_CURVE ( 'NONE', #286, #343, #233, .T. ) ;
#351 = MANIFOLD_SOLID_BREP ( 'Revolve - Cutting Edge', #39 ) ;
#352 = FACE_OUTER_BOUND ( 'NONE', #188, .T. ) ;
#353 = APPLICATION_CONTEXT ( 'automotive_design' ) ;
#354 = FACE_OUTER_BOUND ( 'NONE', #222, .T. ) ;
#355 = DIRECTION ( 'NONE',  ( 0.000000000000000000, 0.000000000000000000, -1.000000000000000000 ) ) ;
#356 =( CONVERSION_BASED_UNIT ( 'INCH', #239 ) LENGTH_UNIT ( ) NAMED_UNIT ( #69 ) );
#357 = CIRCLE ( 'NONE', #99, 0.03905000000000000138 ) ;
#358 = ADVANCED_FACE ( 'NONE', ( #335 ), #331, .T. ) ;
#359 = PRESENTATION_STYLE_ASSIGNMENT (( #210 ) ) ;
ENDSEC;
END-ISO-10303-21;
