ISO-10303-21;
HEADER;
FILE_DESCRIPTION (( 'STEP AP214' ),
    '1' );
FILE_NAME ('83439.STEP',
    '2023-06-23T10:21:46',
    ( '' ),
    ( '' ),
    'SwSTEP 2.0',
    'SolidWorks 2023',
    '' );
FILE_SCHEMA (( 'AUTOMOTIVE_DESIGN' ));
ENDSEC;

DATA;
#1 = CARTESIAN_POINT ( 'NONE',  ( -0.3124999999999994449, 3.500000000000000000, 0.000000000000000000 ) ) ;
#2 = FACE_OUTER_BOUND ( 'NONE', #226, .T. ) ;
#3 = COLOUR_RGB ( '',1.000000000000000000, 0.000000000000000000, 0.000000000000000000 ) ;
#4 = MECHANICAL_DESIGN_GEOMETRIC_PRESENTATION_REPRESENTATION (  '', ( #299 ), #227 ) ;
#5 = DIRECTION ( 'NONE',  ( -1.000000000000000000, 0.000000000000000000, 0.000000000000000000 ) ) ;
#6 = ORIENTED_EDGE ( 'NONE', *, *, #206, .T. ) ;
#7 = ORIENTED_EDGE ( 'NONE', *, *, #163, .T. ) ;
#8 = ORIENTED_EDGE ( 'NONE', *, *, #279, .F. ) ;
#9 = ADVANCED_FACE ( 'NONE', ( #2 ), #83, .T. ) ;
#10 = VECTOR ( 'NONE', #148, 39.37007874015748143 ) ;
#11 = STYLED_ITEM ( 'NONE', ( #303 ), #128 ) ;
#12 = AXIS2_PLACEMENT_3D ( 'NONE', #96, #180, #213 ) ;
#13 = PRODUCT_DEFINITION ( 'UNKNOWN', '', #23, #215 ) ;
#14 =( CONVERSION_BASED_UNIT ( 'INCH', #66 ) LENGTH_UNIT ( ) NAMED_UNIT ( #192 ) );
#15 = DIRECTION ( 'NONE',  ( 1.360718665719282382E-16, 1.000000000000000000, -0.000000000000000000 ) ) ;
#16 = DIRECTION ( 'NONE',  ( 0.000000000000000000, 0.000000000000000000, -1.000000000000000000 ) ) ;
#17 = UNCERTAINTY_MEASURE_WITH_UNIT (LENGTH_MEASURE( 1.000000000000000082E-05 ), #14, 'distance_accuracy_value', 'NONE');
#18 = DIRECTION ( 'NONE',  ( -1.000000000000000000, 0.000000000000000000, 0.000000000000000000 ) ) ;
#19 = EDGE_CURVE ( 'NONE', #264, #289, #56, .T. ) ;
#20 = FILL_AREA_STYLE ('',( #309 ) ) ;
#21 = AXIS2_PLACEMENT_3D ( 'NONE', #158, #134, #16 ) ;
#22 = MANIFOLD_SOLID_BREP ( 'Revolve - Cutting Edge', #81 ) ;
#23 = PRODUCT_DEFINITION_FORMATION_WITH_SPECIFIED_SOURCE ( 'ANY', '', #124, .NOT_KNOWN. ) ;
#24 = SHAPE_DEFINITION_REPRESENTATION ( #116, #129 ) ;
#25 = SURFACE_SIDE_STYLE ('',( #205 ) ) ;
#26 = ORIENTED_EDGE ( 'NONE', *, *, #72, .F. ) ;
#27 = ORIENTED_EDGE ( 'NONE', *, *, #272, .T. ) ;
#28 = ORIENTED_EDGE ( 'NONE', *, *, #257, .F. ) ;
#29 = DIRECTION ( 'NONE',  ( 0.000000000000000000, 1.000000000000000000, 0.000000000000000000 ) ) ;
#30 = SURFACE_STYLE_FILL_AREA ( #143 ) ;
#31 = APPLICATION_PROTOCOL_DEFINITION ( 'draft international standard', 'automotive_design', 1998, #207 ) ;
#32 = AXIS2_PLACEMENT_3D ( 'NONE', #164, #29, #125 ) ;
#33 = DIRECTION ( 'NONE',  ( 0.000000000000000000, 0.000000000000000000, -1.000000000000000000 ) ) ;
#34 = MECHANICAL_DESIGN_GEOMETRIC_PRESENTATION_REPRESENTATION (  '', ( #11 ), #291 ) ;
#35 = CIRCLE ( 'NONE', #82, 0.3124999999999997224 ) ;
#36 = FILL_AREA_STYLE_COLOUR ( '', #197 ) ;
#37 = PLANE ( 'NONE',  #32 ) ;
#38 = SURFACE_SIDE_STYLE ('',( #301 ) ) ;
#39 =( CONVERSION_BASED_UNIT ( 'INCH', #276 ) LENGTH_UNIT ( ) NAMED_UNIT ( #43 ) );
#40 = LENGTH_MEASURE_WITH_UNIT ( LENGTH_MEASURE( 0.02539999999999999897 ), #187 );
#41 = PRESENTATION_LAYER_ASSIGNMENT (  '', '', ( #178 ) ) ;
#42 =( GEOMETRIC_REPRESENTATION_CONTEXT ( 3 ) GLOBAL_UNCERTAINTY_ASSIGNED_CONTEXT ( ( #49 ) ) GLOBAL_UNIT_ASSIGNED_CONTEXT ( ( #282, #46, #190 ) ) REPRESENTATION_CONTEXT ( 'NONE', 'WORKASPACE' ) );
#43 = DIMENSIONAL_EXPONENTS ( 1.000000000000000000, 0.000000000000000000, 0.000000000000000000, 0.000000000000000000, 0.000000000000000000, 0.000000000000000000, 0.000000000000000000 ) ;
#44 = SURFACE_SIDE_STYLE ('',( #297 ) ) ;
#45 = FILL_AREA_STYLE_COLOUR ( '', #145 ) ;
#46 =( NAMED_UNIT ( * ) PLANE_ANGLE_UNIT ( ) SI_UNIT ( $, .RADIAN. ) );
#47 = PRESENTATION_LAYER_ASSIGNMENT (  '', '', ( #299 ) ) ;
#48 = DIRECTION ( 'NONE',  ( -0.000000000000000000, -1.000000000000000000, -0.000000000000000000 ) ) ;
#49 = UNCERTAINTY_MEASURE_WITH_UNIT (LENGTH_MEASURE( 1.000000000000000082E-05 ), #282, 'distance_accuracy_value', 'NONE');
#50 = ORIENTED_EDGE ( 'NONE', *, *, #224, .F. ) ;
#51 = CARTESIAN_POINT ( 'NONE',  ( 0.3125000000000000000, 1.250000000000000000, 3.827021247335477694E-17 ) ) ;
#52 = ORIENTED_EDGE ( 'NONE', *, *, #206, .F. ) ;
#53 = SURFACE_STYLE_USAGE ( .BOTH. , #25 ) ;
#54 =( GEOMETRIC_REPRESENTATION_CONTEXT ( 3 ) GLOBAL_UNCERTAINTY_ASSIGNED_CONTEXT ( ( #61 ) ) GLOBAL_UNIT_ASSIGNED_CONTEXT ( ( #275, #184, #138 ) ) REPRESENTATION_CONTEXT ( 'NONE', 'WORKASPACE' ) );
#55 = EDGE_LOOP ( 'NONE', ( #194, #250 ) ) ;
#56 = LINE ( 'NONE', #121, #10 ) ;
#57 = CARTESIAN_POINT ( 'NONE',  ( 3.827021247335478926E-17, 1.250000000000000000, 0.3125000000000000000 ) ) ;
#58 =( CONVERSION_BASED_UNIT ( 'INCH', #270 ) LENGTH_UNIT ( ) NAMED_UNIT ( #74 ) );
#59 = CIRCLE ( 'NONE', #277, 0.3125000000000000000 ) ;
#60 = DIRECTION ( 'NONE',  ( 1.360718665719282382E-16, 1.000000000000000000, -0.000000000000000000 ) ) ;
#61 = UNCERTAINTY_MEASURE_WITH_UNIT (LENGTH_MEASURE( 1.000000000000000082E-05 ), #275, 'distance_accuracy_value', 'NONE');
#62 = APPLICATION_CONTEXT ( 'automotive_design' ) ;
#63 = ADVANCED_FACE ( 'NONE', ( #189 ), #37, .T. ) ;
#64 =( GEOMETRIC_REPRESENTATION_CONTEXT ( 3 ) GLOBAL_UNCERTAINTY_ASSIGNED_CONTEXT ( ( #252 ) ) GLOBAL_UNIT_ASSIGNED_CONTEXT ( ( #58, #265, #232 ) ) REPRESENTATION_CONTEXT ( 'NONE', 'WORKASPACE' ) );
#65 = AXIS2_PLACEMENT_3D ( 'NONE', #147, #196, #149 ) ;
#66 = LENGTH_MEASURE_WITH_UNIT ( LENGTH_MEASURE( 0.02539999999999999897 ), #211 );
#67 = CYLINDRICAL_SURFACE ( 'NONE', #21, 0.3125000000000000000 ) ;
#68 = CIRCLE ( 'NONE', #73, 0.3125000000000000000 ) ;
#69 = VECTOR ( 'NONE', #292, 39.37007874015748143 ) ;
#70 = DIRECTION ( 'NONE',  ( 0.000000000000000000, 0.000000000000000000, -1.000000000000000000 ) ) ;
#71 = LINE ( 'NONE', #118, #258 ) ;
#72 = EDGE_CURVE ( 'NONE', #123, #146, #68, .T. ) ;
#73 = AXIS2_PLACEMENT_3D ( 'NONE', #262, #48, #193 ) ;
#74 = DIMENSIONAL_EXPONENTS ( 1.000000000000000000, 0.000000000000000000, 0.000000000000000000, 0.000000000000000000, 0.000000000000000000, 0.000000000000000000, 0.000000000000000000 ) ;
#75 = CARTESIAN_POINT ( 'NONE',  ( 0.000000000000000000, 1.250000000000000000, 0.000000000000000000 ) ) ;
#76 = SURFACE_STYLE_USAGE ( .BOTH. , #120 ) ;
#77 = PLANE ( 'NONE',  #156 ) ;
#78 = APPLICATION_PROTOCOL_DEFINITION ( 'draft international standard', 'automotive_design', 1998, #62 ) ;
#79 = ORIENTED_EDGE ( 'NONE', *, *, #230, .F. ) ;
#80 = ORIENTED_EDGE ( 'NONE', *, *, #230, .T. ) ;
#81 = CLOSED_SHELL ( 'NONE', ( #128, #63, #243, #152 ) ) ;
#82 = AXIS2_PLACEMENT_3D ( 'NONE', #225, #166, #97 ) ;
#83 = CYLINDRICAL_SURFACE ( 'NONE', #170, 0.3124999999999998890 ) ;
#84 =( LENGTH_UNIT ( ) NAMED_UNIT ( * ) SI_UNIT ( $, .METRE. ) );
#85 = MECHANICAL_DESIGN_GEOMETRIC_PRESENTATION_REPRESENTATION (  '', ( #178 ), #201 ) ;
#86 = CYLINDRICAL_SURFACE ( 'NONE', #106, 0.3124999999999998890 ) ;
#87 = CARTESIAN_POINT ( 'NONE',  ( 3.061616997868384620E-16, 3.500000000000000000, 0.000000000000000000 ) ) ;
#88 = FILL_AREA_STYLE ('',( #307 ) ) ;
#89 = COLOUR_RGB ( '',0.7921568627450980005, 0.8196078431372548767, 0.9333333333333333481 ) ;
#90 =( NAMED_UNIT ( * ) PLANE_ANGLE_UNIT ( ) SI_UNIT ( $, .RADIAN. ) );
#91 =( LENGTH_UNIT ( ) NAMED_UNIT ( * ) SI_UNIT ( $, .METRE. ) );
#92 = FACE_OUTER_BOUND ( 'NONE', #173, .T. ) ;
#93 = FILL_AREA_STYLE ('',( #111 ) ) ;
#94 = FACE_OUTER_BOUND ( 'NONE', #150, .T. ) ;
#95 = DIRECTION ( 'NONE',  ( -1.000000000000000000, 0.000000000000000000, 0.000000000000000000 ) ) ;
#96 = CARTESIAN_POINT ( 'NONE',  ( 0.000000000000000000, 0.000000000000000000, 0.000000000000000000 ) ) ;
#97 = DIRECTION ( 'NONE',  ( -1.000000000000000000, 0.000000000000000000, 0.000000000000000000 ) ) ;
#98 = CARTESIAN_POINT ( 'NONE',  ( 3.061616997868384620E-16, 3.500000000000000000, 0.000000000000000000 ) ) ;
#99 = CARTESIAN_POINT ( 'NONE',  ( -0.3125000000000000000, 1.250000000000000000, 0.000000000000000000 ) ) ;
#100 = VERTEX_POINT ( 'NONE', #141 ) ;
#101 = VERTEX_POINT ( 'NONE', #1 ) ;
#102 = PRESENTATION_LAYER_ASSIGNMENT (  '', '', ( #241 ) ) ;
#103 =( LENGTH_UNIT ( ) NAMED_UNIT ( * ) SI_UNIT ( $, .METRE. ) );
#104 =( LENGTH_UNIT ( ) NAMED_UNIT ( * ) SI_UNIT ( $, .METRE. ) );
#105 = PRODUCT_RELATED_PRODUCT_CATEGORY ( 'part', '', ( #124 ) ) ;
#106 = AXIS2_PLACEMENT_3D ( 'NONE', #87, #179, #112 ) ;
#107 = SURFACE_STYLE_USAGE ( .BOTH. , #38 ) ;
#108 = ADVANCED_FACE ( 'NONE', ( #286 ), #203, .F. ) ;
#109 = CARTESIAN_POINT ( 'NONE',  ( 0.000000000000000000, 0.000000000000000000, 0.000000000000000000 ) ) ;
#110 = ADVANCED_FACE ( 'NONE', ( #229 ), #86, .T. ) ;
#111 = FILL_AREA_STYLE_COLOUR ( '', #3 ) ;
#112 = DIRECTION ( 'NONE',  ( -1.000000000000000000, 0.000000000000000000, 0.000000000000000000 ) ) ;
#113 = SURFACE_SIDE_STYLE ('',( #217 ) ) ;
#114 = PRESENTATION_STYLE_ASSIGNMENT (( #260 ) ) ;
#115 = EDGE_CURVE ( 'NONE', #100, #305, #130, .T. ) ;
#116 = PRODUCT_DEFINITION_SHAPE ( 'NONE', 'NONE',  #13 ) ;
#117 = ORIENTED_EDGE ( 'NONE', *, *, #19, .T. ) ;
#118 = CARTESIAN_POINT ( 'NONE',  ( 3.827021247335478926E-17, 0.000000000000000000, 0.3125000000000000000 ) ) ;
#119 = DIMENSIONAL_EXPONENTS ( 1.000000000000000000, 0.000000000000000000, 0.000000000000000000, 0.000000000000000000, 0.000000000000000000, 0.000000000000000000, 0.000000000000000000 ) ;
#120 = SURFACE_SIDE_STYLE ('',( #30 ) ) ;
#121 = CARTESIAN_POINT ( 'NONE',  ( 0.3125000000000001665, 3.500000000000000000, 3.827021247335477078E-17 ) ) ;
#122 = CARTESIAN_POINT ( 'NONE',  ( 3.827021247335478926E-17, 0.000000000000000000, 0.3125000000000000000 ) ) ;
#123 = VERTEX_POINT ( 'NONE', #208 ) ;
#124 = PRODUCT ( '83439', '83439', '', ( #127 ) ) ;
#125 = DIRECTION ( 'NONE',  ( 0.000000000000000000, -0.000000000000000000, 1.000000000000000000 ) ) ;
#126 = EDGE_LOOP ( 'NONE', ( #287, #117, #28, #223 ) ) ;
#127 = PRODUCT_CONTEXT ( 'NONE', #207, 'mechanical' ) ;
#128 = ADVANCED_FACE ( 'NONE', ( #214 ), #67, .T. ) ;
#129 = ADVANCED_BREP_SHAPE_REPRESENTATION ( '83439', ( #22, #231, #65 ), #54 ) ;
#130 = CIRCLE ( 'NONE', #245, 0.3125000000000000000 ) ;
#131 = PRESENTATION_LAYER_ASSIGNMENT (  '', '', ( #216 ) ) ;
#132 = EDGE_CURVE ( 'NONE', #259, #101, #269, .T. ) ;
#133 = FILL_AREA_STYLE ('',( #36 ) ) ;
#134 = DIRECTION ( 'NONE',  ( -0.000000000000000000, -1.000000000000000000, -0.000000000000000000 ) ) ;
#135 = CARTESIAN_POINT ( 'NONE',  ( 3.061616997868384620E-16, 3.500000000000000000, 0.000000000000000000 ) ) ;
#136 = LENGTH_MEASURE_WITH_UNIT ( LENGTH_MEASURE( 0.02539999999999999897 ), #91 );
#137 = SURFACE_SIDE_STYLE ('',( #167 ) ) ;
#138 =( NAMED_UNIT ( * ) SI_UNIT ( $, .STERADIAN. ) SOLID_ANGLE_UNIT ( ) );
#139 =( NAMED_UNIT ( * ) SI_UNIT ( $, .STERADIAN. ) SOLID_ANGLE_UNIT ( ) );
#140 = MECHANICAL_DESIGN_GEOMETRIC_PRESENTATION_REPRESENTATION (  '', ( #241 ), #284 ) ;
#141 = CARTESIAN_POINT ( 'NONE',  ( 0.000000000000000000, 0.000000000000000000, -0.3125000000000000000 ) ) ;
#142 = DIMENSIONAL_EXPONENTS ( 1.000000000000000000, 0.000000000000000000, 0.000000000000000000, 0.000000000000000000, 0.000000000000000000, 0.000000000000000000, 0.000000000000000000 ) ;
#143 = FILL_AREA_STYLE ('',( #168 ) ) ;
#144 = CARTESIAN_POINT ( 'NONE',  ( 0.3125000000000000000, 3.500000000000000000, 3.827021247335477694E-17 ) ) ;
#145 = COLOUR_RGB ( '',1.000000000000000000, 0.000000000000000000, 0.000000000000000000 ) ;
#146 = VERTEX_POINT ( 'NONE', #57 ) ;
#147 = CARTESIAN_POINT ( 'NONE',  ( 0.000000000000000000, 0.000000000000000000, 0.000000000000000000 ) ) ;
#148 = DIRECTION ( 'NONE',  ( 1.360718665719282382E-16, 1.000000000000000000, -0.000000000000000000 ) ) ;
#149 = DIRECTION ( 'NONE',  ( 1.000000000000000000, 0.000000000000000000, 0.000000000000000000 ) ) ;
#150 = EDGE_LOOP ( 'NONE', ( #221, #6 ) ) ;
#151 = PRESENTATION_STYLE_ASSIGNMENT (( #53 ) ) ;
#152 = ADVANCED_FACE ( 'NONE', ( #254 ), #228, .T. ) ;
#153 = DIRECTION ( 'NONE',  ( 1.360718665719282382E-16, 1.000000000000000000, -0.000000000000000000 ) ) ;
#154 = VECTOR ( 'NONE', #60, 39.37007874015748143 ) ;
#155 = COLOUR_RGB ( '',0.7921568627450980005, 0.8196078431372548767, 0.9333333333333333481 ) ;
#156 = AXIS2_PLACEMENT_3D ( 'NONE', #263, #274, #188 ) ;
#157 = DIRECTION ( 'NONE',  ( -0.000000000000000000, -1.000000000000000000, -0.000000000000000000 ) ) ;
#158 = CARTESIAN_POINT ( 'NONE',  ( 0.000000000000000000, 0.000000000000000000, 0.000000000000000000 ) ) ;
#159 = DIRECTION ( 'NONE',  ( 0.000000000000000000, 0.000000000000000000, -1.000000000000000000 ) ) ;
#160 = CIRCLE ( 'NONE', #271, 0.3124999999999997224 ) ;
#161 = DIRECTION ( 'NONE',  ( -1.000000000000000000, 0.000000000000000000, 0.000000000000000000 ) ) ;
#162 = CARTESIAN_POINT ( 'NONE',  ( 0.000000000000000000, 0.000000000000000000, 0.000000000000000000 ) ) ;
#163 = EDGE_CURVE ( 'NONE', #146, #123, #202, .T. ) ;
#164 = CARTESIAN_POINT ( 'NONE',  ( 0.000000000000000000, 1.250000000000000000, 0.000000000000000000 ) ) ;
#165 = AXIS2_PLACEMENT_3D ( 'NONE', #183, #240, #220 ) ;
#166 = DIRECTION ( 'NONE',  ( 1.360718665719282382E-16, 1.000000000000000000, -0.000000000000000000 ) ) ;
#167 = SURFACE_STYLE_FILL_AREA ( #20 ) ;
#168 = FILL_AREA_STYLE_COLOUR ( '', #89 ) ;
#169 = ORIENTED_EDGE ( 'NONE', *, *, #163, .F. ) ;
#170 = AXIS2_PLACEMENT_3D ( 'NONE', #98, #268, #95 ) ;
#171 = MECHANICAL_DESIGN_GEOMETRIC_PRESENTATION_REPRESENTATION (  '', ( #216 ), #42 ) ;
#172 = DIRECTION ( 'NONE',  ( 1.360718665719282382E-16, 1.000000000000000000, -0.000000000000000000 ) ) ;
#173 = EDGE_LOOP ( 'NONE', ( #79, #7, #27, #8 ) ) ;
#174 = CARTESIAN_POINT ( 'NONE',  ( 0.000000000000000000, 0.000000000000000000, 0.000000000000000000 ) ) ;
#175 = FILL_AREA_STYLE ('',( #45 ) ) ;
#176 = CARTESIAN_POINT ( 'NONE',  ( 2.893055136307600395E-33, 1.250000000000000000, 0.000000000000000000 ) ) ;
#177 = CYLINDRICAL_SURFACE ( 'NONE', #253, 0.3125000000000000000 ) ;
#178 = STYLED_ITEM ( 'NONE', ( #236 ), #63 ) ;
#179 = DIRECTION ( 'NONE',  ( 1.360718665719282382E-16, 1.000000000000000000, -0.000000000000000000 ) ) ;
#180 = DIRECTION ( 'NONE',  ( 0.000000000000000000, -1.000000000000000000, -0.000000000000000000 ) ) ;
#181 = COLOUR_RGB ( '',1.000000000000000000, 0.000000000000000000, 0.000000000000000000 ) ;
#182 = CIRCLE ( 'NONE', #191, 0.3125000000000000000 ) ;
#183 = CARTESIAN_POINT ( 'NONE',  ( 0.000000000000000000, 1.250000000000000000, 0.000000000000000000 ) ) ;
#184 =( NAMED_UNIT ( * ) PLANE_ANGLE_UNIT ( ) SI_UNIT ( $, .RADIAN. ) );
#185 = ADVANCED_FACE ( 'NONE', ( #94 ), #77, .F. ) ;
#186 =( NAMED_UNIT ( * ) PLANE_ANGLE_UNIT ( ) SI_UNIT ( $, .RADIAN. ) );
#187 =( LENGTH_UNIT ( ) NAMED_UNIT ( * ) SI_UNIT ( $, .METRE. ) );
#188 = DIRECTION ( 'NONE',  ( 1.000000000000000000, -1.360718665719282382E-16, 0.000000000000000000 ) ) ;
#189 = FACE_OUTER_BOUND ( 'NONE', #290, .T. ) ;
#190 =( NAMED_UNIT ( * ) SI_UNIT ( $, .STERADIAN. ) SOLID_ANGLE_UNIT ( ) );
#191 = AXIS2_PLACEMENT_3D ( 'NONE', #238, #15, #18 ) ;
#192 = DIMENSIONAL_EXPONENTS ( 1.000000000000000000, 0.000000000000000000, 0.000000000000000000, 0.000000000000000000, 0.000000000000000000, 0.000000000000000000, 0.000000000000000000 ) ;
#193 = DIRECTION ( 'NONE',  ( 0.000000000000000000, 0.000000000000000000, -1.000000000000000000 ) ) ;
#194 = ORIENTED_EDGE ( 'NONE', *, *, #115, .T. ) ;
#195 = ORIENTED_EDGE ( 'NONE', *, *, #72, .T. ) ;
#196 = DIRECTION ( 'NONE',  ( 0.000000000000000000, 0.000000000000000000, 1.000000000000000000 ) ) ;
#197 = COLOUR_RGB ( '',1.000000000000000000, 0.000000000000000000, 0.000000000000000000 ) ;
#198 = AXIS2_PLACEMENT_3D ( 'NONE', #75, #172, #5 ) ;
#199 = PRESENTATION_STYLE_ASSIGNMENT (( #76 ) ) ;
#200 = DIRECTION ( 'NONE',  ( -1.000000000000000000, 1.360718665719282382E-16, 0.000000000000000000 ) ) ;
#201 =( GEOMETRIC_REPRESENTATION_CONTEXT ( 3 ) GLOBAL_UNCERTAINTY_ASSIGNED_CONTEXT ( ( #237 ) ) GLOBAL_UNIT_ASSIGNED_CONTEXT ( ( #234, #256, #304 ) ) REPRESENTATION_CONTEXT ( 'NONE', 'WORKASPACE' ) );
#202 = CIRCLE ( 'NONE', #165, 0.3125000000000000000 ) ;
#203 = PLANE ( 'NONE',  #267 ) ;
#204 = CARTESIAN_POINT ( 'NONE',  ( 0.000000000000000000, 0.000000000000000000, -0.3125000000000000000 ) ) ;
#205 = SURFACE_STYLE_FILL_AREA ( #175 ) ;
#206 = EDGE_CURVE ( 'NONE', #289, #101, #160, .T. ) ;
#207 = APPLICATION_CONTEXT ( 'automotive_design' ) ;
#208 = CARTESIAN_POINT ( 'NONE',  ( 0.000000000000000000, 1.250000000000000000, -0.3125000000000000000 ) ) ;
#209 = CIRCLE ( 'NONE', #198, 0.3125000000000000000 ) ;
#210 =( NAMED_UNIT ( * ) SI_UNIT ( $, .STERADIAN. ) SOLID_ANGLE_UNIT ( ) );
#211 =( LENGTH_UNIT ( ) NAMED_UNIT ( * ) SI_UNIT ( $, .METRE. ) );
#212 = SURFACE_STYLE_USAGE ( .BOTH. , #113 ) ;
#213 = DIRECTION ( 'NONE',  ( 0.000000000000000000, 0.000000000000000000, -1.000000000000000000 ) ) ;
#214 = FACE_OUTER_BOUND ( 'NONE', #222, .T. ) ;
#215 = PRODUCT_DEFINITION_CONTEXT ( 'detailed design', #62, 'design' ) ;
#216 = STYLED_ITEM ( 'NONE', ( #114 ), #231 ) ;
#217 = SURFACE_STYLE_FILL_AREA ( #93 ) ;
#218 = DIRECTION ( 'NONE',  ( -0.000000000000000000, -1.000000000000000000, -0.000000000000000000 ) ) ;
#219 = ORIENTED_EDGE ( 'NONE', *, *, #132, .T. ) ;
#220 = DIRECTION ( 'NONE',  ( 0.000000000000000000, 0.000000000000000000, -1.000000000000000000 ) ) ;
#221 = ORIENTED_EDGE ( 'NONE', *, *, #257, .T. ) ;
#222 = EDGE_LOOP ( 'NONE', ( #195, #80, #244, #266 ) ) ;
#223 = ORIENTED_EDGE ( 'NONE', *, *, #132, .F. ) ;
#224 = EDGE_CURVE ( 'NONE', #264, #259, #182, .T. ) ;
#225 = CARTESIAN_POINT ( 'NONE',  ( 3.061616997868384620E-16, 3.500000000000000000, 0.000000000000000000 ) ) ;
#226 = EDGE_LOOP ( 'NONE', ( #293, #285, #219, #52 ) ) ;
#227 =( GEOMETRIC_REPRESENTATION_CONTEXT ( 3 ) GLOBAL_UNCERTAINTY_ASSIGNED_CONTEXT ( ( #302 ) ) GLOBAL_UNIT_ASSIGNED_CONTEXT ( ( #233, #296, #210 ) ) REPRESENTATION_CONTEXT ( 'NONE', 'WORKASPACE' ) );
#228 = PLANE ( 'NONE',  #12 ) ;
#229 = FACE_OUTER_BOUND ( 'NONE', #126, .T. ) ;
#230 = EDGE_CURVE ( 'NONE', #146, #305, #71, .T. ) ;
#231 = MANIFOLD_SOLID_BREP ( 'Revolve - Tool Body (Straight Shanked)', #261 ) ;
#232 =( NAMED_UNIT ( * ) SI_UNIT ( $, .STERADIAN. ) SOLID_ANGLE_UNIT ( ) );
#233 =( CONVERSION_BASED_UNIT ( 'INCH', #288 ) LENGTH_UNIT ( ) NAMED_UNIT ( #278 ) );
#234 =( CONVERSION_BASED_UNIT ( 'INCH', #136 ) LENGTH_UNIT ( ) NAMED_UNIT ( #119 ) );
#235 =( NAMED_UNIT ( * ) SI_UNIT ( $, .STERADIAN. ) SOLID_ANGLE_UNIT ( ) );
#236 = PRESENTATION_STYLE_ASSIGNMENT (( #212 ) ) ;
#237 = UNCERTAINTY_MEASURE_WITH_UNIT (LENGTH_MEASURE( 1.000000000000000082E-05 ), #234, 'distance_accuracy_value', 'NONE');
#238 = CARTESIAN_POINT ( 'NONE',  ( 0.000000000000000000, 1.250000000000000000, 0.000000000000000000 ) ) ;
#239 = DIMENSIONAL_EXPONENTS ( 1.000000000000000000, 0.000000000000000000, 0.000000000000000000, 0.000000000000000000, 0.000000000000000000, 0.000000000000000000, 0.000000000000000000 ) ;
#240 = DIRECTION ( 'NONE',  ( -0.000000000000000000, -1.000000000000000000, -0.000000000000000000 ) ) ;
#241 = STYLED_ITEM ( 'NONE', ( #298 ), #152 ) ;
#242 = LINE ( 'NONE', #204, #69 ) ;
#243 = ADVANCED_FACE ( 'NONE', ( #92 ), #177, .T. ) ;
#244 = ORIENTED_EDGE ( 'NONE', *, *, #115, .F. ) ;
#245 = AXIS2_PLACEMENT_3D ( 'NONE', #162, #157, #70 ) ;
#246 = EDGE_CURVE ( 'NONE', #259, #264, #209, .T. ) ;
#247 = ORIENTED_EDGE ( 'NONE', *, *, #246, .F. ) ;
#248 = EDGE_LOOP ( 'NONE', ( #247, #50 ) ) ;
#249 = DIRECTION ( 'NONE',  ( -0.000000000000000000, -1.000000000000000000, -0.000000000000000000 ) ) ;
#250 = ORIENTED_EDGE ( 'NONE', *, *, #279, .T. ) ;
#251 = CARTESIAN_POINT ( 'NONE',  ( -0.3124999999999996114, 3.500000000000000000, 0.000000000000000000 ) ) ;
#252 = UNCERTAINTY_MEASURE_WITH_UNIT (LENGTH_MEASURE( 1.000000000000000082E-05 ), #58, 'distance_accuracy_value', 'NONE');
#253 = AXIS2_PLACEMENT_3D ( 'NONE', #109, #294, #159 ) ;
#254 = FACE_OUTER_BOUND ( 'NONE', #55, .T. ) ;
#255 =( LENGTH_UNIT ( ) NAMED_UNIT ( * ) SI_UNIT ( $, .METRE. ) );
#256 =( NAMED_UNIT ( * ) PLANE_ANGLE_UNIT ( ) SI_UNIT ( $, .RADIAN. ) );
#257 = EDGE_CURVE ( 'NONE', #101, #289, #35, .T. ) ;
#258 = VECTOR ( 'NONE', #218, 39.37007874015748143 ) ;
#259 = VERTEX_POINT ( 'NONE', #99 ) ;
#260 = SURFACE_STYLE_USAGE ( .BOTH. , #137 ) ;
#261 = CLOSED_SHELL ( 'NONE', ( #110, #108, #9, #185 ) ) ;
#262 = CARTESIAN_POINT ( 'NONE',  ( 0.000000000000000000, 1.250000000000000000, 0.000000000000000000 ) ) ;
#263 = CARTESIAN_POINT ( 'NONE',  ( 0.3125000000000000000, 3.500000000000000000, 0.000000000000000000 ) ) ;
#264 = VERTEX_POINT ( 'NONE', #51 ) ;
#265 =( NAMED_UNIT ( * ) PLANE_ANGLE_UNIT ( ) SI_UNIT ( $, .RADIAN. ) );
#266 = ORIENTED_EDGE ( 'NONE', *, *, #272, .F. ) ;
#267 = AXIS2_PLACEMENT_3D ( 'NONE', #176, #153, #200 ) ;
#268 = DIRECTION ( 'NONE',  ( 1.360718665719282382E-16, 1.000000000000000000, -0.000000000000000000 ) ) ;
#269 = LINE ( 'NONE', #251, #154 ) ;
#270 = LENGTH_MEASURE_WITH_UNIT ( LENGTH_MEASURE( 0.02539999999999999897 ), #103 );
#271 = AXIS2_PLACEMENT_3D ( 'NONE', #135, #280, #161 ) ;
#272 = EDGE_CURVE ( 'NONE', #123, #100, #242, .T. ) ;
#273 = PRESENTATION_LAYER_ASSIGNMENT (  '', '', ( #295 ) ) ;
#274 = DIRECTION ( 'NONE',  ( -1.360718665719282382E-16, -1.000000000000000000, 0.000000000000000000 ) ) ;
#275 =( CONVERSION_BASED_UNIT ( 'INCH', #308 ) LENGTH_UNIT ( ) NAMED_UNIT ( #142 ) );
#276 = LENGTH_MEASURE_WITH_UNIT ( LENGTH_MEASURE( 0.02539999999999999897 ), #255 );
#277 = AXIS2_PLACEMENT_3D ( 'NONE', #174, #249, #33 ) ;
#278 = DIMENSIONAL_EXPONENTS ( 1.000000000000000000, 0.000000000000000000, 0.000000000000000000, 0.000000000000000000, 0.000000000000000000, 0.000000000000000000, 0.000000000000000000 ) ;
#279 = EDGE_CURVE ( 'NONE', #305, #100, #59, .T. ) ;
#280 = DIRECTION ( 'NONE',  ( 1.360718665719282382E-16, 1.000000000000000000, -0.000000000000000000 ) ) ;
#281 = UNCERTAINTY_MEASURE_WITH_UNIT (LENGTH_MEASURE( 1.000000000000000082E-05 ), #39, 'distance_accuracy_value', 'NONE');
#282 =( CONVERSION_BASED_UNIT ( 'INCH', #40 ) LENGTH_UNIT ( ) NAMED_UNIT ( #239 ) );
#283 = MECHANICAL_DESIGN_GEOMETRIC_PRESENTATION_REPRESENTATION (  '', ( #295 ), #64 ) ;
#284 =( GEOMETRIC_REPRESENTATION_CONTEXT ( 3 ) GLOBAL_UNCERTAINTY_ASSIGNED_CONTEXT ( ( #17 ) ) GLOBAL_UNIT_ASSIGNED_CONTEXT ( ( #14, #90, #235 ) ) REPRESENTATION_CONTEXT ( 'NONE', 'WORKASPACE' ) );
#285 = ORIENTED_EDGE ( 'NONE', *, *, #224, .T. ) ;
#286 = FACE_OUTER_BOUND ( 'NONE', #248, .T. ) ;
#287 = ORIENTED_EDGE ( 'NONE', *, *, #246, .T. ) ;
#288 = LENGTH_MEASURE_WITH_UNIT ( LENGTH_MEASURE( 0.02539999999999999897 ), #84 );
#289 = VERTEX_POINT ( 'NONE', #144 ) ;
#290 = EDGE_LOOP ( 'NONE', ( #26, #169 ) ) ;
#291 =( GEOMETRIC_REPRESENTATION_CONTEXT ( 3 ) GLOBAL_UNCERTAINTY_ASSIGNED_CONTEXT ( ( #281 ) ) GLOBAL_UNIT_ASSIGNED_CONTEXT ( ( #39, #186, #139 ) ) REPRESENTATION_CONTEXT ( 'NONE', 'WORKASPACE' ) );
#292 = DIRECTION ( 'NONE',  ( -0.000000000000000000, -1.000000000000000000, -0.000000000000000000 ) ) ;
#293 = ORIENTED_EDGE ( 'NONE', *, *, #19, .F. ) ;
#294 = DIRECTION ( 'NONE',  ( -0.000000000000000000, -1.000000000000000000, -0.000000000000000000 ) ) ;
#295 = STYLED_ITEM ( 'NONE', ( #199 ), #22 ) ;
#296 =( NAMED_UNIT ( * ) PLANE_ANGLE_UNIT ( ) SI_UNIT ( $, .RADIAN. ) );
#297 = SURFACE_STYLE_FILL_AREA ( #88 ) ;
#298 = PRESENTATION_STYLE_ASSIGNMENT (( #107 ) ) ;
#299 = STYLED_ITEM ( 'NONE', ( #151 ), #243 ) ;
#300 = SURFACE_STYLE_USAGE ( .BOTH. , #44 ) ;
#301 = SURFACE_STYLE_FILL_AREA ( #133 ) ;
#302 = UNCERTAINTY_MEASURE_WITH_UNIT (LENGTH_MEASURE( 1.000000000000000082E-05 ), #233, 'distance_accuracy_value', 'NONE');
#303 = PRESENTATION_STYLE_ASSIGNMENT (( #300 ) ) ;
#304 =( NAMED_UNIT ( * ) SI_UNIT ( $, .STERADIAN. ) SOLID_ANGLE_UNIT ( ) );
#305 = VERTEX_POINT ( 'NONE', #122 ) ;
#306 = PRESENTATION_LAYER_ASSIGNMENT (  '', '', ( #11 ) ) ;
#307 = FILL_AREA_STYLE_COLOUR ( '', #181 ) ;
#308 = LENGTH_MEASURE_WITH_UNIT ( LENGTH_MEASURE( 0.02539999999999999897 ), #104 );
#309 = FILL_AREA_STYLE_COLOUR ( '', #155 ) ;
ENDSEC;
END-ISO-10303-21;
