ISO-10303-21;
HEADER;
FILE_DESCRIPTION (( 'STEP AP214' ),
    '1' );
FILE_NAME ('Micro_MMBM-012-15X.STEP',
    '2021-09-03T16:27:59',
    ( '' ),
    ( '' ),
    'SwSTEP 2.0',
    'SolidWorks 2020',
    '' );
FILE_SCHEMA (( 'AUTOMOTIVE_DESIGN' ));
ENDSEC;

DATA;
#1 = LENGTH_MEASURE_WITH_UNIT ( LENGTH_MEASURE( 0.02539999999999999897 ), #377 );
#2 = AXIS2_PLACEMENT_3D ( 'NONE', #359, #103, #223 ) ;
#3 = ORIENTED_EDGE ( 'NONE', *, *, #114, .T. ) ;
#4 = PRESENTATION_LAYER_ASSIGNMENT (  '', '', ( #40 ) ) ;
#5 = ADVANCED_FACE ( 'NONE', ( #250 ), #203, .T. ) ;
#6 = EDGE_LOOP ( 'NONE', ( #7, #264 ) ) ;
#7 = ORIENTED_EDGE ( 'NONE', *, *, #82, .T. ) ;
#8 = VECTOR ( 'NONE', #22, 39.37007874015748143 ) ;
#9 = LINE ( 'NONE', #65, #240 ) ;
#10 = ORIENTED_EDGE ( 'NONE', *, *, #224, .F. ) ;
#11 = VECTOR ( 'NONE', #47, 39.37007874015748143 ) ;
#12 = EDGE_CURVE ( 'NONE', #187, #237, #278, .T. ) ;
#13 = ORIENTED_EDGE ( 'NONE', *, *, #304, .F. ) ;
#14 = VERTEX_POINT ( 'NONE', #200 ) ;
#15 = CARTESIAN_POINT ( 'NONE',  ( 0.02263800000000007126, 2.772355423909787117E-18, 0.5905510000000000481 ) ) ;
#16 = CARTESIAN_POINT ( 'NONE',  ( -0.1181100000000000066, 0.0000000000000000000, 0.5905510000000000481 ) ) ;
#17 = EDGE_CURVE ( 'NONE', #37, #44, #136, .T. ) ;
#18 = FILL_AREA_STYLE ('',( #358 ) ) ;
#19 = CARTESIAN_POINT ( 'NONE',  ( 0.1181100000000000066, 1.446430334472939084E-17, 2.244094000000000033 ) ) ;
#20 = UNCERTAINTY_MEASURE_WITH_UNIT (LENGTH_MEASURE( 1.000000000000000082E-05 ), #134, 'distance_accuracy_value', 'NONE');
#21 = ADVANCED_FACE ( 'NONE', ( #336 ), #42, .T. ) ;
#22 = DIRECTION ( 'NONE',  ( -0.0000000000000000000, -0.0000000000000000000, -1.000000000000000000 ) ) ;
#23 = EDGE_LOOP ( 'NONE', ( #238, #3, #157, #148 ) ) ;
#24 = CARTESIAN_POINT ( 'NONE',  ( 0.0000000000000000000, 0.0000000000000000000, 2.244094000000000033 ) ) ;
#25 = DIRECTION ( 'NONE',  ( -1.000000000000000000, 0.0000000000000000000, 0.0000000000000000000 ) ) ;
#26 = FILL_AREA_STYLE_COLOUR ( '', #117 ) ;
#27 = DIRECTION ( 'NONE',  ( 0.0000000000000000000, 0.0000000000000000000, -1.000000000000000000 ) ) ;
#28 = FACE_OUTER_BOUND ( 'NONE', #356, .T. ) ;
#29 = VECTOR ( 'NONE', #349, 39.37007874015748854 ) ;
#30 = AXIS2_PLACEMENT_3D ( 'NONE', #137, #46, #248 ) ;
#31 = EDGE_CURVE ( 'NONE', #209, #37, #228, .T. ) ;
#32 = EDGE_LOOP ( 'NONE', ( #183, #56 ) ) ;
#33 = AXIS2_PLACEMENT_3D ( 'NONE', #54, #145, #180 ) ;
#34 = ADVANCED_FACE ( 'NONE', ( #132 ), #160, .T. ) ;
#35 = ORIENTED_EDGE ( 'NONE', *, *, #55, .F. ) ;
#36 = CARTESIAN_POINT ( 'NONE',  ( 0.02263800000000000187, 2.832463403394381638E-18, 0.05281114460858953724 ) ) ;
#37 = VERTEX_POINT ( 'NONE', #253 ) ;
#38 = DIRECTION ( 'NONE',  ( -0.0000000000000000000, -0.0000000000000000000, -1.000000000000000000 ) ) ;
#39 = EDGE_LOOP ( 'NONE', ( #297, #354, #149, #220 ) ) ;
#40 = STYLED_ITEM ( 'NONE', ( #302 ), #213 ) ;
#41 = CARTESIAN_POINT ( 'NONE',  ( 0.0000000000000000000, 0.0000000000000000000, 0.0000000000000000000 ) ) ;
#42 = CYLINDRICAL_SURFACE ( 'NONE', #143, 0.02361963780000000609 ) ;
#43 = DIRECTION ( 'NONE',  ( -0.0000000000000000000, -0.0000000000000000000, -1.000000000000000000 ) ) ;
#44 = VERTEX_POINT ( 'NONE', #366 ) ;
#45 = DIRECTION ( 'NONE',  ( -0.0000000000000000000, -0.0000000000000000000, -1.000000000000000000 ) ) ;
#46 = DIRECTION ( 'NONE',  ( 0.0000000000000000000, 0.0000000000000000000, 1.000000000000000000 ) ) ;
#47 = DIRECTION ( 'NONE',  ( -0.0000000000000000000, -0.0000000000000000000, -1.000000000000000000 ) ) ;
#48 = EDGE_CURVE ( 'NONE', #292, #135, #116, .T. ) ;
#49 = CARTESIAN_POINT ( 'NONE',  ( 0.0000000000000000000, 0.0000000000000000000, 0.0000000000000000000 ) ) ;
#50 = CARTESIAN_POINT ( 'NONE',  ( -0.1181100000000000066, 0.0000000000000000000, 2.244094000000000033 ) ) ;
#51 = CIRCLE ( 'NONE', #175, 0.1181100000000000066 ) ;
#52 = CARTESIAN_POINT ( 'NONE',  ( 0.0000000000000000000, 0.0000000000000000000, 0.04724400000000000127 ) ) ;
#53 =( CONVERSION_BASED_UNIT ( 'INCH', #1 ) LENGTH_UNIT ( ) NAMED_UNIT ( #154 ) );
#54 = CARTESIAN_POINT ( 'NONE',  ( 0.0000000000000000000, 0.0000000000000000000, 0.0000000000000000000 ) ) ;
#55 = EDGE_CURVE ( 'NONE', #44, #37, #57, .T. ) ;
#56 = ORIENTED_EDGE ( 'NONE', *, *, #304, .T. ) ;
#57 = CIRCLE ( 'NONE', #318, 0.02361963780000000609 ) ;
#58 = ORIENTED_EDGE ( 'NONE', *, *, #31, .F. ) ;
#59 = CIRCLE ( 'NONE', #30, 0.1031100000000002570 ) ;
#60 = DIRECTION ( 'NONE',  ( 0.0000000000000000000, 0.0000000000000000000, -1.000000000000000000 ) ) ;
#61 = VERTEX_POINT ( 'NONE', #129 ) ;
#62 = DIRECTION ( 'NONE',  ( 0.1736481776669307475, 2.126576849575776537E-17, -0.9848077530122077983 ) ) ;
#63 = EDGE_LOOP ( 'NONE', ( #167, #348, #326, #335 ) ) ;
#64 = VECTOR ( 'NONE', #170, 39.37007874015748143 ) ;
#65 = CARTESIAN_POINT ( 'NONE',  ( 0.02361963780000000609, 2.892571382878983863E-18, 0.04724400000000000127 ) ) ;
#66 = VERTEX_POINT ( 'NONE', #16 ) ;
#67 = ADVANCED_FACE ( 'NONE', ( #107 ), #370, .T. ) ;
#68 = DIRECTION ( 'NONE',  ( -0.0000000000000000000, -0.0000000000000000000, -1.000000000000000000 ) ) ;
#69 = DIRECTION ( 'NONE',  ( -0.0000000000000000000, -0.0000000000000000000, -1.000000000000000000 ) ) ;
#70 = ORIENTED_EDGE ( 'NONE', *, *, #140, .F. ) ;
#71 = FACE_OUTER_BOUND ( 'NONE', #39, .T. ) ;
#72 = FACE_OUTER_BOUND ( 'NONE', #323, .T. ) ;
#73 = COLOUR_RGB ( '',0.7921568627450980005, 0.8196078431372548767, 0.9333333333333333481 ) ;
#74 = DIRECTION ( 'NONE',  ( -1.000000000000000000, 0.0000000000000000000, 0.0000000000000000000 ) ) ;
#75 = ADVANCED_FACE ( 'NONE', ( #72 ), #256, .T. ) ;
#76 = DIRECTION ( 'NONE',  ( -0.0000000000000000000, -0.0000000000000000000, -1.000000000000000000 ) ) ;
#77 = CARTESIAN_POINT ( 'NONE',  ( -0.1181100000000000066, 0.0000000000000000000, 2.229093999999999465 ) ) ;
#78 = DIRECTION ( 'NONE',  ( -1.000000000000000000, 0.0000000000000000000, 0.0000000000000000000 ) ) ;
#79 = EDGE_CURVE ( 'NONE', #329, #237, #173, .T. ) ;
#80 = DIRECTION ( 'NONE',  ( -1.000000000000000000, 0.0000000000000000000, 0.0000000000000000000 ) ) ;
#81 = CIRCLE ( 'NONE', #95, 0.02263800000000007126 ) ;
#82 = EDGE_CURVE ( 'NONE', #66, #217, #166, .T. ) ;
#83 = ADVANCED_BREP_SHAPE_REPRESENTATION ( 'Micro_MMBM-012-15X', ( #213, #33 ), #131 ) ;
#84 =( NAMED_UNIT ( * ) PLANE_ANGLE_UNIT ( ) SI_UNIT ( $, .RADIAN. ) );
#85 = AXIS2_PLACEMENT_3D ( 'NONE', #232, #226, #80 ) ;
#86 = EDGE_CURVE ( 'NONE', #209, #351, #378, .T. ) ;
#87 = SHAPE_DEFINITION_REPRESENTATION ( #202, #83 ) ;
#88 = ORIENTED_EDGE ( 'NONE', *, *, #119, .T. ) ;
#89 = CARTESIAN_POINT ( 'NONE',  ( -0.1031100000000002570, 0.0000000000000000000, 2.244094000000000033 ) ) ;
#90 = EDGE_LOOP ( 'NONE', ( #120, #269, #242, #350 ) ) ;
#91 = CARTESIAN_POINT ( 'NONE',  ( 0.0000000000000000000, 0.0000000000000000000, 0.5905510000000000481 ) ) ;
#92 = AXIS2_PLACEMENT_3D ( 'NONE', #303, #162, #165 ) ;
#93 = ORIENTED_EDGE ( 'NONE', *, *, #146, .F. ) ;
#94 = VECTOR ( 'NONE', #344, 39.37007874015748143 ) ;
#95 = AXIS2_PLACEMENT_3D ( 'NONE', #176, #247, #102 ) ;
#96 = DIRECTION ( 'NONE',  ( -0.0000000000000000000, -0.0000000000000000000, -1.000000000000000000 ) ) ;
#97 = EDGE_LOOP ( 'NONE', ( #215, #70 ) ) ;
#98 = EDGE_CURVE ( 'NONE', #237, #329, #261, .T. ) ;
#99 = CYLINDRICAL_SURFACE ( 'NONE', #222, 0.1181100000000000066 ) ;
#100 = ORIENTED_EDGE ( 'NONE', *, *, #114, .F. ) ;
#101 = ORIENTED_EDGE ( 'NONE', *, *, #98, .F. ) ;
#102 = DIRECTION ( 'NONE',  ( -1.000000000000000000, 0.0000000000000000000, 0.0000000000000000000 ) ) ;
#103 = DIRECTION ( 'NONE',  ( -0.0000000000000000000, -0.0000000000000000000, -1.000000000000000000 ) ) ;
#104 = CIRCLE ( 'NONE', #315, 0.1031100000000002570 ) ;
#105 = DIRECTION ( 'NONE',  ( 1.000000000000000000, 0.0000000000000000000, -0.0000000000000000000 ) ) ;
#106 = DIRECTION ( 'NONE',  ( -0.0000000000000000000, 0.0000000000000000000, -1.000000000000000000 ) ) ;
#107 = FACE_OUTER_BOUND ( 'NONE', #90, .T. ) ;
#108 = AXIS2_PLACEMENT_3D ( 'NONE', #246, #43, #306 ) ;
#109 = CARTESIAN_POINT ( 'NONE',  ( 0.0000000000000000000, 0.0000000000000000000, 2.244094000000000033 ) ) ;
#110 = VECTOR ( 'NONE', #164, 39.37007874015748143 ) ;
#111 = PLANE ( 'NONE',  #361 ) ;
#112 = DIRECTION ( 'NONE',  ( -0.0000000000000000000, -0.0000000000000000000, -1.000000000000000000 ) ) ;
#113 = CARTESIAN_POINT ( 'NONE',  ( -0.02263800000000000187, 0.0000000000000000000, 0.05281114460858953724 ) ) ;
#114 = EDGE_CURVE ( 'NONE', #135, #217, #275, .T. ) ;
#115 = SURFACE_STYLE_FILL_AREA ( #346 ) ;
#116 = CIRCLE ( 'NONE', #352, 0.1181100000000000066 ) ;
#117 = COLOUR_RGB ( '',0.7921568627450980005, 0.8196078431372548767, 0.9333333333333333481 ) ;
#118 = ORIENTED_EDGE ( 'NONE', *, *, #17, .T. ) ;
#119 = EDGE_CURVE ( 'NONE', #61, #329, #338, .T. ) ;
#120 = ORIENTED_EDGE ( 'NONE', *, *, #204, .F. ) ;
#121 = FACE_OUTER_BOUND ( 'NONE', #236, .T. ) ;
#122 = VERTEX_POINT ( 'NONE', #181 ) ;
#123 = FACE_OUTER_BOUND ( 'NONE', #63, .T. ) ;
#124 = ORIENTED_EDGE ( 'NONE', *, *, #147, .T. ) ;
#125 = CONICAL_SURFACE ( 'NONE', #144, 0.02361963780000000609, 0.1745329251994333919 ) ;
#126 =( NAMED_UNIT ( * ) SI_UNIT ( $, .STERADIAN. ) SOLID_ANGLE_UNIT ( ) );
#127 = ORIENTED_EDGE ( 'NONE', *, *, #12, .F. ) ;
#128 = CARTESIAN_POINT ( 'NONE',  ( 0.1031100000000002570, 1.262733314600838667E-17, 2.244094000000000033 ) ) ;
#129 = CARTESIAN_POINT ( 'NONE',  ( -0.02263800000000007126, 0.0000000000000000000, 0.5905510000000000481 ) ) ;
#130 = DIRECTION ( 'NONE',  ( -0.0000000000000000000, -0.0000000000000000000, -1.000000000000000000 ) ) ;
#131 =( GEOMETRIC_REPRESENTATION_CONTEXT ( 3 ) GLOBAL_UNCERTAINTY_ASSIGNED_CONTEXT ( ( #20 ) ) GLOBAL_UNIT_ASSIGNED_CONTEXT ( ( #134, #195, #305 ) ) REPRESENTATION_CONTEXT ( 'NONE', 'WORKASPACE' ) );
#132 = FACE_OUTER_BOUND ( 'NONE', #23, .T. ) ;
#133 = PRODUCT_DEFINITION_CONTEXT ( 'detailed design', #328, 'design' ) ;
#134 =( CONVERSION_BASED_UNIT ( 'INCH', #337 ) LENGTH_UNIT ( ) NAMED_UNIT ( #239 ) );
#135 = VERTEX_POINT ( 'NONE', #317 ) ;
#136 = CIRCLE ( 'NONE', #210, 0.02361963780000000609 ) ;
#137 = CARTESIAN_POINT ( 'NONE',  ( 0.0000000000000000000, 0.0000000000000000000, 2.244094000000000033 ) ) ;
#138 = DIRECTION ( 'NONE',  ( -1.000000000000000000, 0.0000000000000000000, 0.0000000000000000000 ) ) ;
#139 = AXIS2_PLACEMENT_3D ( 'NONE', #141, #285, #258 ) ;
#140 = EDGE_CURVE ( 'NONE', #187, #61, #81, .T. ) ;
#141 = CARTESIAN_POINT ( 'NONE',  ( 0.0000000000000000000, 0.0000000000000000000, 2.244094000000000033 ) ) ;
#142 = ADVANCED_FACE ( 'NONE', ( #355 ), #99, .T. ) ;
#143 = AXIS2_PLACEMENT_3D ( 'NONE', #196, #363, #368 ) ;
#144 = AXIS2_PLACEMENT_3D ( 'NONE', #52, #314, #74 ) ;
#145 = DIRECTION ( 'NONE',  ( 0.0000000000000000000, 0.0000000000000000000, 1.000000000000000000 ) ) ;
#146 = EDGE_CURVE ( 'NONE', #122, #292, #219, .T. ) ;
#147 = EDGE_CURVE ( 'NONE', #351, #209, #179, .T. ) ;
#148 = ORIENTED_EDGE ( 'NONE', *, *, #295, .F. ) ;
#149 = ORIENTED_EDGE ( 'NONE', *, *, #272, .T. ) ;
#150 = CARTESIAN_POINT ( 'NONE',  ( 0.1181100000000000066, 1.446430334472939084E-17, 0.5905510000000000481 ) ) ;
#151 = EDGE_LOOP ( 'NONE', ( #100, #189, #212, #10 ) ) ;
#152 = LENGTH_MEASURE_WITH_UNIT ( LENGTH_MEASURE( 0.02539999999999999897 ), #333 );
#153 = ORIENTED_EDGE ( 'NONE', *, *, #12, .T. ) ;
#154 = DIMENSIONAL_EXPONENTS ( 1.000000000000000000, 0.0000000000000000000, 0.0000000000000000000, 0.0000000000000000000, 0.0000000000000000000, 0.0000000000000000000, 0.0000000000000000000 ) ;
#155 = DIRECTION ( 'NONE',  ( -0.0000000000000000000, -0.0000000000000000000, -1.000000000000000000 ) ) ;
#156 = EDGE_LOOP ( 'NONE', ( #321, #118 ) ) ;
#157 = ORIENTED_EDGE ( 'NONE', *, *, #82, .F. ) ;
#158 = EDGE_CURVE ( 'NONE', #237, #209, #9, .T. ) ;
#159 = DIRECTION ( 'NONE',  ( -0.0000000000000000000, -0.0000000000000000000, -1.000000000000000000 ) ) ;
#160 = CYLINDRICAL_SURFACE ( 'NONE', #108, 0.1181100000000000066 ) ;
#161 =( CONVERSION_BASED_UNIT ( 'INCH', #152 ) LENGTH_UNIT ( ) NAMED_UNIT ( #168 ) );
#162 = DIRECTION ( 'NONE',  ( -0.0000000000000000000, -0.0000000000000000000, -1.000000000000000000 ) ) ;
#163 = CLOSED_SHELL ( 'NONE', ( #21, #206, #251, #369, #34, #142, #5, #67, #268, #320, #197, #75, #263 ) ) ;
#164 = DIRECTION ( 'NONE',  ( -0.0000000000000000000, -0.0000000000000000000, -1.000000000000000000 ) ) ;
#165 = DIRECTION ( 'NONE',  ( -1.000000000000000000, 0.0000000000000000000, 0.0000000000000000000 ) ) ;
#166 = CIRCLE ( 'NONE', #2, 0.1181100000000000066 ) ;
#167 = ORIENTED_EDGE ( 'NONE', *, *, #79, .T. ) ;
#168 = DIMENSIONAL_EXPONENTS ( 1.000000000000000000, 0.0000000000000000000, 0.0000000000000000000, 0.0000000000000000000, 0.0000000000000000000, 0.0000000000000000000, 0.0000000000000000000 ) ;
#169 = FACE_OUTER_BOUND ( 'NONE', #156, .T. ) ;
#170 = DIRECTION ( 'NONE',  ( -0.0000000000000000000, -0.0000000000000000000, -1.000000000000000000 ) ) ;
#171 = DIRECTION ( 'NONE',  ( -1.000000000000000000, 0.0000000000000000000, 0.0000000000000000000 ) ) ;
#172 = CARTESIAN_POINT ( 'NONE',  ( 0.0000000000000000000, 0.0000000000000000000, 0.0000000000000000000 ) ) ;
#173 = CIRCLE ( 'NONE', #288, 0.02263800000000000187 ) ;
#174 = MECHANICAL_DESIGN_GEOMETRIC_PRESENTATION_REPRESENTATION (  '', ( #40 ), #291 ) ;
#175 = AXIS2_PLACEMENT_3D ( 'NONE', #325, #60, #293 ) ;
#176 = CARTESIAN_POINT ( 'NONE',  ( 0.0000000000000000000, 0.0000000000000000000, 0.5905510000000000481 ) ) ;
#177 = CARTESIAN_POINT ( 'NONE',  ( -0.02361963780000000609, 0.0000000000000000000, 0.0000000000000000000 ) ) ;
#178 = VECTOR ( 'NONE', #130, 39.37007874015748143 ) ;
#179 = CIRCLE ( 'NONE', #289, 0.02361963780000000609 ) ;
#180 = DIRECTION ( 'NONE',  ( 1.000000000000000000, 0.0000000000000000000, 0.0000000000000000000 ) ) ;
#181 = CARTESIAN_POINT ( 'NONE',  ( -0.1031100000000002570, 0.0000000000000000000, 2.244094000000000033 ) ) ;
#182 = APPLICATION_PROTOCOL_DEFINITION ( 'draft international standard', 'automotive_design', 1998, #328 ) ;
#183 = ORIENTED_EDGE ( 'NONE', *, *, #316, .T. ) ;
#184 = PRODUCT_DEFINITION_FORMATION_WITH_SPECIFIED_SOURCE ( 'ANY', '', #208, .NOT_KNOWN. ) ;
#185 = ORIENTED_EDGE ( 'NONE', *, *, #260, .F. ) ;
#186 = CARTESIAN_POINT ( 'NONE',  ( 0.0000000000000000000, 0.0000000000000000000, 0.0000000000000000000 ) ) ;
#187 = VERTEX_POINT ( 'NONE', #15 ) ;
#188 = SURFACE_STYLE_USAGE ( .BOTH. , #221 ) ;
#189 = ORIENTED_EDGE ( 'NONE', *, *, #233, .T. ) ;
#190 = FACE_OUTER_BOUND ( 'NONE', #294, .T. ) ;
#191 = ORIENTED_EDGE ( 'NONE', *, *, #204, .T. ) ;
#192 = AXIS2_PLACEMENT_3D ( 'NONE', #241, #96, #199 ) ;
#193 = CARTESIAN_POINT ( 'NONE',  ( 0.0000000000000000000, 0.0000000000000000000, 2.244094000000000033 ) ) ;
#194 = DIRECTION ( 'NONE',  ( -1.000000000000000000, 0.0000000000000000000, 0.0000000000000000000 ) ) ;
#195 =( NAMED_UNIT ( * ) PLANE_ANGLE_UNIT ( ) SI_UNIT ( $, .RADIAN. ) );
#196 = CARTESIAN_POINT ( 'NONE',  ( 0.0000000000000000000, 0.0000000000000000000, 0.0000000000000000000 ) ) ;
#197 = ADVANCED_FACE ( 'NONE', ( #190 ), #299, .T. ) ;
#198 = CARTESIAN_POINT ( 'NONE',  ( -0.02263800000000003657, 0.0000000000000000000, 0.0000000000000000000 ) ) ;
#199 = DIRECTION ( 'NONE',  ( -1.000000000000000000, 0.0000000000000000000, 0.0000000000000000000 ) ) ;
#200 = CARTESIAN_POINT ( 'NONE',  ( 0.1031100000000002570, 1.354581824536888722E-17, 2.244094000000000033 ) ) ;
#201 = CARTESIAN_POINT ( 'NONE',  ( 0.02263800000000007126, 0.0000000000000000000, 0.5905510000000000481 ) ) ;
#202 = PRODUCT_DEFINITION_SHAPE ( 'NONE', 'NONE',  #364 ) ;
#203 = PLANE ( 'NONE',  #376 ) ;
#204 = EDGE_CURVE ( 'NONE', #14, #135, #211, .T. ) ;
#205 = AXIS2_PLACEMENT_3D ( 'NONE', #91, #68, #243 ) ;
#206 = ADVANCED_FACE ( 'NONE', ( #121 ), #216, .T. ) ;
#207 =( NAMED_UNIT ( * ) SI_UNIT ( $, .STERADIAN. ) SOLID_ANGLE_UNIT ( ) );
#208 = PRODUCT ( 'Micro_MMBM-012-15X', 'Micro_MMBM-012-15X', '', ( #259 ) ) ;
#209 = VERTEX_POINT ( 'NONE', #245 ) ;
#210 = AXIS2_PLACEMENT_3D ( 'NONE', #254, #76, #25 ) ;
#211 = LINE ( 'NONE', #128, #29 ) ;
#212 = ORIENTED_EDGE ( 'NONE', *, *, #295, .T. ) ;
#213 = MANIFOLD_SOLID_BREP ( 'Cut-Revolve1', #163 ) ;
#214 = SURFACE_STYLE_FILL_AREA ( #18 ) ;
#215 = ORIENTED_EDGE ( 'NONE', *, *, #374, .F. ) ;
#216 = CYLINDRICAL_SURFACE ( 'NONE', #235, 0.02263800000000003657 ) ;
#217 = VERTEX_POINT ( 'NONE', #150 ) ;
#218 = UNCERTAINTY_MEASURE_WITH_UNIT (LENGTH_MEASURE( 1.000000000000000082E-05 ), #161, 'distance_accuracy_value', 'NONE');
#219 = LINE ( 'NONE', #89, #340 ) ;
#220 = ORIENTED_EDGE ( 'NONE', *, *, #86, .F. ) ;
#221 = SURFACE_SIDE_STYLE ('',( #214 ) ) ;
#222 = AXIS2_PLACEMENT_3D ( 'NONE', #193, #273, #322 ) ;
#223 = DIRECTION ( 'NONE',  ( -1.000000000000000000, 0.0000000000000000000, 0.0000000000000000000 ) ) ;
#224 = EDGE_CURVE ( 'NONE', #217, #66, #257, .T. ) ;
#225 = DIRECTION ( 'NONE',  ( -0.0000000000000000000, -0.0000000000000000000, -1.000000000000000000 ) ) ;
#226 = DIRECTION ( 'NONE',  ( -0.0000000000000000000, -0.0000000000000000000, -1.000000000000000000 ) ) ;
#227 = DIRECTION ( 'NONE',  ( 0.0000000000000000000, 0.0000000000000000000, 1.000000000000000000 ) ) ;
#228 = LINE ( 'NONE', #312, #64 ) ;
#229 = CIRCLE ( 'NONE', #85, 0.02263800000000007126 ) ;
#230 = DIRECTION ( 'NONE',  ( -0.1736481776669307475, 0.0000000000000000000, -0.9848077530122077983 ) ) ;
#231 = DIRECTION ( 'NONE',  ( -1.000000000000000000, 0.0000000000000000000, 0.0000000000000000000 ) ) ;
#232 = CARTESIAN_POINT ( 'NONE',  ( 0.0000000000000000000, 0.0000000000000000000, 0.5905510000000000481 ) ) ;
#233 = EDGE_CURVE ( 'NONE', #135, #292, #51, .T. ) ;
#234 = SURFACE_STYLE_USAGE ( .BOTH. , #319 ) ;
#235 = AXIS2_PLACEMENT_3D ( 'NONE', #186, #155, #327 ) ;
#236 = EDGE_LOOP ( 'NONE', ( #244, #153, #360, #331 ) ) ;
#237 = VERTEX_POINT ( 'NONE', #36 ) ;
#238 = ORIENTED_EDGE ( 'NONE', *, *, #48, .T. ) ;
#239 = DIMENSIONAL_EXPONENTS ( 1.000000000000000000, 0.0000000000000000000, 0.0000000000000000000, 0.0000000000000000000, 0.0000000000000000000, 0.0000000000000000000, 0.0000000000000000000 ) ;
#240 = VECTOR ( 'NONE', #62, 39.37007874015748854 ) ;
#241 = CARTESIAN_POINT ( 'NONE',  ( 0.0000000000000000000, 0.0000000000000000000, 0.04724400000000000127 ) ) ;
#242 = ORIENTED_EDGE ( 'NONE', *, *, #146, .T. ) ;
#243 = DIRECTION ( 'NONE',  ( -1.000000000000000000, 0.0000000000000000000, 0.0000000000000000000 ) ) ;
#244 = ORIENTED_EDGE ( 'NONE', *, *, #374, .T. ) ;
#245 = CARTESIAN_POINT ( 'NONE',  ( 0.02361963780000000609, 2.892571382878983863E-18, 0.04724400000000000127 ) ) ;
#246 = CARTESIAN_POINT ( 'NONE',  ( 0.0000000000000000000, 0.0000000000000000000, 2.244094000000000033 ) ) ;
#247 = DIRECTION ( 'NONE',  ( -0.0000000000000000000, -0.0000000000000000000, -1.000000000000000000 ) ) ;
#248 = DIRECTION ( 'NONE',  ( 1.000000000000000000, 0.0000000000000000000, 0.0000000000000000000 ) ) ;
#249 = CONICAL_SURFACE ( 'NONE', #139, 0.1031100000000002570, 0.7853981633974318477 ) ;
#250 = FACE_OUTER_BOUND ( 'NONE', #32, .T. ) ;
#251 = ADVANCED_FACE ( 'NONE', ( #123 ), #372, .T. ) ;
#252 = CARTESIAN_POINT ( 'NONE',  ( -0.02361963780000000609, 0.0000000000000000000, 0.04724400000000000127 ) ) ;
#253 = CARTESIAN_POINT ( 'NONE',  ( 0.02361963780000000609, 2.892571382878983863E-18, 0.0000000000000000000 ) ) ;
#254 = CARTESIAN_POINT ( 'NONE',  ( 0.0000000000000000000, 0.0000000000000000000, 0.0000000000000000000 ) ) ;
#255 = FACE_BOUND ( 'NONE', #97, .T. ) ;
#256 = CYLINDRICAL_SURFACE ( 'NONE', #276, 0.02361963780000000609 ) ;
#257 = CIRCLE ( 'NONE', #205, 0.1181100000000000066 ) ;
#258 = DIRECTION ( 'NONE',  ( -1.000000000000000000, 0.0000000000000000000, 0.0000000000000000000 ) ) ;
#259 = PRODUCT_CONTEXT ( 'NONE', #262, 'mechanical' ) ;
#260 = EDGE_CURVE ( 'NONE', #351, #44, #342, .T. ) ;
#261 = CIRCLE ( 'NONE', #92, 0.02263800000000000187 ) ;
#262 = APPLICATION_CONTEXT ( 'automotive_design' ) ;
#263 = ADVANCED_FACE ( 'NONE', ( #169 ), #111, .F. ) ;
#264 = ORIENTED_EDGE ( 'NONE', *, *, #224, .T. ) ;
#265 = AXIS2_PLACEMENT_3D ( 'NONE', #201, #106, #375 ) ;
#266 = DIRECTION ( 'NONE',  ( -1.000000000000000000, 0.0000000000000000000, 0.0000000000000000000 ) ) ;
#267 = ORIENTED_EDGE ( 'NONE', *, *, #31, .T. ) ;
#268 = ADVANCED_FACE ( 'NONE', ( #255, #365 ), #277, .T. ) ;
#269 = ORIENTED_EDGE ( 'NONE', *, *, #316, .F. ) ;
#270 =( NAMED_UNIT ( * ) PLANE_ANGLE_UNIT ( ) SI_UNIT ( $, .RADIAN. ) );
#271 = ORIENTED_EDGE ( 'NONE', *, *, #17, .F. ) ;
#272 = EDGE_CURVE ( 'NONE', #329, #351, #339, .T. ) ;
#273 = DIRECTION ( 'NONE',  ( -0.0000000000000000000, -0.0000000000000000000, -1.000000000000000000 ) ) ;
#274 = CARTESIAN_POINT ( 'NONE',  ( 0.0000000000000000000, 0.0000000000000000000, 2.229093999999999465 ) ) ;
#275 = LINE ( 'NONE', #19, #178 ) ;
#276 = AXIS2_PLACEMENT_3D ( 'NONE', #373, #112, #231 ) ;
#277 = PLANE ( 'NONE',  #265 ) ;
#278 = LINE ( 'NONE', #281, #8 ) ;
#279 = UNCERTAINTY_MEASURE_WITH_UNIT (LENGTH_MEASURE( 1.000000000000000082E-05 ), #53, 'distance_accuracy_value', 'NONE');
#280 = DIRECTION ( 'NONE',  ( 0.0000000000000000000, 0.0000000000000000000, 1.000000000000000000 ) ) ;
#281 = CARTESIAN_POINT ( 'NONE',  ( 0.02263800000000003657, 2.772355423909782880E-18, 0.0000000000000000000 ) ) ;
#282 = CARTESIAN_POINT ( 'NONE',  ( 0.0000000000000000000, 0.0000000000000000000, 2.244094000000000033 ) ) ;
#283 = DIRECTION ( 'NONE',  ( 1.000000000000000000, 0.0000000000000000000, -0.0000000000000000000 ) ) ;
#284 = VECTOR ( 'NONE', #230, 39.37007874015748854 ) ;
#285 = DIRECTION ( 'NONE',  ( 0.0000000000000000000, 0.0000000000000000000, -1.000000000000000000 ) ) ;
#286 = PRESENTATION_STYLE_ASSIGNMENT (( #234 ) ) ;
#287 = AXIS2_PLACEMENT_3D ( 'NONE', #334, #69, #194 ) ;
#288 = AXIS2_PLACEMENT_3D ( 'NONE', #343, #45, #78 ) ;
#289 = AXIS2_PLACEMENT_3D ( 'NONE', #353, #38, #296 ) ;
#290 = ORIENTED_EDGE ( 'NONE', *, *, #260, .T. ) ;
#291 =( GEOMETRIC_REPRESENTATION_CONTEXT ( 3 ) GLOBAL_UNCERTAINTY_ASSIGNED_CONTEXT ( ( #218 ) ) GLOBAL_UNIT_ASSIGNED_CONTEXT ( ( #161, #270, #126 ) ) REPRESENTATION_CONTEXT ( 'NONE', 'WORKASPACE' ) );
#292 = VERTEX_POINT ( 'NONE', #77 ) ;
#293 = DIRECTION ( 'NONE',  ( 1.000000000000000000, 0.0000000000000000000, 0.0000000000000000000 ) ) ;
#294 = EDGE_LOOP ( 'NONE', ( #127, #357, #88, #101 ) ) ;
#295 = EDGE_CURVE ( 'NONE', #292, #66, #313, .T. ) ;
#296 = DIRECTION ( 'NONE',  ( -1.000000000000000000, 0.0000000000000000000, 0.0000000000000000000 ) ) ;
#297 = ORIENTED_EDGE ( 'NONE', *, *, #158, .F. ) ;
#298 = ORIENTED_EDGE ( 'NONE', *, *, #86, .T. ) ;
#299 = CYLINDRICAL_SURFACE ( 'NONE', #347, 0.02263800000000003657 ) ;
#300 = EDGE_LOOP ( 'NONE', ( #124, #267, #35, #185 ) ) ;
#301 = ORIENTED_EDGE ( 'NONE', *, *, #48, .F. ) ;
#302 = PRESENTATION_STYLE_ASSIGNMENT (( #188 ) ) ;
#303 = CARTESIAN_POINT ( 'NONE',  ( 0.0000000000000000000, 0.0000000000000000000, 0.05281114460858953724 ) ) ;
#304 = EDGE_CURVE ( 'NONE', #14, #122, #104, .T. ) ;
#305 =( NAMED_UNIT ( * ) SI_UNIT ( $, .STERADIAN. ) SOLID_ANGLE_UNIT ( ) );
#306 = DIRECTION ( 'NONE',  ( -1.000000000000000000, 0.0000000000000000000, 0.0000000000000000000 ) ) ;
#307 = DIRECTION ( 'NONE',  ( 1.000000000000000000, 0.0000000000000000000, 0.0000000000000000000 ) ) ;
#308 = MECHANICAL_DESIGN_GEOMETRIC_PRESENTATION_REPRESENTATION (  '', ( #332 ), #379 ) ;
#309 = PRODUCT_RELATED_PRODUCT_CATEGORY ( 'part', '', ( #208 ) ) ;
#310 = DIRECTION ( 'NONE',  ( 0.0000000000000000000, 0.0000000000000000000, -1.000000000000000000 ) ) ;
#311 =( LENGTH_UNIT ( ) NAMED_UNIT ( * ) SI_UNIT ( $, .METRE. ) );
#312 = CARTESIAN_POINT ( 'NONE',  ( 0.02361963780000000609, 2.892571382878983863E-18, 0.0000000000000000000 ) ) ;
#313 = LINE ( 'NONE', #50, #94 ) ;
#314 = DIRECTION ( 'NONE',  ( -0.0000000000000000000, -0.0000000000000000000, -1.000000000000000000 ) ) ;
#315 = AXIS2_PLACEMENT_3D ( 'NONE', #24, #280, #307 ) ;
#316 = EDGE_CURVE ( 'NONE', #122, #14, #59, .T. ) ;
#317 = CARTESIAN_POINT ( 'NONE',  ( 0.1181100000000000066, 1.446430334472939084E-17, 2.229093999999999465 ) ) ;
#318 = AXIS2_PLACEMENT_3D ( 'NONE', #49, #225, #171 ) ;
#319 = SURFACE_SIDE_STYLE ('',( #115 ) ) ;
#320 = ADVANCED_FACE ( 'NONE', ( #71 ), #125, .T. ) ;
#321 = ORIENTED_EDGE ( 'NONE', *, *, #55, .T. ) ;
#322 = DIRECTION ( 'NONE',  ( -1.000000000000000000, 0.0000000000000000000, 0.0000000000000000000 ) ) ;
#323 = EDGE_LOOP ( 'NONE', ( #58, #298, #290, #271 ) ) ;
#324 = AXIS2_PLACEMENT_3D ( 'NONE', #282, #27, #138 ) ;
#325 = CARTESIAN_POINT ( 'NONE',  ( 0.0000000000000000000, 0.0000000000000000000, 2.229093999999999465 ) ) ;
#326 = ORIENTED_EDGE ( 'NONE', *, *, #147, .F. ) ;
#327 = DIRECTION ( 'NONE',  ( -1.000000000000000000, 0.0000000000000000000, 0.0000000000000000000 ) ) ;
#328 = APPLICATION_CONTEXT ( 'automotive_design' ) ;
#329 = VERTEX_POINT ( 'NONE', #113 ) ;
#330 = DIRECTION ( 'NONE',  ( -0.7071067811865358044, 0.0000000000000000000, -0.7071067811865590080 ) ) ;
#331 = ORIENTED_EDGE ( 'NONE', *, *, #119, .F. ) ;
#332 = STYLED_ITEM ( 'NONE', ( #286 ), #83 ) ;
#333 =( LENGTH_UNIT ( ) NAMED_UNIT ( * ) SI_UNIT ( $, .METRE. ) );
#334 = CARTESIAN_POINT ( 'NONE',  ( 0.0000000000000000000, 0.0000000000000000000, 0.04724400000000000127 ) ) ;
#335 = ORIENTED_EDGE ( 'NONE', *, *, #272, .F. ) ;
#336 = FACE_OUTER_BOUND ( 'NONE', #300, .T. ) ;
#337 = LENGTH_MEASURE_WITH_UNIT ( LENGTH_MEASURE( 0.02539999999999999897 ), #311 );
#338 = LINE ( 'NONE', #198, #11 ) ;
#339 = LINE ( 'NONE', #252, #284 ) ;
#340 = VECTOR ( 'NONE', #330, 39.37007874015748854 ) ;
#341 = DIRECTION ( 'NONE',  ( 1.000000000000000000, 0.0000000000000000000, 0.0000000000000000000 ) ) ;
#342 = LINE ( 'NONE', #177, #110 ) ;
#343 = CARTESIAN_POINT ( 'NONE',  ( 0.0000000000000000000, 0.0000000000000000000, 0.05281114460858953724 ) ) ;
#344 = DIRECTION ( 'NONE',  ( -0.0000000000000000000, -0.0000000000000000000, -1.000000000000000000 ) ) ;
#345 = PRESENTATION_LAYER_ASSIGNMENT (  '', '', ( #332 ) ) ;
#346 = FILL_AREA_STYLE ('',( #26 ) ) ;
#347 = AXIS2_PLACEMENT_3D ( 'NONE', #41, #159, #266 ) ;
#348 = ORIENTED_EDGE ( 'NONE', *, *, #158, .T. ) ;
#349 = DIRECTION ( 'NONE',  ( 0.7071067811865358044, 8.659560562354788645E-17, -0.7071067811865590080 ) ) ;
#350 = ORIENTED_EDGE ( 'NONE', *, *, #233, .F. ) ;
#351 = VERTEX_POINT ( 'NONE', #362 ) ;
#352 = AXIS2_PLACEMENT_3D ( 'NONE', #274, #310, #341 ) ;
#353 = CARTESIAN_POINT ( 'NONE',  ( 0.0000000000000000000, 0.0000000000000000000, 0.04724400000000000127 ) ) ;
#354 = ORIENTED_EDGE ( 'NONE', *, *, #98, .T. ) ;
#355 = FACE_OUTER_BOUND ( 'NONE', #151, .T. ) ;
#356 = EDGE_LOOP ( 'NONE', ( #13, #191, #301, #93 ) ) ;
#357 = ORIENTED_EDGE ( 'NONE', *, *, #140, .T. ) ;
#358 = FILL_AREA_STYLE_COLOUR ( '', #73 ) ;
#359 = CARTESIAN_POINT ( 'NONE',  ( 0.0000000000000000000, 0.0000000000000000000, 0.5905510000000000481 ) ) ;
#360 = ORIENTED_EDGE ( 'NONE', *, *, #79, .F. ) ;
#361 = AXIS2_PLACEMENT_3D ( 'NONE', #172, #371, #283 ) ;
#362 = CARTESIAN_POINT ( 'NONE',  ( -0.02361963780000000609, 0.0000000000000000000, 0.04724400000000000127 ) ) ;
#363 = DIRECTION ( 'NONE',  ( -0.0000000000000000000, -0.0000000000000000000, -1.000000000000000000 ) ) ;
#364 = PRODUCT_DEFINITION ( 'UNKNOWN', '', #184, #133 ) ;
#365 = FACE_OUTER_BOUND ( 'NONE', #6, .T. ) ;
#366 = CARTESIAN_POINT ( 'NONE',  ( -0.02361963780000000609, 0.0000000000000000000, 0.0000000000000000000 ) ) ;
#367 = APPLICATION_PROTOCOL_DEFINITION ( 'draft international standard', 'automotive_design', 1998, #262 ) ;
#368 = DIRECTION ( 'NONE',  ( -1.000000000000000000, 0.0000000000000000000, 0.0000000000000000000 ) ) ;
#369 = ADVANCED_FACE ( 'NONE', ( #28 ), #249, .T. ) ;
#370 = CONICAL_SURFACE ( 'NONE', #324, 0.1031100000000002570, 0.7853981633974318477 ) ;
#371 = DIRECTION ( 'NONE',  ( 0.0000000000000000000, 0.0000000000000000000, 1.000000000000000000 ) ) ;
#372 = CONICAL_SURFACE ( 'NONE', #192, 0.02361963780000000609, 0.1745329251994333919 ) ;
#373 = CARTESIAN_POINT ( 'NONE',  ( 0.0000000000000000000, 0.0000000000000000000, 0.0000000000000000000 ) ) ;
#374 = EDGE_CURVE ( 'NONE', #61, #187, #229, .T. ) ;
#375 = DIRECTION ( 'NONE',  ( -1.000000000000000000, 0.0000000000000000000, 0.0000000000000000000 ) ) ;
#376 = AXIS2_PLACEMENT_3D ( 'NONE', #109, #227, #105 ) ;
#377 =( LENGTH_UNIT ( ) NAMED_UNIT ( * ) SI_UNIT ( $, .METRE. ) );
#378 = CIRCLE ( 'NONE', #287, 0.02361963780000000609 ) ;
#379 =( GEOMETRIC_REPRESENTATION_CONTEXT ( 3 ) GLOBAL_UNCERTAINTY_ASSIGNED_CONTEXT ( ( #279 ) ) GLOBAL_UNIT_ASSIGNED_CONTEXT ( ( #53, #84, #207 ) ) REPRESENTATION_CONTEXT ( 'NONE', 'WORKASPACE' ) );
ENDSEC;
END-ISO-10303-21;
