ISO-10303-21;
HEADER;
FILE_DESCRIPTION (( 'STEP AP214' ),
    '1' );
FILE_NAME ('59902.STEP',
    '2023-06-22T23:46:40',
    ( '' ),
    ( '' ),
    'SwSTEP 2.0',
    'SolidWorks 2023',
    '' );
FILE_SCHEMA (( 'AUTOMOTIVE_DESIGN' ));
ENDSEC;

DATA;
#1 = DIRECTION ( 'NONE',  ( -0.000000000000000000, -1.000000000000000000, -0.000000000000000000 ) ) ;
#2 = LENGTH_MEASURE_WITH_UNIT ( LENGTH_MEASURE( 0.02539999999999999897 ), #289 );
#3 = EDGE_LOOP ( 'NONE', ( #220, #8 ) ) ;
#4 = PRESENTATION_LAYER_ASSIGNMENT (  '', '', ( #193 ) ) ;
#5 = AXIS2_PLACEMENT_3D ( 'NONE', #276, #40, #137 ) ;
#6 = FACE_OUTER_BOUND ( 'NONE', #3, .T. ) ;
#7 = STYLED_ITEM ( 'NONE', ( #62 ), #9 ) ;
#8 = ORIENTED_EDGE ( 'NONE', *, *, #155, .T. ) ;
#9 = ADVANCED_FACE ( 'NONE', ( #17 ), #156, .T. ) ;
#10 = DIMENSIONAL_EXPONENTS ( 1.000000000000000000, 0.000000000000000000, 0.000000000000000000, 0.000000000000000000, 0.000000000000000000, 0.000000000000000000, 0.000000000000000000 ) ;
#11 =( NAMED_UNIT ( * ) PLANE_ANGLE_UNIT ( ) SI_UNIT ( $, .RADIAN. ) );
#12 = DIRECTION ( 'NONE',  ( -1.000000000000000000, 2.260886398425882692E-16, 0.000000000000000000 ) ) ;
#13 = DIRECTION ( 'NONE',  ( 0.000000000000000000, 0.000000000000000000, -1.000000000000000000 ) ) ;
#14 = CYLINDRICAL_SURFACE ( 'NONE', #267, 0.1250000000000000000 ) ;
#15 = AXIS2_PLACEMENT_3D ( 'NONE', #78, #172, #30 ) ;
#16 =( CONVERSION_BASED_UNIT ( 'INCH', #217 ) LENGTH_UNIT ( ) NAMED_UNIT ( #232 ) );
#17 = FACE_OUTER_BOUND ( 'NONE', #211, .T. ) ;
#18 = COLOUR_RGB ( '',1.000000000000000000, 0.000000000000000000, 0.000000000000000000 ) ;
#19 = EDGE_CURVE ( 'NONE', #52, #196, #97, .T. ) ;
#20 =( CONVERSION_BASED_UNIT ( 'INCH', #108 ) LENGTH_UNIT ( ) NAMED_UNIT ( #10 ) );
#21 = PRODUCT_DEFINITION_CONTEXT ( 'detailed design', #242, 'design' ) ;
#22 =( CONVERSION_BASED_UNIT ( 'INCH', #251 ) LENGTH_UNIT ( ) NAMED_UNIT ( #121 ) );
#23 = AXIS2_PLACEMENT_3D ( 'NONE', #212, #194, #74 ) ;
#24 = CYLINDRICAL_SURFACE ( 'NONE', #73, 0.1249999999999998057 ) ;
#25 = CIRCLE ( 'NONE', #188, 0.1250000000000000000 ) ;
#26 = DIRECTION ( 'NONE',  ( 2.260886398425882692E-16, 1.000000000000000000, -0.000000000000000000 ) ) ;
#27 = EDGE_LOOP ( 'NONE', ( #83, #60, #69, #262 ) ) ;
#28 = PRESENTATION_STYLE_ASSIGNMENT (( #143 ) ) ;
#29 = VERTEX_POINT ( 'NONE', #46 ) ;
#30 = DIRECTION ( 'NONE',  ( -1.000000000000000000, 0.000000000000000000, 0.000000000000000000 ) ) ;
#31 = ADVANCED_FACE ( 'NONE', ( #163 ), #24, .T. ) ;
#32 = CIRCLE ( 'NONE', #68, 0.1250000000000000000 ) ;
#33 =( CONVERSION_BASED_UNIT ( 'INCH', #102 ) LENGTH_UNIT ( ) NAMED_UNIT ( #53 ) );
#34 = LINE ( 'NONE', #125, #49 ) ;
#35 = EDGE_LOOP ( 'NONE', ( #230, #254, #45, #142 ) ) ;
#36 = COLOUR_RGB ( '',1.000000000000000000, 0.000000000000000000, 0.000000000000000000 ) ;
#37 =( GEOMETRIC_REPRESENTATION_CONTEXT ( 3 ) GLOBAL_UNCERTAINTY_ASSIGNED_CONTEXT ( ( #290 ) ) GLOBAL_UNIT_ASSIGNED_CONTEXT ( ( #118, #168, #236 ) ) REPRESENTATION_CONTEXT ( 'NONE', 'WORKASPACE' ) );
#38 = FILL_AREA_STYLE_COLOUR ( '', #18 ) ;
#39 = ORIENTED_EDGE ( 'NONE', *, *, #19, .T. ) ;
#40 = DIRECTION ( 'NONE',  ( 0.000000000000000000, 0.000000000000000000, 1.000000000000000000 ) ) ;
#41 = DIRECTION ( 'NONE',  ( 0.000000000000000000, -0.000000000000000000, 1.000000000000000000 ) ) ;
#42 = CARTESIAN_POINT ( 'NONE',  ( 0.000000000000000000, 0.000000000000000000, 0.000000000000000000 ) ) ;
#43 = AXIS2_PLACEMENT_3D ( 'NONE', #44, #141, #12 ) ;
#44 = CARTESIAN_POINT ( 'NONE',  ( 3.194754566616974915E-33, 0.3749999999999999445, 0.000000000000000000 ) ) ;
#45 = ORIENTED_EDGE ( 'NONE', *, *, #305, .F. ) ;
#46 = CARTESIAN_POINT ( 'NONE',  ( 1.530808498934191509E-17, 0.000000000000000000, 0.1250000000000000000 ) ) ;
#47 = EDGE_LOOP ( 'NONE', ( #87, #99, #39, #122 ) ) ;
#48 = DIMENSIONAL_EXPONENTS ( 1.000000000000000000, 0.000000000000000000, 0.000000000000000000, 0.000000000000000000, 0.000000000000000000, 0.000000000000000000, 0.000000000000000000 ) ;
#49 = VECTOR ( 'NONE', #75, 39.37007874015748143 ) ;
#50 = PRODUCT_DEFINITION_FORMATION_WITH_SPECIFIED_SOURCE ( 'ANY', '', #129, .NOT_KNOWN. ) ;
#51 = DIRECTION ( 'NONE',  ( 0.000000000000000000, 0.000000000000000000, -1.000000000000000000 ) ) ;
#52 = VERTEX_POINT ( 'NONE', #165 ) ;
#53 = DIMENSIONAL_EXPONENTS ( 1.000000000000000000, 0.000000000000000000, 0.000000000000000000, 0.000000000000000000, 0.000000000000000000, 0.000000000000000000, 0.000000000000000000 ) ;
#54 = FILL_AREA_STYLE_COLOUR ( '', #170 ) ;
#55 = PRESENTATION_STYLE_ASSIGNMENT (( #76 ) ) ;
#56 =( GEOMETRIC_REPRESENTATION_CONTEXT ( 3 ) GLOBAL_UNCERTAINTY_ASSIGNED_CONTEXT ( ( #130 ) ) GLOBAL_UNIT_ASSIGNED_CONTEXT ( ( #16, #11, #195 ) ) REPRESENTATION_CONTEXT ( 'NONE', 'WORKASPACE' ) );
#57 = FACE_OUTER_BOUND ( 'NONE', #192, .T. ) ;
#58 = EDGE_CURVE ( 'NONE', #291, #120, #283, .T. ) ;
#59 = SURFACE_SIDE_STYLE ('',( #101 ) ) ;
#60 = ORIENTED_EDGE ( 'NONE', *, *, #93, .T. ) ;
#61 = DIRECTION ( 'NONE',  ( 2.260886398425882692E-16, 1.000000000000000000, -0.000000000000000000 ) ) ;
#62 = PRESENTATION_STYLE_ASSIGNMENT (( #180 ) ) ;
#63 = VECTOR ( 'NONE', #26, 39.37007874015748143 ) ;
#64 =( GEOMETRIC_REPRESENTATION_CONTEXT ( 3 ) GLOBAL_UNCERTAINTY_ASSIGNED_CONTEXT ( ( #174 ) ) GLOBAL_UNIT_ASSIGNED_CONTEXT ( ( #33, #84, #157 ) ) REPRESENTATION_CONTEXT ( 'NONE', 'WORKASPACE' ) );
#65 = FILL_AREA_STYLE_COLOUR ( '', #286 ) ;
#66 = DIRECTION ( 'NONE',  ( -1.000000000000000000, 0.000000000000000000, 0.000000000000000000 ) ) ;
#67 = ORIENTED_EDGE ( 'NONE', *, *, #153, .T. ) ;
#68 = AXIS2_PLACEMENT_3D ( 'NONE', #272, #169, #216 ) ;
#69 = ORIENTED_EDGE ( 'NONE', *, *, #72, .T. ) ;
#70 = CARTESIAN_POINT ( 'NONE',  ( -0.1249999999999994310, 2.000000000000000000, 0.000000000000000000 ) ) ;
#71 = DIRECTION ( 'NONE',  ( 2.260886398425882692E-16, 1.000000000000000000, -0.000000000000000000 ) ) ;
#72 = EDGE_CURVE ( 'NONE', #291, #189, #119, .T. ) ;
#73 = AXIS2_PLACEMENT_3D ( 'NONE', #191, #71, #66 ) ;
#74 = DIRECTION ( 'NONE',  ( 0.000000000000000000, 0.000000000000000000, -1.000000000000000000 ) ) ;
#75 = DIRECTION ( 'NONE',  ( -0.000000000000000000, -1.000000000000000000, -0.000000000000000000 ) ) ;
#76 = SURFACE_STYLE_USAGE ( .BOTH. , #269 ) ;
#77 =( LENGTH_UNIT ( ) NAMED_UNIT ( * ) SI_UNIT ( $, .METRE. ) );
#78 = CARTESIAN_POINT ( 'NONE',  ( 3.673940397442059375E-16, 2.000000000000000000, 0.000000000000000000 ) ) ;
#79 = FILL_AREA_STYLE ('',( #294 ) ) ;
#80 = SURFACE_STYLE_USAGE ( .BOTH. , #225 ) ;
#81 = CLOSED_SHELL ( 'NONE', ( #206, #88, #31, #219 ) ) ;
#82 = MECHANICAL_DESIGN_GEOMETRIC_PRESENTATION_REPRESENTATION (  '', ( #222 ), #56 ) ;
#83 = ORIENTED_EDGE ( 'NONE', *, *, #153, .F. ) ;
#84 =( NAMED_UNIT ( * ) PLANE_ANGLE_UNIT ( ) SI_UNIT ( $, .RADIAN. ) );
#85 = FACE_OUTER_BOUND ( 'NONE', #35, .T. ) ;
#86 = CARTESIAN_POINT ( 'NONE',  ( 0.000000000000000000, 0.000000000000000000, 0.000000000000000000 ) ) ;
#87 = ORIENTED_EDGE ( 'NONE', *, *, #241, .F. ) ;
#88 = ADVANCED_FACE ( 'NONE', ( #186 ), #280, .F. ) ;
#89 = CIRCLE ( 'NONE', #15, 0.1249999999999996253 ) ;
#90 = FACE_OUTER_BOUND ( 'NONE', #126, .T. ) ;
#91 = APPLICATION_PROTOCOL_DEFINITION ( 'draft international standard', 'automotive_design', 1998, #242 ) ;
#92 = DIRECTION ( 'NONE',  ( -0.000000000000000000, -1.000000000000000000, -0.000000000000000000 ) ) ;
#93 = EDGE_CURVE ( 'NONE', #120, #291, #32, .T. ) ;
#94 = COLOUR_RGB ( '',0.7921568627450980005, 0.8196078431372548767, 0.9333333333333333481 ) ;
#95 = PRESENTATION_LAYER_ASSIGNMENT (  '', '', ( #148 ) ) ;
#96 = DIRECTION ( 'NONE',  ( 0.000000000000000000, 0.000000000000000000, -1.000000000000000000 ) ) ;
#97 = LINE ( 'NONE', #70, #63 ) ;
#98 = VECTOR ( 'NONE', #61, 39.37007874015748143 ) ;
#99 = ORIENTED_EDGE ( 'NONE', *, *, #114, .T. ) ;
#100 = PRESENTATION_STYLE_ASSIGNMENT (( #234 ) ) ;
#101 = SURFACE_STYLE_FILL_AREA ( #79 ) ;
#102 = LENGTH_MEASURE_WITH_UNIT ( LENGTH_MEASURE( 0.02539999999999999897 ), #244 );
#103 = CARTESIAN_POINT ( 'NONE',  ( 0.000000000000000000, 0.3749999999999999445, 0.000000000000000000 ) ) ;
#104 = CARTESIAN_POINT ( 'NONE',  ( 3.673940397442059375E-16, 2.000000000000000000, 0.000000000000000000 ) ) ;
#105 = PRESENTATION_LAYER_ASSIGNMENT (  '', '', ( #222 ) ) ;
#106 =( LENGTH_UNIT ( ) NAMED_UNIT ( * ) SI_UNIT ( $, .METRE. ) );
#107 = ORIENTED_EDGE ( 'NONE', *, *, #228, .F. ) ;
#108 = LENGTH_MEASURE_WITH_UNIT ( LENGTH_MEASURE( 0.02539999999999999897 ), #106 );
#109 = ORIENTED_EDGE ( 'NONE', *, *, #58, .T. ) ;
#110 = DIRECTION ( 'NONE',  ( -0.000000000000000000, -1.000000000000000000, -0.000000000000000000 ) ) ;
#111 = CARTESIAN_POINT ( 'NONE',  ( -0.1249999999999992506, 2.000000000000000000, 0.000000000000000000 ) ) ;
#112 = CIRCLE ( 'NONE', #304, 0.1250000000000000000 ) ;
#113 = SURFACE_STYLE_FILL_AREA ( #185 ) ;
#114 = EDGE_CURVE ( 'NONE', #145, #52, #233, .T. ) ;
#115 = DIRECTION ( 'NONE',  ( 0.000000000000000000, 0.000000000000000000, -1.000000000000000000 ) ) ;
#116 = DIMENSIONAL_EXPONENTS ( 1.000000000000000000, 0.000000000000000000, 0.000000000000000000, 0.000000000000000000, 0.000000000000000000, 0.000000000000000000, 0.000000000000000000 ) ;
#117 = AXIS2_PLACEMENT_3D ( 'NONE', #128, #150, #13 ) ;
#118 =( CONVERSION_BASED_UNIT ( 'INCH', #2 ) LENGTH_UNIT ( ) NAMED_UNIT ( #116 ) );
#119 = LINE ( 'NONE', #307, #144 ) ;
#120 = VERTEX_POINT ( 'NONE', #237 ) ;
#121 = DIMENSIONAL_EXPONENTS ( 1.000000000000000000, 0.000000000000000000, 0.000000000000000000, 0.000000000000000000, 0.000000000000000000, 0.000000000000000000, 0.000000000000000000 ) ;
#122 = ORIENTED_EDGE ( 'NONE', *, *, #133, .F. ) ;
#123 =( LENGTH_UNIT ( ) NAMED_UNIT ( * ) SI_UNIT ( $, .METRE. ) );
#124 = COLOUR_RGB ( '',1.000000000000000000, 0.000000000000000000, 0.000000000000000000 ) ;
#125 = CARTESIAN_POINT ( 'NONE',  ( 1.530808498934191509E-17, 0.000000000000000000, 0.1250000000000000000 ) ) ;
#126 = EDGE_LOOP ( 'NONE', ( #214, #203 ) ) ;
#127 = SURFACE_STYLE_FILL_AREA ( #167 ) ;
#128 = CARTESIAN_POINT ( 'NONE',  ( 0.000000000000000000, 0.000000000000000000, 0.000000000000000000 ) ) ;
#129 = PRODUCT ( '59902', '59902', '', ( #255 ) ) ;
#130 = UNCERTAINTY_MEASURE_WITH_UNIT (LENGTH_MEASURE( 1.000000000000000082E-05 ), #16, 'distance_accuracy_value', 'NONE');
#131 = SURFACE_STYLE_FILL_AREA ( #135 ) ;
#132 = AXIS2_PLACEMENT_3D ( 'NONE', #152, #246, #149 ) ;
#133 = EDGE_CURVE ( 'NONE', #138, #196, #89, .T. ) ;
#134 = LENGTH_MEASURE_WITH_UNIT ( LENGTH_MEASURE( 0.02539999999999999897 ), #77 );
#135 = FILL_AREA_STYLE ('',( #175 ) ) ;
#136 = ADVANCED_BREP_SHAPE_REPRESENTATION ( '59902', ( #173, #282, #5 ), #278 ) ;
#137 = DIRECTION ( 'NONE',  ( 1.000000000000000000, 0.000000000000000000, 0.000000000000000000 ) ) ;
#138 = VERTEX_POINT ( 'NONE', #147 ) ;
#139 = MECHANICAL_DESIGN_GEOMETRIC_PRESENTATION_REPRESENTATION (  '', ( #266 ), #37 ) ;
#140 = MECHANICAL_DESIGN_GEOMETRIC_PRESENTATION_REPRESENTATION (  '', ( #148 ), #64 ) ;
#141 = DIRECTION ( 'NONE',  ( 2.260886398425882692E-16, 1.000000000000000000, -0.000000000000000000 ) ) ;
#142 = ORIENTED_EDGE ( 'NONE', *, *, #19, .F. ) ;
#143 = SURFACE_STYLE_USAGE ( .BOTH. , #164 ) ;
#144 = VECTOR ( 'NONE', #92, 39.37007874015748143 ) ;
#145 = VERTEX_POINT ( 'NONE', #264 ) ;
#146 = FILL_AREA_STYLE ('',( #65 ) ) ;
#147 = CARTESIAN_POINT ( 'NONE',  ( 0.1250000000000000278, 2.000000000000000000, 1.530808498934190585E-17 ) ) ;
#148 = STYLED_ITEM ( 'NONE', ( #268 ), #309 ) ;
#149 = DIRECTION ( 'NONE',  ( -1.000000000000000000, 0.000000000000000000, 0.000000000000000000 ) ) ;
#150 = DIRECTION ( 'NONE',  ( -0.000000000000000000, -1.000000000000000000, -0.000000000000000000 ) ) ;
#151 = SURFACE_STYLE_USAGE ( .BOTH. , #59 ) ;
#152 = CARTESIAN_POINT ( 'NONE',  ( 3.673940397442059375E-16, 2.000000000000000000, 0.000000000000000000 ) ) ;
#153 = EDGE_CURVE ( 'NONE', #120, #29, #34, .T. ) ;
#154 = CARTESIAN_POINT ( 'NONE',  ( 0.1250000000000000000, 2.000000000000000000, 0.000000000000000000 ) ) ;
#155 = EDGE_CURVE ( 'NONE', #29, #189, #205, .T. ) ;
#156 = CYLINDRICAL_SURFACE ( 'NONE', #257, 0.1250000000000000000 ) ;
#157 =( NAMED_UNIT ( * ) SI_UNIT ( $, .STERADIAN. ) SOLID_ANGLE_UNIT ( ) );
#158 = ORIENTED_EDGE ( 'NONE', *, *, #133, .T. ) ;
#159 = CYLINDRICAL_SURFACE ( 'NONE', #166, 0.1249999999999998057 ) ;
#160 = APPLICATION_PROTOCOL_DEFINITION ( 'draft international standard', 'automotive_design', 1998, #182 ) ;
#161 = DIRECTION ( 'NONE',  ( 0.000000000000000000, 1.000000000000000000, 0.000000000000000000 ) ) ;
#162 =( GEOMETRIC_REPRESENTATION_CONTEXT ( 3 ) GLOBAL_UNCERTAINTY_ASSIGNED_CONTEXT ( ( #200 ) ) GLOBAL_UNIT_ASSIGNED_CONTEXT ( ( #223, #218, #177 ) ) REPRESENTATION_CONTEXT ( 'NONE', 'WORKASPACE' ) );
#163 = FACE_OUTER_BOUND ( 'NONE', #47, .T. ) ;
#164 = SURFACE_SIDE_STYLE ('',( #238 ) ) ;
#165 = CARTESIAN_POINT ( 'NONE',  ( -0.1250000000000000000, 0.3749999999999999445, 0.000000000000000000 ) ) ;
#166 = AXIS2_PLACEMENT_3D ( 'NONE', #104, #176, #204 ) ;
#167 = FILL_AREA_STYLE ('',( #54 ) ) ;
#168 =( NAMED_UNIT ( * ) PLANE_ANGLE_UNIT ( ) SI_UNIT ( $, .RADIAN. ) );
#169 = DIRECTION ( 'NONE',  ( -0.000000000000000000, -1.000000000000000000, -0.000000000000000000 ) ) ;
#170 = COLOUR_RGB ( '',0.7921568627450980005, 0.8196078431372548767, 0.9333333333333333481 ) ;
#171 = PRODUCT_DEFINITION ( 'UNKNOWN', '', #50, #21 ) ;
#172 = DIRECTION ( 'NONE',  ( 2.260886398425882692E-16, 1.000000000000000000, -0.000000000000000000 ) ) ;
#173 = MANIFOLD_SOLID_BREP ( 'Revolve - Cutting Edge', #213 ) ;
#174 = UNCERTAINTY_MEASURE_WITH_UNIT (LENGTH_MEASURE( 1.000000000000000082E-05 ), #33, 'distance_accuracy_value', 'NONE');
#175 = FILL_AREA_STYLE_COLOUR ( '', #36 ) ;
#176 = DIRECTION ( 'NONE',  ( 2.260886398425882692E-16, 1.000000000000000000, -0.000000000000000000 ) ) ;
#177 =( NAMED_UNIT ( * ) SI_UNIT ( $, .STERADIAN. ) SOLID_ANGLE_UNIT ( ) );
#178 = LENGTH_MEASURE_WITH_UNIT ( LENGTH_MEASURE( 0.02539999999999999897 ), #301 );
#179 = FILL_AREA_STYLE_COLOUR ( '', #94 ) ;
#180 = SURFACE_STYLE_USAGE ( .BOTH. , #201 ) ;
#181 = STYLED_ITEM ( 'NONE', ( #247 ), #190 ) ;
#182 = APPLICATION_CONTEXT ( 'automotive_design' ) ;
#183 =( NAMED_UNIT ( * ) SI_UNIT ( $, .STERADIAN. ) SOLID_ANGLE_UNIT ( ) );
#184 =( NAMED_UNIT ( * ) SI_UNIT ( $, .STERADIAN. ) SOLID_ANGLE_UNIT ( ) );
#185 = FILL_AREA_STYLE ('',( #179 ) ) ;
#186 = FACE_OUTER_BOUND ( 'NONE', #287, .T. ) ;
#187 =( NAMED_UNIT ( * ) PLANE_ANGLE_UNIT ( ) SI_UNIT ( $, .RADIAN. ) );
#188 = AXIS2_PLACEMENT_3D ( 'NONE', #274, #248, #221 ) ;
#189 = VERTEX_POINT ( 'NONE', #252 ) ;
#190 = ADVANCED_FACE ( 'NONE', ( #90 ), #292, .T. ) ;
#191 = CARTESIAN_POINT ( 'NONE',  ( 3.673940397442059375E-16, 2.000000000000000000, 0.000000000000000000 ) ) ;
#192 = EDGE_LOOP ( 'NONE', ( #235, #158 ) ) ;
#193 = STYLED_ITEM ( 'NONE', ( #28 ), #288 ) ;
#194 = DIRECTION ( 'NONE',  ( 0.000000000000000000, -1.000000000000000000, -0.000000000000000000 ) ) ;
#195 =( NAMED_UNIT ( * ) SI_UNIT ( $, .STERADIAN. ) SOLID_ANGLE_UNIT ( ) );
#196 = VERTEX_POINT ( 'NONE', #111 ) ;
#197 = UNCERTAINTY_MEASURE_WITH_UNIT (LENGTH_MEASURE( 1.000000000000000082E-05 ), #275, 'distance_accuracy_value', 'NONE');
#198 = PRESENTATION_LAYER_ASSIGNMENT (  '', '', ( #266 ) ) ;
#199 = FILL_AREA_STYLE ('',( #38 ) ) ;
#200 = UNCERTAINTY_MEASURE_WITH_UNIT (LENGTH_MEASURE( 1.000000000000000082E-05 ), #223, 'distance_accuracy_value', 'NONE');
#201 = SURFACE_SIDE_STYLE ('',( #131 ) ) ;
#202 = LINE ( 'NONE', #300, #98 ) ;
#203 = ORIENTED_EDGE ( 'NONE', *, *, #93, .F. ) ;
#204 = DIRECTION ( 'NONE',  ( -1.000000000000000000, 0.000000000000000000, 0.000000000000000000 ) ) ;
#205 = CIRCLE ( 'NONE', #117, 0.1250000000000000000 ) ;
#206 = ADVANCED_FACE ( 'NONE', ( #85 ), #159, .T. ) ;
#207 = SHAPE_DEFINITION_REPRESENTATION ( #308, #136 ) ;
#208 = PLANE ( 'NONE',  #23 ) ;
#209 = CARTESIAN_POINT ( 'NONE',  ( 0.000000000000000000, 0.3749999999999999445, 0.000000000000000000 ) ) ;
#210 = DIMENSIONAL_EXPONENTS ( 1.000000000000000000, 0.000000000000000000, 0.000000000000000000, 0.000000000000000000, 0.000000000000000000, 0.000000000000000000, 0.000000000000000000 ) ;
#211 = EDGE_LOOP ( 'NONE', ( #109, #67, #273, #281 ) ) ;
#212 = CARTESIAN_POINT ( 'NONE',  ( 0.000000000000000000, 0.000000000000000000, 0.000000000000000000 ) ) ;
#213 = CLOSED_SHELL ( 'NONE', ( #9, #190, #309, #288 ) ) ;
#214 = ORIENTED_EDGE ( 'NONE', *, *, #58, .F. ) ;
#215 =( GEOMETRIC_REPRESENTATION_CONTEXT ( 3 ) GLOBAL_UNCERTAINTY_ASSIGNED_CONTEXT ( ( #250 ) ) GLOBAL_UNIT_ASSIGNED_CONTEXT ( ( #20, #253, #184 ) ) REPRESENTATION_CONTEXT ( 'NONE', 'WORKASPACE' ) );
#216 = DIRECTION ( 'NONE',  ( 0.000000000000000000, 0.000000000000000000, -1.000000000000000000 ) ) ;
#217 = LENGTH_MEASURE_WITH_UNIT ( LENGTH_MEASURE( 0.02539999999999999897 ), #123 );
#218 =( NAMED_UNIT ( * ) PLANE_ANGLE_UNIT ( ) SI_UNIT ( $, .RADIAN. ) );
#219 = ADVANCED_FACE ( 'NONE', ( #57 ), #303, .F. ) ;
#220 = ORIENTED_EDGE ( 'NONE', *, *, #285, .T. ) ;
#221 = DIRECTION ( 'NONE',  ( -1.000000000000000000, 0.000000000000000000, 0.000000000000000000 ) ) ;
#222 = STYLED_ITEM ( 'NONE', ( #55 ), #173 ) ;
#223 =( CONVERSION_BASED_UNIT ( 'INCH', #134 ) LENGTH_UNIT ( ) NAMED_UNIT ( #210 ) );
#224 =( NAMED_UNIT ( * ) PLANE_ANGLE_UNIT ( ) SI_UNIT ( $, .RADIAN. ) );
#225 = SURFACE_SIDE_STYLE ('',( #227 ) ) ;
#226 =( NAMED_UNIT ( * ) SI_UNIT ( $, .STERADIAN. ) SOLID_ANGLE_UNIT ( ) );
#227 = SURFACE_STYLE_FILL_AREA ( #199 ) ;
#228 = EDGE_CURVE ( 'NONE', #52, #145, #25, .T. ) ;
#229 = MECHANICAL_DESIGN_GEOMETRIC_PRESENTATION_REPRESENTATION (  '', ( #7 ), #277 ) ;
#230 = ORIENTED_EDGE ( 'NONE', *, *, #228, .T. ) ;
#231 = ORIENTED_EDGE ( 'NONE', *, *, #114, .F. ) ;
#232 = DIMENSIONAL_EXPONENTS ( 1.000000000000000000, 0.000000000000000000, 0.000000000000000000, 0.000000000000000000, 0.000000000000000000, 0.000000000000000000, 0.000000000000000000 ) ;
#233 = CIRCLE ( 'NONE', #239, 0.1250000000000000000 ) ;
#234 = SURFACE_STYLE_USAGE ( .BOTH. , #284 ) ;
#235 = ORIENTED_EDGE ( 'NONE', *, *, #305, .T. ) ;
#236 =( NAMED_UNIT ( * ) SI_UNIT ( $, .STERADIAN. ) SOLID_ANGLE_UNIT ( ) );
#237 = CARTESIAN_POINT ( 'NONE',  ( 1.530808498934191509E-17, 0.3749999999999999445, 0.1250000000000000000 ) ) ;
#238 = SURFACE_STYLE_FILL_AREA ( #146 ) ;
#239 = AXIS2_PLACEMENT_3D ( 'NONE', #103, #245, #295 ) ;
#240 = CIRCLE ( 'NONE', #132, 0.1249999999999996253 ) ;
#241 = EDGE_CURVE ( 'NONE', #145, #138, #202, .T. ) ;
#242 = APPLICATION_CONTEXT ( 'automotive_design' ) ;
#243 = PRESENTATION_LAYER_ASSIGNMENT (  '', '', ( #181 ) ) ;
#244 =( LENGTH_UNIT ( ) NAMED_UNIT ( * ) SI_UNIT ( $, .METRE. ) );
#245 = DIRECTION ( 'NONE',  ( 2.260886398425882692E-16, 1.000000000000000000, -0.000000000000000000 ) ) ;
#246 = DIRECTION ( 'NONE',  ( 2.260886398425882692E-16, 1.000000000000000000, -0.000000000000000000 ) ) ;
#247 = PRESENTATION_STYLE_ASSIGNMENT (( #80 ) ) ;
#248 = DIRECTION ( 'NONE',  ( 2.260886398425882692E-16, 1.000000000000000000, -0.000000000000000000 ) ) ;
#249 = AXIS2_PLACEMENT_3D ( 'NONE', #271, #161, #41 ) ;
#250 = UNCERTAINTY_MEASURE_WITH_UNIT (LENGTH_MEASURE( 1.000000000000000082E-05 ), #20, 'distance_accuracy_value', 'NONE');
#251 = LENGTH_MEASURE_WITH_UNIT ( LENGTH_MEASURE( 0.02539999999999999897 ), #302 );
#252 = CARTESIAN_POINT ( 'NONE',  ( 0.000000000000000000, 0.000000000000000000, -0.1250000000000000000 ) ) ;
#253 =( NAMED_UNIT ( * ) PLANE_ANGLE_UNIT ( ) SI_UNIT ( $, .RADIAN. ) );
#254 = ORIENTED_EDGE ( 'NONE', *, *, #241, .T. ) ;
#255 = PRODUCT_CONTEXT ( 'NONE', #182, 'mechanical' ) ;
#256 = PRESENTATION_LAYER_ASSIGNMENT (  '', '', ( #7 ) ) ;
#257 = AXIS2_PLACEMENT_3D ( 'NONE', #259, #1, #96 ) ;
#258 = PRODUCT_RELATED_PRODUCT_CATEGORY ( 'part', '', ( #129 ) ) ;
#259 = CARTESIAN_POINT ( 'NONE',  ( 0.000000000000000000, 0.000000000000000000, 0.000000000000000000 ) ) ;
#260 = AXIS2_PLACEMENT_3D ( 'NONE', #154, #279, #297 ) ;
#261 = DIRECTION ( 'NONE',  ( -0.000000000000000000, -1.000000000000000000, -0.000000000000000000 ) ) ;
#262 = ORIENTED_EDGE ( 'NONE', *, *, #155, .F. ) ;
#263 = CARTESIAN_POINT ( 'NONE',  ( 0.000000000000000000, 0.3749999999999999445, -0.1250000000000000000 ) ) ;
#264 = CARTESIAN_POINT ( 'NONE',  ( 0.1250000000000000278, 0.3749999999999999445, 1.530808498934190585E-17 ) ) ;
#265 = DIRECTION ( 'NONE',  ( -0.000000000000000000, -1.000000000000000000, -0.000000000000000000 ) ) ;
#266 = STYLED_ITEM ( 'NONE', ( #100 ), #282 ) ;
#267 = AXIS2_PLACEMENT_3D ( 'NONE', #42, #110, #115 ) ;
#268 = PRESENTATION_STYLE_ASSIGNMENT (( #151 ) ) ;
#269 = SURFACE_SIDE_STYLE ('',( #127 ) ) ;
#270 = AXIS2_PLACEMENT_3D ( 'NONE', #209, #261, #51 ) ;
#271 = CARTESIAN_POINT ( 'NONE',  ( 0.000000000000000000, 0.3749999999999999445, 0.000000000000000000 ) ) ;
#272 = CARTESIAN_POINT ( 'NONE',  ( 0.000000000000000000, 0.3749999999999999445, 0.000000000000000000 ) ) ;
#273 = ORIENTED_EDGE ( 'NONE', *, *, #285, .F. ) ;
#274 = CARTESIAN_POINT ( 'NONE',  ( 0.000000000000000000, 0.3749999999999999445, 0.000000000000000000 ) ) ;
#275 =( CONVERSION_BASED_UNIT ( 'INCH', #178 ) LENGTH_UNIT ( ) NAMED_UNIT ( #48 ) );
#276 = CARTESIAN_POINT ( 'NONE',  ( 0.000000000000000000, 0.000000000000000000, 0.000000000000000000 ) ) ;
#277 =( GEOMETRIC_REPRESENTATION_CONTEXT ( 3 ) GLOBAL_UNCERTAINTY_ASSIGNED_CONTEXT ( ( #197 ) ) GLOBAL_UNIT_ASSIGNED_CONTEXT ( ( #275, #224, #226 ) ) REPRESENTATION_CONTEXT ( 'NONE', 'WORKASPACE' ) );
#278 =( GEOMETRIC_REPRESENTATION_CONTEXT ( 3 ) GLOBAL_UNCERTAINTY_ASSIGNED_CONTEXT ( ( #298 ) ) GLOBAL_UNIT_ASSIGNED_CONTEXT ( ( #22, #187, #183 ) ) REPRESENTATION_CONTEXT ( 'NONE', 'WORKASPACE' ) );
#279 = DIRECTION ( 'NONE',  ( -2.260886398425882692E-16, -1.000000000000000000, 0.000000000000000000 ) ) ;
#280 = PLANE ( 'NONE',  #43 ) ;
#281 = ORIENTED_EDGE ( 'NONE', *, *, #72, .F. ) ;
#282 = MANIFOLD_SOLID_BREP ( 'Revolve - Tool Body (Straight Shanked)', #81 ) ;
#283 = CIRCLE ( 'NONE', #270, 0.1250000000000000000 ) ;
#284 = SURFACE_SIDE_STYLE ('',( #113 ) ) ;
#285 = EDGE_CURVE ( 'NONE', #189, #29, #112, .T. ) ;
#286 = COLOUR_RGB ( '',1.000000000000000000, 0.000000000000000000, 0.000000000000000000 ) ;
#287 = EDGE_LOOP ( 'NONE', ( #107, #231 ) ) ;
#288 = ADVANCED_FACE ( 'NONE', ( #6 ), #208, .T. ) ;
#289 =( LENGTH_UNIT ( ) NAMED_UNIT ( * ) SI_UNIT ( $, .METRE. ) );
#290 = UNCERTAINTY_MEASURE_WITH_UNIT (LENGTH_MEASURE( 1.000000000000000082E-05 ), #118, 'distance_accuracy_value', 'NONE');
#291 = VERTEX_POINT ( 'NONE', #263 ) ;
#292 = PLANE ( 'NONE',  #249 ) ;
#293 = MECHANICAL_DESIGN_GEOMETRIC_PRESENTATION_REPRESENTATION (  '', ( #181 ), #215 ) ;
#294 = FILL_AREA_STYLE_COLOUR ( '', #124 ) ;
#295 = DIRECTION ( 'NONE',  ( -1.000000000000000000, 0.000000000000000000, 0.000000000000000000 ) ) ;
#296 = FACE_OUTER_BOUND ( 'NONE', #27, .T. ) ;
#297 = DIRECTION ( 'NONE',  ( 1.000000000000000000, -2.260886398425882692E-16, 0.000000000000000000 ) ) ;
#298 = UNCERTAINTY_MEASURE_WITH_UNIT (LENGTH_MEASURE( 1.000000000000000082E-05 ), #22, 'distance_accuracy_value', 'NONE');
#299 = MECHANICAL_DESIGN_GEOMETRIC_PRESENTATION_REPRESENTATION (  '', ( #193 ), #162 ) ;
#300 = CARTESIAN_POINT ( 'NONE',  ( 0.1250000000000001943, 2.000000000000000000, 1.530808498934189352E-17 ) ) ;
#301 =( LENGTH_UNIT ( ) NAMED_UNIT ( * ) SI_UNIT ( $, .METRE. ) );
#302 =( LENGTH_UNIT ( ) NAMED_UNIT ( * ) SI_UNIT ( $, .METRE. ) );
#303 = PLANE ( 'NONE',  #260 ) ;
#304 = AXIS2_PLACEMENT_3D ( 'NONE', #86, #265, #306 ) ;
#305 = EDGE_CURVE ( 'NONE', #196, #138, #240, .T. ) ;
#306 = DIRECTION ( 'NONE',  ( 0.000000000000000000, 0.000000000000000000, -1.000000000000000000 ) ) ;
#307 = CARTESIAN_POINT ( 'NONE',  ( 0.000000000000000000, 0.000000000000000000, -0.1250000000000000000 ) ) ;
#308 = PRODUCT_DEFINITION_SHAPE ( 'NONE', 'NONE',  #171 ) ;
#309 = ADVANCED_FACE ( 'NONE', ( #296 ), #14, .T. ) ;
ENDSEC;
END-ISO-10303-21;
