ISO-10303-21;
HEADER;
FILE_DESCRIPTION (( 'STEP AP214' ),
    '1' );
FILE_NAME ('Micro_BEM-093-04.STEP',
    '2021-09-03T13:01:00',
    ( '' ),
    ( '' ),
    'SwSTEP 2.0',
    'SolidWorks 2020',
    '' );
FILE_SCHEMA (( 'AUTOMOTIVE_DESIGN' ));
ENDSEC;

DATA;
#1 = DIRECTION ( 'NONE',  ( -1.224646799147353700E-16, -0.0000000000000000000, -1.000000000000000000 ) ) ;
#2 = EDGE_CURVE ( 'NONE', #135, #43, #287, .T. ) ;
#3 = PRESENTATION_STYLE_ASSIGNMENT (( #200 ) ) ;
#4 = AXIS2_PLACEMENT_3D ( 'NONE', #319, #92, #297 ) ;
#5 = CARTESIAN_POINT ( 'NONE',  ( 5.731732783751346705E-18, 0.0000000000000000000, 0.04680315000000000170 ) ) ;
#6 = UNCERTAINTY_MEASURE_WITH_UNIT (LENGTH_MEASURE( 1.000000000000000082E-05 ), #11, 'distance_accuracy_value', 'NONE');
#7 = DIRECTION ( 'NONE',  ( -1.000000000000000000, 0.0000000000000000000, 0.0000000000000000000 ) ) ;
#8 = AXIS2_PLACEMENT_3D ( 'NONE', #199, #252, #247 ) ;
#9 = AXIS2_PLACEMENT_3D ( 'NONE', #283, #10, #128 ) ;
#10 = DIRECTION ( 'NONE',  ( 0.0000000000000000000, 0.0000000000000000000, 1.000000000000000000 ) ) ;
#11 =( CONVERSION_BASED_UNIT ( 'INCH', #213 ) LENGTH_UNIT ( ) NAMED_UNIT ( #20 ) );
#12 = EDGE_LOOP ( 'NONE', ( #146, #108, #269, #189 ) ) ;
#13 =( CONVERSION_BASED_UNIT ( 'INCH', #132 ) LENGTH_UNIT ( ) NAMED_UNIT ( #46 ) );
#14 = PRODUCT_RELATED_PRODUCT_CATEGORY ( 'part', '', ( #66 ) ) ;
#15 = AXIS2_PLACEMENT_3D ( 'NONE', #26, #88, #70 ) ;
#16 = VERTEX_POINT ( 'NONE', #263 ) ;
#17 = VERTEX_POINT ( 'NONE', #223 ) ;
#18 = CARTESIAN_POINT ( 'NONE',  ( 0.0000000000000000000, 0.0000000000000000000, 0.0000000000000000000 ) ) ;
#19 = ORIENTED_EDGE ( 'NONE', *, *, #270, .T. ) ;
#20 = DIMENSIONAL_EXPONENTS ( 1.000000000000000000, 0.0000000000000000000, 0.0000000000000000000, 0.0000000000000000000, 0.0000000000000000000, 0.0000000000000000000, 0.0000000000000000000 ) ;
#21 = SPHERICAL_SURFACE ( 'NONE', #119, 0.04680315000000000170 ) ;
#22 = ORIENTED_EDGE ( 'NONE', *, *, #293, .F. ) ;
#23 = COLOUR_RGB ( '',0.7921568627450980005, 0.8196078431372548767, 0.9333333333333333481 ) ;
#24 = DIRECTION ( 'NONE',  ( 0.0000000000000000000, 1.000000000000000000, 0.0000000000000000000 ) ) ;
#25 = CARTESIAN_POINT ( 'NONE',  ( 0.0000000000000000000, 0.0000000000000000000, 1.500000000000000222 ) ) ;
#26 = CARTESIAN_POINT ( 'NONE',  ( 0.0000000000000000000, 0.0000000000000000000, 1.485000000000000764 ) ) ;
#27 = AXIS2_PLACEMENT_3D ( 'NONE', #29, #55, #74 ) ;
#28 = AXIS2_PLACEMENT_3D ( 'NONE', #231, #136, #76 ) ;
#29 = CARTESIAN_POINT ( 'NONE',  ( 4.592425496802576684E-17, 0.0000000000000000000, 0.3750000000000000555 ) ) ;
#30 = CARTESIAN_POINT ( 'NONE',  ( 4.592425496802576684E-17, 0.0000000000000000000, 0.3750000000000000555 ) ) ;
#31 = CARTESIAN_POINT ( 'NONE',  ( 5.731732783751346705E-18, 0.0000000000000000000, 0.04680315000000000170 ) ) ;
#32 = STYLED_ITEM ( 'NONE', ( #3 ), #152 ) ;
#33 = CARTESIAN_POINT ( 'NONE',  ( 0.04680315000000004333, 0.0000000000000000000, 0.3750000000000000555 ) ) ;
#34 = CYLINDRICAL_SURFACE ( 'NONE', #230, 0.06250000000000002776 ) ;
#35 = LINE ( 'NONE', #227, #290 ) ;
#36 = CIRCLE ( 'NONE', #272, 0.04680315000000000170 ) ;
#37 = CIRCLE ( 'NONE', #172, 0.06250000000000002776 ) ;
#38 = DIRECTION ( 'NONE',  ( -1.224646799147353700E-16, -0.0000000000000000000, -1.000000000000000000 ) ) ;
#39 = EDGE_CURVE ( 'NONE', #238, #113, #177, .T. ) ;
#40 = CARTESIAN_POINT ( 'NONE',  ( 8.597599175627018516E-18, 0.0000000000000000000, 0.0000000000000000000 ) ) ;
#41 = ORIENTED_EDGE ( 'NONE', *, *, #232, .F. ) ;
#42 = CONICAL_SURFACE ( 'NONE', #111, 0.04750000000000064587, 0.7853981633974466137 ) ;
#43 = VERTEX_POINT ( 'NONE', #224 ) ;
#44 =( LENGTH_UNIT ( ) NAMED_UNIT ( * ) SI_UNIT ( $, .METRE. ) );
#45 = EDGE_LOOP ( 'NONE', ( #41, #137, #316, #214 ) ) ;
#46 = DIMENSIONAL_EXPONENTS ( 1.000000000000000000, 0.0000000000000000000, 0.0000000000000000000, 0.0000000000000000000, 0.0000000000000000000, 0.0000000000000000000, 0.0000000000000000000 ) ;
#47 = SURFACE_SIDE_STYLE ('',( #207 ) ) ;
#48 = ORIENTED_EDGE ( 'NONE', *, *, #184, .T. ) ;
#49 = CARTESIAN_POINT ( 'NONE',  ( 0.0000000000000000000, 0.0000000000000000000, 1.500000000000000222 ) ) ;
#50 = CARTESIAN_POINT ( 'NONE',  ( -0.04750000000000064587, 0.0000000000000000000, 1.500000000000000222 ) ) ;
#51 = LINE ( 'NONE', #237, #257 ) ;
#52 = FACE_OUTER_BOUND ( 'NONE', #323, .T. ) ;
#53 = FILL_AREA_STYLE_COLOUR ( '', #23 ) ;
#54 = DIRECTION ( 'NONE',  ( -0.0000000000000000000, -0.0000000000000000000, -1.000000000000000000 ) ) ;
#55 = DIRECTION ( 'NONE',  ( -1.224646799147353700E-16, -0.0000000000000000000, -1.000000000000000000 ) ) ;
#56 = SPHERICAL_SURFACE ( 'NONE', #28, 0.04680315000000000170 ) ;
#57 = EDGE_CURVE ( 'NONE', #135, #186, #36, .T. ) ;
#58 =( GEOMETRIC_REPRESENTATION_CONTEXT ( 3 ) GLOBAL_UNCERTAINTY_ASSIGNED_CONTEXT ( ( #156 ) ) GLOBAL_UNIT_ASSIGNED_CONTEXT ( ( #13, #149, #226 ) ) REPRESENTATION_CONTEXT ( 'NONE', 'WORKASPACE' ) );
#59 = ORIENTED_EDGE ( 'NONE', *, *, #151, .T. ) ;
#60 = ORIENTED_EDGE ( 'NONE', *, *, #244, .T. ) ;
#61 =( LENGTH_UNIT ( ) NAMED_UNIT ( * ) SI_UNIT ( $, .METRE. ) );
#62 = COLOUR_RGB ( '',0.7921568627450980005, 0.8196078431372548767, 0.9333333333333333481 ) ;
#63 = ORIENTED_EDGE ( 'NONE', *, *, #293, .T. ) ;
#64 = FILL_AREA_STYLE_COLOUR ( '', #62 ) ;
#65 = ORIENTED_EDGE ( 'NONE', *, *, #123, .T. ) ;
#66 = PRODUCT ( 'Micro_BEM-093-04', 'Micro_BEM-093-04', '', ( #277 ) ) ;
#67 = DIRECTION ( 'NONE',  ( 1.224646799147353700E-16, 0.0000000000000000000, 1.000000000000000000 ) ) ;
#68 = CYLINDRICAL_SURFACE ( 'NONE', #80, 0.04680315000000000170 ) ;
#69 = CONICAL_SURFACE ( 'NONE', #164, 0.04750000000000064587, 0.7853981633974466137 ) ;
#70 = DIRECTION ( 'NONE',  ( 1.000000000000000000, 0.0000000000000000000, 0.0000000000000000000 ) ) ;
#71 = DIRECTION ( 'NONE',  ( 1.000000000000000000, 0.0000000000000000000, 0.0000000000000000000 ) ) ;
#72 = VECTOR ( 'NONE', #96, 39.37007874015748854 ) ;
#73 = DIRECTION ( 'NONE',  ( 1.224646799147353207E-16, 1.000000000000000000, -0.0000000000000000000 ) ) ;
#74 = DIRECTION ( 'NONE',  ( -1.000000000000000000, 0.0000000000000000000, 0.0000000000000000000 ) ) ;
#75 = EDGE_CURVE ( 'NONE', #282, #291, #311, .T. ) ;
#76 = DIRECTION ( 'NONE',  ( 1.000000000000000000, 0.0000000000000000000, 0.0000000000000000000 ) ) ;
#77 = ORIENTED_EDGE ( 'NONE', *, *, #178, .F. ) ;
#78 = DIRECTION ( 'NONE',  ( 0.0000000000000000000, 0.0000000000000000000, -1.000000000000000000 ) ) ;
#79 = CIRCLE ( 'NONE', #301, 0.06250000000000002776 ) ;
#80 = AXIS2_PLACEMENT_3D ( 'NONE', #116, #197, #145 ) ;
#81 = CARTESIAN_POINT ( 'NONE',  ( 0.0000000000000000000, 0.0000000000000000000, 1.500000000000000222 ) ) ;
#82 = DIRECTION ( 'NONE',  ( -0.1736481776669311083, 2.126576849575782084E-17, 0.9848077530122080203 ) ) ;
#83 = EDGE_LOOP ( 'NONE', ( #265, #22, #19, #314 ) ) ;
#84 =( NAMED_UNIT ( * ) SI_UNIT ( $, .STERADIAN. ) SOLID_ANGLE_UNIT ( ) );
#85 = ORIENTED_EDGE ( 'NONE', *, *, #184, .F. ) ;
#86 = VECTOR ( 'NONE', #82, 39.37007874015747433 ) ;
#87 = ORIENTED_EDGE ( 'NONE', *, *, #57, .T. ) ;
#88 = DIRECTION ( 'NONE',  ( 0.0000000000000000000, 0.0000000000000000000, -1.000000000000000000 ) ) ;
#89 = ADVANCED_FACE ( 'NONE', ( #153 ), #42, .T. ) ;
#90 = CARTESIAN_POINT ( 'NONE',  ( -0.04680315000000000170, 0.0000000000000000000, 5.731732783751346705E-18 ) ) ;
#91 = EDGE_LOOP ( 'NONE', ( #240, #87, #324 ) ) ;
#92 = DIRECTION ( 'NONE',  ( 0.0000000000000000000, 0.0000000000000000000, -1.000000000000000000 ) ) ;
#93 =( NAMED_UNIT ( * ) PLANE_ANGLE_UNIT ( ) SI_UNIT ( $, .RADIAN. ) );
#94 = EDGE_CURVE ( 'NONE', #238, #282, #289, .T. ) ;
#95 = CARTESIAN_POINT ( 'NONE',  ( 0.04680315000000000863, 5.731732783751344394E-18, 0.04680314999999999476 ) ) ;
#96 = DIRECTION ( 'NONE',  ( 0.7071067811865462405, 8.659560562354916834E-17, -0.7071067811865486830 ) ) ;
#97 = ORIENTED_EDGE ( 'NONE', *, *, #104, .F. ) ;
#98 = CARTESIAN_POINT ( 'NONE',  ( 0.0000000000000000000, 0.0000000000000000000, 1.500000000000000222 ) ) ;
#99 = CYLINDRICAL_SURFACE ( 'NONE', #204, 0.04680315000000000170 ) ;
#100 = DIRECTION ( 'NONE',  ( 1.000000000000000000, 0.0000000000000000000, 0.0000000000000000000 ) ) ;
#101 = CARTESIAN_POINT ( 'NONE',  ( 0.0000000000000000000, 0.0000000000000000000, 1.500000000000000222 ) ) ;
#102 = CONICAL_SURFACE ( 'NONE', #193, 0.04680315000000000170, 0.1745329251994338082 ) ;
#103 = AXIS2_PLACEMENT_3D ( 'NONE', #25, #174, #294 ) ;
#104 = EDGE_CURVE ( 'NONE', #17, #216, #161, .T. ) ;
#105 = DIRECTION ( 'NONE',  ( -1.000000000000000000, 0.0000000000000000000, 1.224646799147353700E-16 ) ) ;
#106 = CIRCLE ( 'NONE', #15, 0.06250000000000002776 ) ;
#107 = EDGE_LOOP ( 'NONE', ( #288, #110, #175, #285 ) ) ;
#108 = ORIENTED_EDGE ( 'NONE', *, *, #258, .T. ) ;
#109 = FACE_OUTER_BOUND ( 'NONE', #212, .T. ) ;
#110 = ORIENTED_EDGE ( 'NONE', *, *, #94, .F. ) ;
#111 = AXIS2_PLACEMENT_3D ( 'NONE', #203, #185, #7 ) ;
#112 = DIRECTION ( 'NONE',  ( 0.0000000000000000000, 0.0000000000000000000, -1.000000000000000000 ) ) ;
#113 = VERTEX_POINT ( 'NONE', #278 ) ;
#114 = PRODUCT_DEFINITION ( 'UNKNOWN', '', #188, #313 ) ;
#115 = CARTESIAN_POINT ( 'NONE',  ( 0.04680315000000004333, 0.0000000000000000000, 0.3750000000000000555 ) ) ;
#116 = CARTESIAN_POINT ( 'NONE',  ( 0.0000000000000000000, 0.0000000000000000000, 0.0000000000000000000 ) ) ;
#117 = DIRECTION ( 'NONE',  ( -1.224646799147353700E-16, -0.0000000000000000000, -1.000000000000000000 ) ) ;
#118 = AXIS2_PLACEMENT_3D ( 'NONE', #31, #271, #295 ) ;
#119 = AXIS2_PLACEMENT_3D ( 'NONE', #243, #24, #217 ) ;
#120 = ORIENTED_EDGE ( 'NONE', *, *, #151, .F. ) ;
#121 = CARTESIAN_POINT ( 'NONE',  ( 0.04750000000000064587, 5.817072295950006528E-18, 1.500000000000000222 ) ) ;
#122 =( LENGTH_UNIT ( ) NAMED_UNIT ( * ) SI_UNIT ( $, .METRE. ) );
#123 = EDGE_CURVE ( 'NONE', #282, #238, #320, .T. ) ;
#124 = AXIS2_PLACEMENT_3D ( 'NONE', #5, #73, #259 ) ;
#125 = LINE ( 'NONE', #121, #72 ) ;
#126 = DIRECTION ( 'NONE',  ( 1.000000000000000000, 0.0000000000000000000, 0.0000000000000000000 ) ) ;
#127 = FACE_OUTER_BOUND ( 'NONE', #133, .T. ) ;
#128 = DIRECTION ( 'NONE',  ( 1.000000000000000000, 0.0000000000000000000, -0.0000000000000000000 ) ) ;
#129 = AXIS2_PLACEMENT_3D ( 'NONE', #30, #1, #251 ) ;
#130 = VECTOR ( 'NONE', #280, 39.37007874015748143 ) ;
#131 = PRESENTATION_STYLE_ASSIGNMENT (( #305 ) ) ;
#132 = LENGTH_MEASURE_WITH_UNIT ( LENGTH_MEASURE( 0.02539999999999999897 ), #122 );
#133 = EDGE_LOOP ( 'NONE', ( #63, #279 ) ) ;
#134 = ADVANCED_FACE ( 'NONE', ( #52 ), #171, .T. ) ;
#135 = VERTEX_POINT ( 'NONE', #40 ) ;
#136 = DIRECTION ( 'NONE',  ( 0.0000000000000000000, 1.000000000000000000, 0.0000000000000000000 ) ) ;
#137 = ORIENTED_EDGE ( 'NONE', *, *, #94, .T. ) ;
#138 = EDGE_CURVE ( 'NONE', #17, #16, #125, .T. ) ;
#139 = FACE_OUTER_BOUND ( 'NONE', #12, .T. ) ;
#140 = ORIENTED_EDGE ( 'NONE', *, *, #244, .F. ) ;
#141 = ORIENTED_EDGE ( 'NONE', *, *, #232, .T. ) ;
#142 = CYLINDRICAL_SURFACE ( 'NONE', #103, 0.06250000000000002776 ) ;
#143 = DIRECTION ( 'NONE',  ( 1.224646799147353700E-16, 0.0000000000000000000, 1.000000000000000000 ) ) ;
#144 = PRODUCT_DEFINITION_SHAPE ( 'NONE', 'NONE',  #114 ) ;
#145 = DIRECTION ( 'NONE',  ( -1.000000000000000000, 0.0000000000000000000, 1.224646799147353700E-16 ) ) ;
#146 = ORIENTED_EDGE ( 'NONE', *, *, #276, .F. ) ;
#147 =( GEOMETRIC_REPRESENTATION_CONTEXT ( 3 ) GLOBAL_UNCERTAINTY_ASSIGNED_CONTEXT ( ( #6 ) ) GLOBAL_UNIT_ASSIGNED_CONTEXT ( ( #11, #158, #84 ) ) REPRESENTATION_CONTEXT ( 'NONE', 'WORKASPACE' ) );
#148 = CIRCLE ( 'NONE', #317, 0.04750000000000064587 ) ;
#149 =( NAMED_UNIT ( * ) PLANE_ANGLE_UNIT ( ) SI_UNIT ( $, .RADIAN. ) );
#150 = CARTESIAN_POINT ( 'NONE',  ( 5.682621508323871149E-17, 0.0000000000000000000, 0.4640212600302659474 ) ) ;
#151 = EDGE_CURVE ( 'NONE', #291, #113, #79, .T. ) ;
#152 = MANIFOLD_SOLID_BREP ( 'Fillet1', #249 ) ;
#153 = FACE_OUTER_BOUND ( 'NONE', #83, .T. ) ;
#154 = MECHANICAL_DESIGN_GEOMETRIC_PRESENTATION_REPRESENTATION (  '', ( #32 ), #58 ) ;
#155 = DIRECTION ( 'NONE',  ( 1.224646799147353700E-16, 0.0000000000000000000, 1.000000000000000000 ) ) ;
#156 = UNCERTAINTY_MEASURE_WITH_UNIT (LENGTH_MEASURE( 1.000000000000000082E-05 ), #13, 'distance_accuracy_value', 'NONE');
#157 = EDGE_CURVE ( 'NONE', #43, #186, #241, .T. ) ;
#158 =( NAMED_UNIT ( * ) PLANE_ANGLE_UNIT ( ) SI_UNIT ( $, .RADIAN. ) );
#159 = DIRECTION ( 'NONE',  ( -0.7071067811865462405, 0.0000000000000000000, -0.7071067811865486830 ) ) ;
#160 = FILL_AREA_STYLE ('',( #64 ) ) ;
#161 = CIRCLE ( 'NONE', #310, 0.04750000000000064587 ) ;
#162 = EDGE_LOOP ( 'NONE', ( #48, #167, #120, #286 ) ) ;
#163 = EDGE_LOOP ( 'NONE', ( #210, #169, #140 ) ) ;
#164 = AXIS2_PLACEMENT_3D ( 'NONE', #49, #112, #215 ) ;
#165 = CIRCLE ( 'NONE', #4, 0.06250000000000002776 ) ;
#166 = FACE_OUTER_BOUND ( 'NONE', #162, .T. ) ;
#167 = ORIENTED_EDGE ( 'NONE', *, *, #276, .T. ) ;
#168 = CARTESIAN_POINT ( 'NONE',  ( 0.06250000000000002776, 7.654042494670959086E-18, 1.500000000000000222 ) ) ;
#169 = ORIENTED_EDGE ( 'NONE', *, *, #2, .T. ) ;
#170 = LINE ( 'NONE', #194, #266 ) ;
#171 = CONICAL_SURFACE ( 'NONE', #225, 0.04680315000000000170, 0.1745329251994338082 ) ;
#172 = AXIS2_PLACEMENT_3D ( 'NONE', #248, #239, #221 ) ;
#173 = CARTESIAN_POINT ( 'NONE',  ( 5.731732783751346705E-18, 0.0000000000000000000, 0.04680315000000000170 ) ) ;
#174 = DIRECTION ( 'NONE',  ( -0.0000000000000000000, -0.0000000000000000000, -1.000000000000000000 ) ) ;
#175 = ORIENTED_EDGE ( 'NONE', *, *, #39, .T. ) ;
#176 = ADVANCED_FACE ( 'NONE', ( #273 ), #69, .T. ) ;
#177 = LINE ( 'NONE', #33, #220 ) ;
#178 = EDGE_CURVE ( 'NONE', #282, #43, #322, .T. ) ;
#179 = DIRECTION ( 'NONE',  ( 0.0000000000000000000, 0.0000000000000000000, 1.000000000000000000 ) ) ;
#180 = SURFACE_STYLE_FILL_AREA ( #281 ) ;
#181 = DIRECTION ( 'NONE',  ( 0.0000000000000000000, -1.000000000000000000, 0.0000000000000000000 ) ) ;
#182 = DIRECTION ( 'NONE',  ( -0.0000000000000000000, -0.0000000000000000000, -1.000000000000000000 ) ) ;
#183 = AXIS2_PLACEMENT_3D ( 'NONE', #173, #143, #218 ) ;
#184 = EDGE_CURVE ( 'NONE', #264, #16, #106, .T. ) ;
#185 = DIRECTION ( 'NONE',  ( 0.0000000000000000000, 0.0000000000000000000, -1.000000000000000000 ) ) ;
#186 = VERTEX_POINT ( 'NONE', #95 ) ;
#187 = ORIENTED_EDGE ( 'NONE', *, *, #75, .T. ) ;
#188 = PRODUCT_DEFINITION_FORMATION_WITH_SPECIFIED_SOURCE ( 'ANY', '', #66, .NOT_KNOWN. ) ;
#189 = ORIENTED_EDGE ( 'NONE', *, *, #211, .F. ) ;
#190 = DIMENSIONAL_EXPONENTS ( 1.000000000000000000, 0.0000000000000000000, 0.0000000000000000000, 0.0000000000000000000, 0.0000000000000000000, 0.0000000000000000000, 0.0000000000000000000 ) ;
#191 = FACE_OUTER_BOUND ( 'NONE', #45, .T. ) ;
#192 = FACE_OUTER_BOUND ( 'NONE', #91, .T. ) ;
#193 = AXIS2_PLACEMENT_3D ( 'NONE', #299, #67, #71 ) ;
#194 = CARTESIAN_POINT ( 'NONE',  ( 0.04680315000000000170, 5.731732783751344394E-18, -5.731732783751346705E-18 ) ) ;
#195 = ADVANCED_BREP_SHAPE_REPRESENTATION ( 'Micro_BEM-093-04', ( #152, #8 ), #147 ) ;
#196 = LENGTH_MEASURE_WITH_UNIT ( LENGTH_MEASURE( 0.02539999999999999897 ), #61 );
#197 = DIRECTION ( 'NONE',  ( -1.224646799147353700E-16, -0.0000000000000000000, -1.000000000000000000 ) ) ;
#198 = ADVANCED_FACE ( 'NONE', ( #246 ), #102, .T. ) ;
#199 = CARTESIAN_POINT ( 'NONE',  ( 0.0000000000000000000, 0.0000000000000000000, 0.0000000000000000000 ) ) ;
#200 = SURFACE_STYLE_USAGE ( .BOTH. , #228 ) ;
#201 = DIRECTION ( 'NONE',  ( 1.000000000000000000, 0.0000000000000000000, 0.0000000000000000000 ) ) ;
#202 = CARTESIAN_POINT ( 'NONE',  ( -0.04680314999999996006, 6.692887639211152895E-18, 0.3750000000000000555 ) ) ;
#203 = CARTESIAN_POINT ( 'NONE',  ( 0.0000000000000000000, 0.0000000000000000000, 1.500000000000000222 ) ) ;
#204 = AXIS2_PLACEMENT_3D ( 'NONE', #18, #38, #105 ) ;
#205 = DIRECTION ( 'NONE',  ( -1.000000000000000000, 0.0000000000000000000, 0.0000000000000000000 ) ) ;
#206 = ADVANCED_FACE ( 'NONE', ( #191 ), #68, .T. ) ;
#207 = SURFACE_STYLE_FILL_AREA ( #160 ) ;
#208 = ADVANCED_FACE ( 'NONE', ( #139 ), #142, .T. ) ;
#209 = PRESENTATION_LAYER_ASSIGNMENT (  '', '', ( #32 ) ) ;
#210 = ORIENTED_EDGE ( 'NONE', *, *, #57, .F. ) ;
#211 = EDGE_CURVE ( 'NONE', #113, #291, #37, .T. ) ;
#212 = EDGE_LOOP ( 'NONE', ( #65, #141, #60, #77 ) ) ;
#213 = LENGTH_MEASURE_WITH_UNIT ( LENGTH_MEASURE( 0.02539999999999999897 ), #44 );
#214 = ORIENTED_EDGE ( 'NONE', *, *, #157, .T. ) ;
#215 = DIRECTION ( 'NONE',  ( -1.000000000000000000, 0.0000000000000000000, 0.0000000000000000000 ) ) ;
#216 = VERTEX_POINT ( 'NONE', #50 ) ;
#217 = DIRECTION ( 'NONE',  ( 1.000000000000000000, 0.0000000000000000000, 0.0000000000000000000 ) ) ;
#218 = DIRECTION ( 'NONE',  ( -1.000000000000000000, 0.0000000000000000000, 1.824027865688703052E-16 ) ) ;
#219 = UNCERTAINTY_MEASURE_WITH_UNIT (LENGTH_MEASURE( 1.000000000000000082E-05 ), #325, 'distance_accuracy_value', 'NONE');
#220 = VECTOR ( 'NONE', #306, 39.37007874015748143 ) ;
#221 = DIRECTION ( 'NONE',  ( 1.000000000000000000, 0.0000000000000000000, 0.0000000000000000000 ) ) ;
#222 = SHAPE_DEFINITION_REPRESENTATION ( #144, #195 ) ;
#223 = CARTESIAN_POINT ( 'NONE',  ( 0.04750000000000064587, 6.735557395310483192E-18, 1.500000000000000222 ) ) ;
#224 = CARTESIAN_POINT ( 'NONE',  ( -0.04680314999999999476, 0.0000000000000000000, 0.04680315000000000863 ) ) ;
#225 = AXIS2_PLACEMENT_3D ( 'NONE', #304, #155, #201 ) ;
#226 =( NAMED_UNIT ( * ) SI_UNIT ( $, .STERADIAN. ) SOLID_ANGLE_UNIT ( ) );
#227 = CARTESIAN_POINT ( 'NONE',  ( -0.06250000000000002776, 0.0000000000000000000, 1.500000000000000222 ) ) ;
#228 = SURFACE_SIDE_STYLE ('',( #180 ) ) ;
#229 = PLANE ( 'NONE',  #9 ) ;
#230 = AXIS2_PLACEMENT_3D ( 'NONE', #81, #182, #205 ) ;
#231 = CARTESIAN_POINT ( 'NONE',  ( 5.731732783751346705E-18, 0.0000000000000000000, 0.04680315000000000170 ) ) ;
#232 = EDGE_CURVE ( 'NONE', #238, #186, #170, .T. ) ;
#233 = ADVANCED_FACE ( 'NONE', ( #192 ), #21, .T. ) ;
#234 = CARTESIAN_POINT ( 'NONE',  ( 5.731732783751346705E-18, 0.0000000000000000000, 0.04680315000000000170 ) ) ;
#235 = ORIENTED_EDGE ( 'NONE', *, *, #39, .F. ) ;
#236 = EDGE_LOOP ( 'NONE', ( #97, #268, #85, #312 ) ) ;
#237 = CARTESIAN_POINT ( 'NONE',  ( -0.04750000000000064587, 0.0000000000000000000, 1.500000000000000222 ) ) ;
#238 = VERTEX_POINT ( 'NONE', #115 ) ;
#239 = DIRECTION ( 'NONE',  ( -1.224646799147353700E-16, -0.0000000000000000000, -1.000000000000000000 ) ) ;
#240 = ORIENTED_EDGE ( 'NONE', *, *, #2, .F. ) ;
#241 = CIRCLE ( 'NONE', #118, 0.04680315000000000170 ) ;
#242 = STYLED_ITEM ( 'NONE', ( #131 ), #195 ) ;
#243 = CARTESIAN_POINT ( 'NONE',  ( 5.731732783751346705E-18, 0.0000000000000000000, 0.04680315000000000170 ) ) ;
#244 = EDGE_CURVE ( 'NONE', #186, #43, #308, .T. ) ;
#245 = APPLICATION_CONTEXT ( 'automotive_design' ) ;
#246 = FACE_OUTER_BOUND ( 'NONE', #107, .T. ) ;
#247 = DIRECTION ( 'NONE',  ( 1.000000000000000000, 0.0000000000000000000, 0.0000000000000000000 ) ) ;
#248 = CARTESIAN_POINT ( 'NONE',  ( 5.682621508323871149E-17, 0.0000000000000000000, 0.4640212600302659474 ) ) ;
#249 = CLOSED_SHELL ( 'NONE', ( #307, #315, #134, #176, #302, #208, #303, #89, #198, #206, #233 ) ) ;
#250 = PRESENTATION_LAYER_ASSIGNMENT (  '', '', ( #242 ) ) ;
#251 = DIRECTION ( 'NONE',  ( -1.000000000000000000, 0.0000000000000000000, 0.0000000000000000000 ) ) ;
#252 = DIRECTION ( 'NONE',  ( 0.0000000000000000000, 0.0000000000000000000, 1.000000000000000000 ) ) ;
#253 = CARTESIAN_POINT ( 'NONE',  ( -0.04680314999999996006, 5.731732783751344394E-18, 0.3750000000000000555 ) ) ;
#254 = APPLICATION_CONTEXT ( 'automotive_design' ) ;
#255 = DIRECTION ( 'NONE',  ( -1.224646799147353700E-16, -0.0000000000000000000, -1.000000000000000000 ) ) ;
#256 = VECTOR ( 'NONE', #318, 39.37007874015748143 ) ;
#257 = VECTOR ( 'NONE', #159, 39.37007874015748854 ) ;
#258 = EDGE_CURVE ( 'NONE', #16, #264, #165, .T. ) ;
#259 = DIRECTION ( 'NONE',  ( -1.000000000000000000, 1.224646799147353207E-16, 0.0000000000000000000 ) ) ;
#260 = DIRECTION ( 'NONE',  ( 1.000000000000000000, 0.0000000000000000000, 0.0000000000000000000 ) ) ;
#261 = LINE ( 'NONE', #168, #130 ) ;
#262 = FACE_OUTER_BOUND ( 'NONE', #163, .T. ) ;
#263 = CARTESIAN_POINT ( 'NONE',  ( 0.06250000000000002776, 7.654042494670959086E-18, 1.485000000000000764 ) ) ;
#264 = VERTEX_POINT ( 'NONE', #275 ) ;
#265 = ORIENTED_EDGE ( 'NONE', *, *, #138, .F. ) ;
#266 = VECTOR ( 'NONE', #117, 39.37007874015748143 ) ;
#267 = CARTESIAN_POINT ( 'NONE',  ( -0.06249999999999996531, 0.0000000000000000000, 0.4640212600302659474 ) ) ;
#268 = ORIENTED_EDGE ( 'NONE', *, *, #138, .T. ) ;
#269 = ORIENTED_EDGE ( 'NONE', *, *, #292, .T. ) ;
#270 = EDGE_CURVE ( 'NONE', #216, #264, #51, .T. ) ;
#271 = DIRECTION ( 'NONE',  ( 1.224646799147353700E-16, 0.0000000000000000000, 1.000000000000000000 ) ) ;
#272 = AXIS2_PLACEMENT_3D ( 'NONE', #234, #181, #78 ) ;
#273 = FACE_OUTER_BOUND ( 'NONE', #236, .T. ) ;
#274 =( NAMED_UNIT ( * ) SI_UNIT ( $, .STERADIAN. ) SOLID_ANGLE_UNIT ( ) );
#275 = CARTESIAN_POINT ( 'NONE',  ( -0.06250000000000002776, 0.0000000000000000000, 1.485000000000000764 ) ) ;
#276 = EDGE_CURVE ( 'NONE', #16, #113, #261, .T. ) ;
#277 = PRODUCT_CONTEXT ( 'NONE', #245, 'mechanical' ) ;
#278 = CARTESIAN_POINT ( 'NONE',  ( 0.06250000000000008327, 7.654042494670966789E-18, 0.4640212600302659474 ) ) ;
#279 = ORIENTED_EDGE ( 'NONE', *, *, #104, .T. ) ;
#280 = DIRECTION ( 'NONE',  ( -0.0000000000000000000, -0.0000000000000000000, -1.000000000000000000 ) ) ;
#281 = FILL_AREA_STYLE ('',( #53 ) ) ;
#282 = VERTEX_POINT ( 'NONE', #202 ) ;
#283 = CARTESIAN_POINT ( 'NONE',  ( 0.0000000000000000000, 0.0000000000000000000, 1.500000000000000222 ) ) ;
#284 =( GEOMETRIC_REPRESENTATION_CONTEXT ( 3 ) GLOBAL_UNCERTAINTY_ASSIGNED_CONTEXT ( ( #219 ) ) GLOBAL_UNIT_ASSIGNED_CONTEXT ( ( #325, #93, #274 ) ) REPRESENTATION_CONTEXT ( 'NONE', 'WORKASPACE' ) );
#285 = ORIENTED_EDGE ( 'NONE', *, *, #211, .T. ) ;
#286 = ORIENTED_EDGE ( 'NONE', *, *, #292, .F. ) ;
#287 = CIRCLE ( 'NONE', #124, 0.04680315000000000170 ) ;
#288 = ORIENTED_EDGE ( 'NONE', *, *, #75, .F. ) ;
#289 = CIRCLE ( 'NONE', #129, 0.04680315000000000170 ) ;
#290 = VECTOR ( 'NONE', #54, 39.37007874015748143 ) ;
#291 = VERTEX_POINT ( 'NONE', #267 ) ;
#292 = EDGE_CURVE ( 'NONE', #264, #291, #35, .T. ) ;
#293 = EDGE_CURVE ( 'NONE', #216, #17, #148, .T. ) ;
#294 = DIRECTION ( 'NONE',  ( -1.000000000000000000, 0.0000000000000000000, 0.0000000000000000000 ) ) ;
#295 = DIRECTION ( 'NONE',  ( -1.000000000000000000, 0.0000000000000000000, 1.824027865688703052E-16 ) ) ;
#296 = APPLICATION_PROTOCOL_DEFINITION ( 'draft international standard', 'automotive_design', 1998, #245 ) ;
#297 = DIRECTION ( 'NONE',  ( 1.000000000000000000, 0.0000000000000000000, 0.0000000000000000000 ) ) ;
#298 = ORIENTED_EDGE ( 'NONE', *, *, #123, .F. ) ;
#299 = CARTESIAN_POINT ( 'NONE',  ( 4.592425496802576684E-17, 0.0000000000000000000, 0.3750000000000000555 ) ) ;
#300 = APPLICATION_PROTOCOL_DEFINITION ( 'draft international standard', 'automotive_design', 1998, #254 ) ;
#301 = AXIS2_PLACEMENT_3D ( 'NONE', #150, #255, #100 ) ;
#302 = ADVANCED_FACE ( 'NONE', ( #166 ), #34, .T. ) ;
#303 = ADVANCED_FACE ( 'NONE', ( #127 ), #229, .T. ) ;
#304 = CARTESIAN_POINT ( 'NONE',  ( 4.592425496802576684E-17, 0.0000000000000000000, 0.3750000000000000555 ) ) ;
#305 = SURFACE_STYLE_USAGE ( .BOTH. , #47 ) ;
#306 = DIRECTION ( 'NONE',  ( 0.1736481776669313026, 0.0000000000000000000, 0.9848077530122077983 ) ) ;
#307 = ADVANCED_FACE ( 'NONE', ( #262 ), #56, .T. ) ;
#308 = CIRCLE ( 'NONE', #183, 0.04680315000000000170 ) ;
#309 = DIRECTION ( 'NONE',  ( 0.0000000000000000000, 0.0000000000000000000, 1.000000000000000000 ) ) ;
#310 = AXIS2_PLACEMENT_3D ( 'NONE', #98, #179, #126 ) ;
#311 = LINE ( 'NONE', #253, #86 ) ;
#312 = ORIENTED_EDGE ( 'NONE', *, *, #270, .F. ) ;
#313 = PRODUCT_DEFINITION_CONTEXT ( 'detailed design', #254, 'design' ) ;
#314 = ORIENTED_EDGE ( 'NONE', *, *, #258, .F. ) ;
#315 = ADVANCED_FACE ( 'NONE', ( #109 ), #99, .T. ) ;
#316 = ORIENTED_EDGE ( 'NONE', *, *, #178, .T. ) ;
#317 = AXIS2_PLACEMENT_3D ( 'NONE', #101, #309, #260 ) ;
#318 = DIRECTION ( 'NONE',  ( -1.224646799147353700E-16, -0.0000000000000000000, -1.000000000000000000 ) ) ;
#319 = CARTESIAN_POINT ( 'NONE',  ( 0.0000000000000000000, 0.0000000000000000000, 1.485000000000000764 ) ) ;
#320 = CIRCLE ( 'NONE', #27, 0.04680315000000000170 ) ;
#321 = MECHANICAL_DESIGN_GEOMETRIC_PRESENTATION_REPRESENTATION (  '', ( #242 ), #284 ) ;
#322 = LINE ( 'NONE', #90, #256 ) ;
#323 = EDGE_LOOP ( 'NONE', ( #298, #187, #59, #235 ) ) ;
#324 = ORIENTED_EDGE ( 'NONE', *, *, #157, .F. ) ;
#325 =( CONVERSION_BASED_UNIT ( 'INCH', #196 ) LENGTH_UNIT ( ) NAMED_UNIT ( #190 ) );
ENDSEC;
END-ISO-10303-21;
