ISO-10303-21;
HEADER;
FILE_DESCRIPTION (( 'STEP AP214' ),
    '1' );
FILE_NAME ('Micro_SHLM-060-4.STEP',
    '2021-09-02T08:12:33',
    ( '' ),
    ( '' ),
    'SwSTEP 2.0',
    'SolidWorks 2020',
    '' );
FILE_SCHEMA (( 'AUTOMOTIVE_DESIGN' ));
ENDSEC;

DATA;
#1 = DIRECTION ( 'NONE',  ( 1.000000000000000000, 0.0000000000000000000, 0.0000000000000000000 ) ) ;
#2 = CIRCLE ( 'NONE', #151, 0.1179918900000000298 ) ;
#3 = UNCERTAINTY_MEASURE_WITH_UNIT (LENGTH_MEASURE( 1.000000000000000082E-05 ), #53, 'distance_accuracy_value', 'NONE');
#4 = EDGE_CURVE ( 'NONE', #281, #104, #64, .T. ) ;
#5 = LINE ( 'NONE', #188, #67 ) ;
#6 = DIRECTION ( 'NONE',  ( -0.7071067811865486830, 0.0000000000000000000, -0.7071067811865462405 ) ) ;
#7 = DIRECTION ( 'NONE',  ( -1.224646799147353207E-16, -0.0000000000000000000, -1.000000000000000000 ) ) ;
#8 = ADVANCED_FACE ( 'NONE', ( #195 ), #173, .T. ) ;
#9 = DIRECTION ( 'NONE',  ( -0.0000000000000000000, -0.0000000000000000000, -1.000000000000000000 ) ) ;
#10 =( NAMED_UNIT ( * ) SI_UNIT ( $, .STERADIAN. ) SOLID_ANGLE_UNIT ( ) );
#11 = APPLICATION_CONTEXT ( 'automotive_design' ) ;
#12 = CARTESIAN_POINT ( 'NONE',  ( 0.1179918900000000159, 1.444983904138465938E-17, -1.444983904138465938E-17 ) ) ;
#13 = ORIENTED_EDGE ( 'NONE', *, *, #168, .T. ) ;
#14 = FILL_AREA_STYLE ('',( #225 ) ) ;
#15 = PRESENTATION_STYLE_ASSIGNMENT (( #241 ) ) ;
#16 = CARTESIAN_POINT ( 'NONE',  ( -0.1179918900000000159, 0.0000000000000000000, 2.889967808276931875E-17 ) ) ;
#17 = DIRECTION ( 'NONE',  ( -1.224646799147353207E-16, -0.0000000000000000000, -1.000000000000000000 ) ) ;
#18 = DIRECTION ( 'NONE',  ( -0.0000000000000000000, -0.0000000000000000000, -1.000000000000000000 ) ) ;
#19 = CONICAL_SURFACE ( 'NONE', #130, 0.1031099999999991745, 0.7853981633974500554 ) ;
#20 = AXIS2_PLACEMENT_3D ( 'NONE', #121, #7, #102 ) ;
#21 = EDGE_CURVE ( 'NONE', #73, #37, #183, .T. ) ;
#22 = CARTESIAN_POINT ( 'NONE',  ( -0.1181100000000000344, 0.0000000000000000000, 2.952755999999999936 ) ) ;
#23 = ADVANCED_FACE ( 'NONE', ( #214 ), #293, .T. ) ;
#24 = LENGTH_MEASURE_WITH_UNIT ( LENGTH_MEASURE( 0.02539999999999999897 ), #234 );
#25 = DIRECTION ( 'NONE',  ( 0.0000000000000000000, 0.0000000000000000000, 1.000000000000000000 ) ) ;
#26 = CARTESIAN_POINT ( 'NONE',  ( 0.1031099999999991745, 1.262733314600825725E-17, 2.952755999999999936 ) ) ;
#27 = MECHANICAL_DESIGN_GEOMETRIC_PRESENTATION_REPRESENTATION (  '', ( #189 ), #55 ) ;
#28 = EDGE_CURVE ( 'NONE', #145, #83, #262, .T. ) ;
#29 = ORIENTED_EDGE ( 'NONE', *, *, #28, .F. ) ;
#30 = EDGE_LOOP ( 'NONE', ( #175, #13 ) ) ;
#31 = SHAPE_DEFINITION_REPRESENTATION ( #191, #223 ) ;
#32 = MANIFOLD_SOLID_BREP ( 'Cut-Revolve1', #86 ) ;
#33 = EDGE_CURVE ( 'NONE', #270, #90, #235, .T. ) ;
#34 = ORIENTED_EDGE ( 'NONE', *, *, #267, .F. ) ;
#35 = CONICAL_SURFACE ( 'NONE', #63, 0.1179918900000000298, 0.1745329251994339192 ) ;
#36 = CARTESIAN_POINT ( 'NONE',  ( 1.206181372760304484E-16, 0.0000000000000000000, 0.9849218350957149593 ) ) ;
#37 = VERTEX_POINT ( 'NONE', #252 ) ;
#38 =( NAMED_UNIT ( * ) PLANE_ANGLE_UNIT ( ) SI_UNIT ( $, .RADIAN. ) );
#39 = DIRECTION ( 'NONE',  ( -1.000000000000000000, 0.0000000000000000000, 0.0000000000000000000 ) ) ;
#40 = CARTESIAN_POINT ( 'NONE',  ( 0.0000000000000000000, 0.0000000000000000000, 2.937755999999999368 ) ) ;
#41 = AXIS2_PLACEMENT_3D ( 'NONE', #211, #25, #233 ) ;
#42 = EDGE_LOOP ( 'NONE', ( #58, #230, #269, #103 ) ) ;
#43 = FACE_OUTER_BOUND ( 'NONE', #196, .T. ) ;
#44 = CARTESIAN_POINT ( 'NONE',  ( 0.0000000000000000000, 0.0000000000000000000, 2.952755999999999936 ) ) ;
#45 = ORIENTED_EDGE ( 'NONE', *, *, #200, .F. ) ;
#46 = CYLINDRICAL_SURFACE ( 'NONE', #78, 0.1179918900000000159 ) ;
#47 = CIRCLE ( 'NONE', #247, 0.1179918900000000298 ) ;
#48 = LINE ( 'NONE', #26, #205 ) ;
#49 = EDGE_LOOP ( 'NONE', ( #171, #159, #29, #299 ) ) ;
#50 = CARTESIAN_POINT ( 'NONE',  ( 0.1179918900000001408, 0.0000000000000000000, 0.9842519999999999047 ) ) ;
#51 = DIRECTION ( 'NONE',  ( 0.7071067811865486830, 8.659560562354947649E-17, -0.7071067811865462405 ) ) ;
#52 = LINE ( 'NONE', #75, #152 ) ;
#53 =( CONVERSION_BASED_UNIT ( 'INCH', #24 ) LENGTH_UNIT ( ) NAMED_UNIT ( #147 ) );
#54 = EDGE_LOOP ( 'NONE', ( #65, #153 ) ) ;
#55 =( GEOMETRIC_REPRESENTATION_CONTEXT ( 3 ) GLOBAL_UNCERTAINTY_ASSIGNED_CONTEXT ( ( #275 ) ) GLOBAL_UNIT_ASSIGNED_CONTEXT ( ( #242, #268, #199 ) ) REPRESENTATION_CONTEXT ( 'NONE', 'WORKASPACE' ) );
#56 = ADVANCED_FACE ( 'NONE', ( #282 ), #229, .T. ) ;
#57 = DIRECTION ( 'NONE',  ( -1.000000000000000000, 0.0000000000000000000, 0.0000000000000000000 ) ) ;
#58 = ORIENTED_EDGE ( 'NONE', *, *, #208, .F. ) ;
#59 = VERTEX_POINT ( 'NONE', #16 ) ;
#60 = CARTESIAN_POINT ( 'NONE',  ( 0.0000000000000000000, 0.0000000000000000000, 2.952755999999999936 ) ) ;
#61 = AXIS2_PLACEMENT_3D ( 'NONE', #44, #18, #72 ) ;
#62 = PRESENTATION_LAYER_ASSIGNMENT (  '', '', ( #189 ) ) ;
#63 = AXIS2_PLACEMENT_3D ( 'NONE', #288, #165, #143 ) ;
#64 = LINE ( 'NONE', #12, #254 ) ;
#65 = ORIENTED_EDGE ( 'NONE', *, *, #21, .T. ) ;
#66 = DIRECTION ( 'NONE',  ( -1.000000000000000000, 0.0000000000000000000, 1.224646799147352961E-16 ) ) ;
#67 = VECTOR ( 'NONE', #239, 39.37007874015748143 ) ;
#68 = ORIENTED_EDGE ( 'NONE', *, *, #21, .F. ) ;
#69 = DIRECTION ( 'NONE',  ( -1.000000000000000000, 0.0000000000000000000, 1.224646799147352961E-16 ) ) ;
#70 = ADVANCED_FACE ( 'NONE', ( #111 ), #82, .T. ) ;
#71 = EDGE_LOOP ( 'NONE', ( #215, #273, #127, #109 ) ) ;
#72 = DIRECTION ( 'NONE',  ( -1.000000000000000000, 0.0000000000000000000, 0.0000000000000000000 ) ) ;
#73 = VERTEX_POINT ( 'NONE', #251 ) ;
#74 = DIRECTION ( 'NONE',  ( 0.0000000000000000000, 0.0000000000000000000, -1.000000000000000000 ) ) ;
#75 = CARTESIAN_POINT ( 'NONE',  ( -0.1031099999999991745, 0.0000000000000000000, 2.952755999999999936 ) ) ;
#76 = FACE_OUTER_BOUND ( 'NONE', #117, .T. ) ;
#77 = CIRCLE ( 'NONE', #291, 0.1179918900000000159 ) ;
#78 = AXIS2_PLACEMENT_3D ( 'NONE', #129, #227, #69 ) ;
#79 = CARTESIAN_POINT ( 'NONE',  ( 0.0000000000000000000, 0.0000000000000000000, 2.952755999999999936 ) ) ;
#80 = DIRECTION ( 'NONE',  ( 1.000000000000000000, 0.0000000000000000000, -0.0000000000000000000 ) ) ;
#81 = EDGE_CURVE ( 'NONE', #37, #73, #118, .T. ) ;
#82 = CONICAL_SURFACE ( 'NONE', #287, 0.1031099999999991745, 0.7853981633974500554 ) ;
#83 = VERTEX_POINT ( 'NONE', #206 ) ;
#84 = DIRECTION ( 'NONE',  ( 0.0000000000000000000, 0.0000000000000000000, 1.000000000000000000 ) ) ;
#85 = CARTESIAN_POINT ( 'NONE',  ( 0.0000000000000000000, 0.0000000000000000000, 2.952755999999999936 ) ) ;
#86 = CLOSED_SHELL ( 'NONE', ( #8, #155, #70, #23, #56, #194, #217, #249, #137, #283 ) ) ;
#87 = AXIS2_PLACEMENT_3D ( 'NONE', #202, #250, #297 ) ;
#88 = EDGE_CURVE ( 'NONE', #90, #270, #193, .T. ) ;
#89 = CARTESIAN_POINT ( 'NONE',  ( 0.1181100000000000344, 1.446430334472939084E-17, 2.937755999999999368 ) ) ;
#90 = VERTEX_POINT ( 'NONE', #89 ) ;
#91 = PRODUCT_RELATED_PRODUCT_CATEGORY ( 'part', '', ( #192 ) ) ;
#92 = CARTESIAN_POINT ( 'NONE',  ( 1.769594913022618379E-33, 0.0000000000000000000, 1.444983904138465938E-17 ) ) ;
#93 = PRODUCT_DEFINITION_FORMATION_WITH_SPECIFIED_SOURCE ( 'ANY', '', #192, .NOT_KNOWN. ) ;
#94 = DIRECTION ( 'NONE',  ( 0.0000000000000000000, 0.0000000000000000000, -1.000000000000000000 ) ) ;
#95 = ORIENTED_EDGE ( 'NONE', *, *, #168, .F. ) ;
#96 = PLANE ( 'NONE',  #204 ) ;
#97 = AXIS2_PLACEMENT_3D ( 'NONE', #92, #182, #280 ) ;
#98 = CARTESIAN_POINT ( 'NONE',  ( 1.206181372760304484E-16, 0.0000000000000000000, 0.9849218350957149593 ) ) ;
#99 = CARTESIAN_POINT ( 'NONE',  ( -0.1179918899999999049, 1.445707119305702665E-17, 0.9842519999999999047 ) ) ;
#100 = CARTESIAN_POINT ( 'NONE',  ( 0.0000000000000000000, 0.0000000000000000000, 2.952755999999999936 ) ) ;
#101 = EDGE_CURVE ( 'NONE', #270, #145, #134, .T. ) ;
#102 = DIRECTION ( 'NONE',  ( -1.000000000000000000, 0.0000000000000000000, 1.224646799147352961E-16 ) ) ;
#103 = ORIENTED_EDGE ( 'NONE', *, *, #238, .T. ) ;
#104 = VERTEX_POINT ( 'NONE', #178 ) ;
#105 = APPLICATION_PROTOCOL_DEFINITION ( 'draft international standard', 'automotive_design', 1998, #11 ) ;
#106 = ORIENTED_EDGE ( 'NONE', *, *, #184, .T. ) ;
#107 = EDGE_CURVE ( 'NONE', #59, #104, #77, .T. ) ;
#108 = CARTESIAN_POINT ( 'NONE',  ( 1.205361061354380629E-16, 0.0000000000000000000, 0.9842519999999999047 ) ) ;
#109 = ORIENTED_EDGE ( 'NONE', *, *, #184, .F. ) ;
#110 = AXIS2_PLACEMENT_3D ( 'NONE', #40, #132, #131 ) ;
#111 = FACE_OUTER_BOUND ( 'NONE', #71, .T. ) ;
#112 =( GEOMETRIC_REPRESENTATION_CONTEXT ( 3 ) GLOBAL_UNCERTAINTY_ASSIGNED_CONTEXT ( ( #246 ) ) GLOBAL_UNIT_ASSIGNED_CONTEXT ( ( #289, #38, #10 ) ) REPRESENTATION_CONTEXT ( 'NONE', 'WORKASPACE' ) );
#113 =( NAMED_UNIT ( * ) SI_UNIT ( $, .STERADIAN. ) SOLID_ANGLE_UNIT ( ) );
#114 = EDGE_CURVE ( 'NONE', #281, #213, #47, .T. ) ;
#115 = CARTESIAN_POINT ( 'NONE',  ( 1.205361061354380629E-16, 0.0000000000000000000, 0.9842519999999999047 ) ) ;
#116 = DIRECTION ( 'NONE',  ( -0.0000000000000000000, -0.0000000000000000000, -1.000000000000000000 ) ) ;
#117 = EDGE_LOOP ( 'NONE', ( #34, #68, #106, #136 ) ) ;
#118 = CIRCLE ( 'NONE', #87, 0.1031099999999991745 ) ;
#119 = DIMENSIONAL_EXPONENTS ( 1.000000000000000000, 0.0000000000000000000, 0.0000000000000000000, 0.0000000000000000000, 0.0000000000000000000, 0.0000000000000000000, 0.0000000000000000000 ) ;
#120 = SURFACE_STYLE_FILL_AREA ( #14 ) ;
#121 = CARTESIAN_POINT ( 'NONE',  ( 0.0000000000000000000, 0.0000000000000000000, 0.0000000000000000000 ) ) ;
#122 = EDGE_LOOP ( 'NONE', ( #220, #203, #177, #138 ) ) ;
#123 = AXIS2_PLACEMENT_3D ( 'NONE', #36, #290, #149 ) ;
#124 = COLOUR_RGB ( '',0.7921568627450980005, 0.8196078431372548767, 0.9333333333333333481 ) ;
#125 =( LENGTH_UNIT ( ) NAMED_UNIT ( * ) SI_UNIT ( $, .METRE. ) );
#126 = PRODUCT_DEFINITION_CONTEXT ( 'detailed design', #11, 'design' ) ;
#127 = ORIENTED_EDGE ( 'NONE', *, *, #33, .F. ) ;
#128 = FILL_AREA_STYLE ('',( #272 ) ) ;
#129 = CARTESIAN_POINT ( 'NONE',  ( 0.0000000000000000000, 0.0000000000000000000, 0.0000000000000000000 ) ) ;
#130 = AXIS2_PLACEMENT_3D ( 'NONE', #79, #74, #164 ) ;
#131 = DIRECTION ( 'NONE',  ( 1.000000000000000000, 0.0000000000000000000, 0.0000000000000000000 ) ) ;
#132 = DIRECTION ( 'NONE',  ( 0.0000000000000000000, 0.0000000000000000000, -1.000000000000000000 ) ) ;
#133 = EDGE_LOOP ( 'NONE', ( #162, #255, #292, #95 ) ) ;
#134 = LINE ( 'NONE', #22, #295 ) ;
#135 = APPLICATION_CONTEXT ( 'automotive_design' ) ;
#136 = ORIENTED_EDGE ( 'NONE', *, *, #88, .F. ) ;
#137 = ADVANCED_FACE ( 'NONE', ( #157 ), #46, .T. ) ;
#138 = ORIENTED_EDGE ( 'NONE', *, *, #172, .F. ) ;
#139 = FACE_OUTER_BOUND ( 'NONE', #30, .T. ) ;
#140 = DIRECTION ( 'NONE',  ( -1.224646799147353207E-16, -0.0000000000000000000, -1.000000000000000000 ) ) ;
#141 = PRODUCT_DEFINITION ( 'UNKNOWN', '', #93, #126 ) ;
#142 = PRESENTATION_LAYER_ASSIGNMENT (  '', '', ( #166 ) ) ;
#143 = DIRECTION ( 'NONE',  ( 1.000000000000000000, 0.0000000000000000000, 0.0000000000000000000 ) ) ;
#144 =( NAMED_UNIT ( * ) PLANE_ANGLE_UNIT ( ) SI_UNIT ( $, .RADIAN. ) );
#145 = VERTEX_POINT ( 'NONE', #274 ) ;
#146 = CARTESIAN_POINT ( 'NONE',  ( 0.0000000000000000000, 0.0000000000000000000, 0.0000000000000000000 ) ) ;
#147 = DIMENSIONAL_EXPONENTS ( 1.000000000000000000, 0.0000000000000000000, 0.0000000000000000000, 0.0000000000000000000, 0.0000000000000000000, 0.0000000000000000000, 0.0000000000000000000 ) ;
#148 = PRESENTATION_STYLE_ASSIGNMENT (( #294 ) ) ;
#149 = DIRECTION ( 'NONE',  ( 1.000000000000000000, 0.0000000000000000000, 0.0000000000000000000 ) ) ;
#150 = ORIENTED_EDGE ( 'NONE', *, *, #238, .F. ) ;
#151 = AXIS2_PLACEMENT_3D ( 'NONE', #115, #140, #210 ) ;
#152 = VECTOR ( 'NONE', #6, 39.37007874015748854 ) ;
#153 = ORIENTED_EDGE ( 'NONE', *, *, #81, .T. ) ;
#154 = LENGTH_MEASURE_WITH_UNIT ( LENGTH_MEASURE( 0.02539999999999999897 ), #170 );
#155 = ADVANCED_FACE ( 'NONE', ( #43 ), #244, .T. ) ;
#156 = DIRECTION ( 'NONE',  ( -1.000000000000000000, 0.0000000000000000000, 0.0000000000000000000 ) ) ;
#157 = FACE_OUTER_BOUND ( 'NONE', #133, .T. ) ;
#158 = LINE ( 'NONE', #284, #278 ) ;
#159 = ORIENTED_EDGE ( 'NONE', *, *, #259, .T. ) ;
#160 = CARTESIAN_POINT ( 'NONE',  ( 0.0000000000000000000, 0.0000000000000000000, 2.952755999999999936 ) ) ;
#161 = VECTOR ( 'NONE', #167, 39.37007874015747433 ) ;
#162 = ORIENTED_EDGE ( 'NONE', *, *, #4, .F. ) ;
#163 = DIRECTION ( 'NONE',  ( -1.224646799147353207E-16, -0.0000000000000000000, -1.000000000000000000 ) ) ;
#164 = DIRECTION ( 'NONE',  ( -1.000000000000000000, 0.0000000000000000000, 0.0000000000000000000 ) ) ;
#165 = DIRECTION ( 'NONE',  ( 1.224646799147353207E-16, 0.0000000000000000000, 1.000000000000000000 ) ) ;
#166 = STYLED_ITEM ( 'NONE', ( #148 ), #223 ) ;
#167 = DIRECTION ( 'NONE',  ( -0.1736481776669312194, 2.126576849575783625E-17, 0.9848077530122080203 ) ) ;
#168 = EDGE_CURVE ( 'NONE', #104, #59, #256, .T. ) ;
#169 = AXIS2_PLACEMENT_3D ( 'NONE', #108, #207, #298 ) ;
#170 =( LENGTH_UNIT ( ) NAMED_UNIT ( * ) SI_UNIT ( $, .METRE. ) );
#171 = ORIENTED_EDGE ( 'NONE', *, *, #33, .T. ) ;
#172 = EDGE_CURVE ( 'NONE', #213, #59, #158, .T. ) ;
#173 = CYLINDRICAL_SURFACE ( 'NONE', #20, 0.1179918900000000159 ) ;
#174 = CARTESIAN_POINT ( 'NONE',  ( 0.0000000000000000000, 0.0000000000000000000, 2.937755999999999368 ) ) ;
#175 = ORIENTED_EDGE ( 'NONE', *, *, #107, .T. ) ;
#176 = AXIS2_PLACEMENT_3D ( 'NONE', #85, #9, #57 ) ;
#177 = ORIENTED_EDGE ( 'NONE', *, *, #107, .F. ) ;
#178 = CARTESIAN_POINT ( 'NONE',  ( 0.1179918900000000159, 1.444983904138465938E-17, 0.0000000000000000000 ) ) ;
#179 = DIRECTION ( 'NONE',  ( -0.0000000000000000000, -0.0000000000000000000, -1.000000000000000000 ) ) ;
#180 = EDGE_LOOP ( 'NONE', ( #201, #276, #224, #150 ) ) ;
#181 = MECHANICAL_DESIGN_GEOMETRIC_PRESENTATION_REPRESENTATION (  '', ( #166 ), #112 ) ;
#182 = DIRECTION ( 'NONE',  ( -1.224646799147353207E-16, -0.0000000000000000000, -1.000000000000000000 ) ) ;
#183 = CIRCLE ( 'NONE', #219, 0.1031099999999991745 ) ;
#184 = EDGE_CURVE ( 'NONE', #73, #270, #52, .T. ) ;
#185 = APPLICATION_PROTOCOL_DEFINITION ( 'draft international standard', 'automotive_design', 1998, #135 ) ;
#186 = LINE ( 'NONE', #265, #264 ) ;
#187 = CIRCLE ( 'NONE', #231, 0.1181100000000000344 ) ;
#188 = CARTESIAN_POINT ( 'NONE',  ( 0.1179918900000001408, 0.0000000000000000000, 0.9842519999999999047 ) ) ;
#189 = STYLED_ITEM ( 'NONE', ( #15 ), #32 ) ;
#190 = LINE ( 'NONE', #285, #161 ) ;
#191 = PRODUCT_DEFINITION_SHAPE ( 'NONE', 'NONE',  #141 ) ;
#192 = PRODUCT ( 'Micro_SHLM-060-4', 'Micro_SHLM-060-4', '', ( #197 ) ) ;
#193 = CIRCLE ( 'NONE', #110, 0.1181100000000000344 ) ;
#194 = ADVANCED_FACE ( 'NONE', ( #286 ), #96, .T. ) ;
#195 = FACE_OUTER_BOUND ( 'NONE', #122, .T. ) ;
#196 = EDGE_LOOP ( 'NONE', ( #243, #266, #258, #45 ) ) ;
#197 = PRODUCT_CONTEXT ( 'NONE', #135, 'mechanical' ) ;
#198 = SURFACE_STYLE_FILL_AREA ( #128 ) ;
#199 =( NAMED_UNIT ( * ) SI_UNIT ( $, .STERADIAN. ) SOLID_ANGLE_UNIT ( ) );
#200 = EDGE_CURVE ( 'NONE', #281, #83, #5, .T. ) ;
#201 = ORIENTED_EDGE ( 'NONE', *, *, #259, .F. ) ;
#202 = CARTESIAN_POINT ( 'NONE',  ( 0.0000000000000000000, 0.0000000000000000000, 2.952755999999999936 ) ) ;
#203 = ORIENTED_EDGE ( 'NONE', *, *, #4, .T. ) ;
#204 = AXIS2_PLACEMENT_3D ( 'NONE', #100, #209, #80 ) ;
#205 = VECTOR ( 'NONE', #51, 39.37007874015748854 ) ;
#206 = CARTESIAN_POINT ( 'NONE',  ( 0.1181100000000001593, 1.446430334472940625E-17, 0.9849218350957149593 ) ) ;
#207 = DIRECTION ( 'NONE',  ( 1.224646799147353207E-16, 0.0000000000000000000, 1.000000000000000000 ) ) ;
#208 = EDGE_CURVE ( 'NONE', #213, #145, #190, .T. ) ;
#209 = DIRECTION ( 'NONE',  ( 0.0000000000000000000, 0.0000000000000000000, 1.000000000000000000 ) ) ;
#210 = DIRECTION ( 'NONE',  ( -1.000000000000000000, 0.0000000000000000000, 0.0000000000000000000 ) ) ;
#211 = CARTESIAN_POINT ( 'NONE',  ( 0.0000000000000000000, 0.0000000000000000000, 0.0000000000000000000 ) ) ;
#212 = AXIS2_PLACEMENT_3D ( 'NONE', #174, #232, #1 ) ;
#213 = VERTEX_POINT ( 'NONE', #99 ) ;
#214 = FACE_OUTER_BOUND ( 'NONE', #49, .T. ) ;
#215 = ORIENTED_EDGE ( 'NONE', *, *, #81, .F. ) ;
#216 = SURFACE_SIDE_STYLE ('',( #120 ) ) ;
#217 = ADVANCED_FACE ( 'NONE', ( #76 ), #19, .T. ) ;
#218 = LENGTH_MEASURE_WITH_UNIT ( LENGTH_MEASURE( 0.02539999999999999897 ), #125 );
#219 = AXIS2_PLACEMENT_3D ( 'NONE', #60, #84, #245 ) ;
#220 = ORIENTED_EDGE ( 'NONE', *, *, #296, .T. ) ;
#221 = AXIS2_PLACEMENT_3D ( 'NONE', #146, #222, #240 ) ;
#222 = DIRECTION ( 'NONE',  ( 0.0000000000000000000, 0.0000000000000000000, 1.000000000000000000 ) ) ;
#223 = ADVANCED_BREP_SHAPE_REPRESENTATION ( 'Micro_SHLM-060-4', ( #32, #221 ), #271 ) ;
#224 = ORIENTED_EDGE ( 'NONE', *, *, #101, .T. ) ;
#225 = FILL_AREA_STYLE_COLOUR ( '', #124 ) ;
#226 = SURFACE_SIDE_STYLE ('',( #198 ) ) ;
#227 = DIRECTION ( 'NONE',  ( -1.224646799147353207E-16, -0.0000000000000000000, -1.000000000000000000 ) ) ;
#228 = COLOUR_RGB ( '',0.7921568627450980005, 0.8196078431372548767, 0.9333333333333333481 ) ;
#229 = CYLINDRICAL_SURFACE ( 'NONE', #61, 0.1181100000000000344 ) ;
#230 = ORIENTED_EDGE ( 'NONE', *, *, #114, .F. ) ;
#231 = AXIS2_PLACEMENT_3D ( 'NONE', #98, #257, #261 ) ;
#232 = DIRECTION ( 'NONE',  ( 0.0000000000000000000, 0.0000000000000000000, -1.000000000000000000 ) ) ;
#233 = DIRECTION ( 'NONE',  ( 1.000000000000000000, 0.0000000000000000000, -0.0000000000000000000 ) ) ;
#234 =( LENGTH_UNIT ( ) NAMED_UNIT ( * ) SI_UNIT ( $, .METRE. ) );
#235 = CIRCLE ( 'NONE', #212, 0.1181100000000000344 ) ;
#236 = DIMENSIONAL_EXPONENTS ( 1.000000000000000000, 0.0000000000000000000, 0.0000000000000000000, 0.0000000000000000000, 0.0000000000000000000, 0.0000000000000000000, 0.0000000000000000000 ) ;
#237 = PLANE ( 'NONE',  #41 ) ;
#238 = EDGE_CURVE ( 'NONE', #83, #145, #187, .T. ) ;
#239 = DIRECTION ( 'NONE',  ( 0.1736481776669314137, 0.0000000000000000000, 0.9848077530122077983 ) ) ;
#240 = DIRECTION ( 'NONE',  ( 1.000000000000000000, 0.0000000000000000000, 0.0000000000000000000 ) ) ;
#241 = SURFACE_STYLE_USAGE ( .BOTH. , #226 ) ;
#242 =( CONVERSION_BASED_UNIT ( 'INCH', #154 ) LENGTH_UNIT ( ) NAMED_UNIT ( #119 ) );
#243 = ORIENTED_EDGE ( 'NONE', *, *, #296, .F. ) ;
#244 = CONICAL_SURFACE ( 'NONE', #169, 0.1179918900000000298, 0.1745329251994339192 ) ;
#245 = DIRECTION ( 'NONE',  ( 1.000000000000000000, 0.0000000000000000000, 0.0000000000000000000 ) ) ;
#246 = UNCERTAINTY_MEASURE_WITH_UNIT (LENGTH_MEASURE( 1.000000000000000082E-05 ), #289, 'distance_accuracy_value', 'NONE');
#247 = AXIS2_PLACEMENT_3D ( 'NONE', #279, #17, #39 ) ;
#248 = DIRECTION ( 'NONE',  ( -1.224646799147353207E-16, -0.0000000000000000000, -1.000000000000000000 ) ) ;
#249 = ADVANCED_FACE ( 'NONE', ( #260 ), #35, .T. ) ;
#250 = DIRECTION ( 'NONE',  ( 0.0000000000000000000, 0.0000000000000000000, 1.000000000000000000 ) ) ;
#251 = CARTESIAN_POINT ( 'NONE',  ( -0.1031099999999991745, 0.0000000000000000000, 2.952755999999999936 ) ) ;
#252 = CARTESIAN_POINT ( 'NONE',  ( 0.1031099999999991745, 1.354581824536882559E-17, 2.952755999999999936 ) ) ;
#253 = CARTESIAN_POINT ( 'NONE',  ( 1.769594913022618379E-33, 0.0000000000000000000, 1.444983904138465938E-17 ) ) ;
#254 = VECTOR ( 'NONE', #248, 39.37007874015748143 ) ;
#255 = ORIENTED_EDGE ( 'NONE', *, *, #114, .T. ) ;
#256 = CIRCLE ( 'NONE', #97, 0.1179918900000000159 ) ;
#257 = DIRECTION ( 'NONE',  ( -1.224646799147353207E-16, -0.0000000000000000000, -1.000000000000000000 ) ) ;
#258 = ORIENTED_EDGE ( 'NONE', *, *, #28, .T. ) ;
#259 = EDGE_CURVE ( 'NONE', #90, #83, #186, .T. ) ;
#260 = FACE_OUTER_BOUND ( 'NONE', #42, .T. ) ;
#261 = DIRECTION ( 'NONE',  ( 1.000000000000000000, 0.0000000000000000000, 0.0000000000000000000 ) ) ;
#262 = CIRCLE ( 'NONE', #123, 0.1181100000000000344 ) ;
#263 = CARTESIAN_POINT ( 'NONE',  ( -0.1181100000000000344, 0.0000000000000000000, 2.937755999999999368 ) ) ;
#264 = VECTOR ( 'NONE', #116, 39.37007874015748143 ) ;
#265 = CARTESIAN_POINT ( 'NONE',  ( 0.1181100000000000344, 1.446430334472939084E-17, 2.952755999999999936 ) ) ;
#266 = ORIENTED_EDGE ( 'NONE', *, *, #208, .T. ) ;
#267 = EDGE_CURVE ( 'NONE', #37, #90, #48, .T. ) ;
#268 =( NAMED_UNIT ( * ) PLANE_ANGLE_UNIT ( ) SI_UNIT ( $, .RADIAN. ) );
#269 = ORIENTED_EDGE ( 'NONE', *, *, #200, .T. ) ;
#270 = VERTEX_POINT ( 'NONE', #263 ) ;
#271 =( GEOMETRIC_REPRESENTATION_CONTEXT ( 3 ) GLOBAL_UNCERTAINTY_ASSIGNED_CONTEXT ( ( #3 ) ) GLOBAL_UNIT_ASSIGNED_CONTEXT ( ( #53, #144, #113 ) ) REPRESENTATION_CONTEXT ( 'NONE', 'WORKASPACE' ) );
#272 = FILL_AREA_STYLE_COLOUR ( '', #228 ) ;
#273 = ORIENTED_EDGE ( 'NONE', *, *, #267, .T. ) ;
#274 = CARTESIAN_POINT ( 'NONE',  ( -0.1181099999999999095, 0.0000000000000000000, 0.9849218350957149593 ) ) ;
#275 = UNCERTAINTY_MEASURE_WITH_UNIT (LENGTH_MEASURE( 1.000000000000000082E-05 ), #242, 'distance_accuracy_value', 'NONE');
#276 = ORIENTED_EDGE ( 'NONE', *, *, #88, .T. ) ;
#277 = DIRECTION ( 'NONE',  ( -1.224646799147353207E-16, -0.0000000000000000000, -1.000000000000000000 ) ) ;
#278 = VECTOR ( 'NONE', #163, 39.37007874015748143 ) ;
#279 = CARTESIAN_POINT ( 'NONE',  ( 1.205361061354380629E-16, 0.0000000000000000000, 0.9842519999999999047 ) ) ;
#280 = DIRECTION ( 'NONE',  ( -1.000000000000000000, 0.0000000000000000000, 1.224646799147352961E-16 ) ) ;
#281 = VERTEX_POINT ( 'NONE', #50 ) ;
#282 = FACE_OUTER_BOUND ( 'NONE', #180, .T. ) ;
#283 = ADVANCED_FACE ( 'NONE', ( #139 ), #237, .F. ) ;
#284 = CARTESIAN_POINT ( 'NONE',  ( -0.1179918900000000159, 0.0000000000000000000, 1.444983904138465938E-17 ) ) ;
#285 = CARTESIAN_POINT ( 'NONE',  ( -0.1179918899999999049, 1.444983904138466246E-17, 0.9842519999999999047 ) ) ;
#286 = FACE_OUTER_BOUND ( 'NONE', #54, .T. ) ;
#287 = AXIS2_PLACEMENT_3D ( 'NONE', #160, #94, #156 ) ;
#288 = CARTESIAN_POINT ( 'NONE',  ( 1.205361061354380629E-16, 0.0000000000000000000, 0.9842519999999999047 ) ) ;
#289 =( CONVERSION_BASED_UNIT ( 'INCH', #218 ) LENGTH_UNIT ( ) NAMED_UNIT ( #236 ) );
#290 = DIRECTION ( 'NONE',  ( -1.224646799147353207E-16, -0.0000000000000000000, -1.000000000000000000 ) ) ;
#291 = AXIS2_PLACEMENT_3D ( 'NONE', #253, #277, #66 ) ;
#292 = ORIENTED_EDGE ( 'NONE', *, *, #172, .T. ) ;
#293 = CYLINDRICAL_SURFACE ( 'NONE', #176, 0.1181100000000000344 ) ;
#294 = SURFACE_STYLE_USAGE ( .BOTH. , #216 ) ;
#295 = VECTOR ( 'NONE', #179, 39.37007874015748143 ) ;
#296 = EDGE_CURVE ( 'NONE', #213, #281, #2, .T. ) ;
#297 = DIRECTION ( 'NONE',  ( 1.000000000000000000, 0.0000000000000000000, 0.0000000000000000000 ) ) ;
#298 = DIRECTION ( 'NONE',  ( 1.000000000000000000, 0.0000000000000000000, 0.0000000000000000000 ) ) ;
#299 = ORIENTED_EDGE ( 'NONE', *, *, #101, .F. ) ;
ENDSEC;
END-ISO-10303-21;
