ISO-10303-21;
HEADER;
FILE_DESCRIPTION (( 'STEP AP214' ),
    '1' );
FILE_NAME ('Micro_DC-2.STEP',
    '2021-08-31T17:22:24',
    ( '' ),
    ( '' ),
    'SwSTEP 2.0',
    'SolidWorks 2020',
    '' );
FILE_SCHEMA (( 'AUTOMOTIVE_DESIGN' ));
ENDSEC;

DATA;
#1 = FACE_OUTER_BOUND ( 'NONE', #197, .T. ) ;
#2 = COLOUR_RGB ( '',0.7921568627450980005, 0.8196078431372548767, 0.9333333333333333481 ) ;
#3 = ORIENTED_EDGE ( 'NONE', *, *, #4, .F. ) ;
#4 = EDGE_CURVE ( 'NONE', #379, #336, #364, .T. ) ;
#5 = VERTEX_POINT ( 'NONE', #349 ) ;
#6 = ORIENTED_EDGE ( 'NONE', *, *, #246, .T. ) ;
#7 = EDGE_LOOP ( 'NONE', ( #42, #345, #34, #36 ) ) ;
#8 = LINE ( 'NONE', #11, #183 ) ;
#9 = EDGE_LOOP ( 'NONE', ( #51, #191, #340, #93 ) ) ;
#10 = UNCERTAINTY_MEASURE_WITH_UNIT (LENGTH_MEASURE( 1.000000000000000082E-05 ), #60, 'distance_accuracy_value', 'NONE');
#11 = CARTESIAN_POINT ( 'NONE',  ( -0.03905000000000000138, -4.782245750670414932E-18, 1.773536392826974062 ) ) ;
#12 = AXIS2_PLACEMENT_3D ( 'NONE', #162, #50, #307 ) ;
#13 = CARTESIAN_POINT ( 'NONE',  ( 1.201126990637470848E-17, 0.0000000000000000000, 1.773536392826974062 ) ) ;
#14 = EDGE_LOOP ( 'NONE', ( #104, #102, #21 ) ) ;
#15 = VERTEX_POINT ( 'NONE', #71 ) ;
#16 = LENGTH_MEASURE_WITH_UNIT ( LENGTH_MEASURE( 0.02539999999999999897 ), #284 );
#17 = CARTESIAN_POINT ( 'NONE',  ( 0.0000000000000000000, 0.0000000000000000000, 1.875000000000000000 ) ) ;
#18 = VERTEX_POINT ( 'NONE', #310 ) ;
#19 = CIRCLE ( 'NONE', #43, 0.03905000000000000138 ) ;
#20 = AXIS2_PLACEMENT_3D ( 'NONE', #67, #170, #355 ) ;
#21 = ORIENTED_EDGE ( 'NONE', *, *, #86, .F. ) ;
#22 = DIRECTION ( 'NONE',  ( -1.000000000000000000, 0.0000000000000000000, 0.0000000000000000000 ) ) ;
#23 = DIRECTION ( 'NONE',  ( -1.000000000000000000, 0.0000000000000000000, 0.0000000000000000000 ) ) ;
#24 = COLOUR_RGB ( '',0.7921568627450980005, 0.8196078431372548767, 0.9333333333333333481 ) ;
#25 = DIRECTION ( 'NONE',  ( 1.000000000000000000, 0.0000000000000000000, 0.0000000000000000000 ) ) ;
#26 = ADVANCED_FACE ( 'NONE', ( #168 ), #192, .T. ) ;
#27 = CARTESIAN_POINT ( 'NONE',  ( 2.777623687789500442E-18, 0.0000000000000000000, 1.851536392826973909 ) ) ;
#28 = ADVANCED_FACE ( 'NONE', ( #108 ), #230, .T. ) ;
#29 = ADVANCED_FACE ( 'NONE', ( #254 ), #321, .T. ) ;
#30 = MECHANICAL_DESIGN_GEOMETRIC_PRESENTATION_REPRESENTATION (  '', ( #375 ), #277 ) ;
#31 = CARTESIAN_POINT ( 'NONE',  ( 4.660633060057140750E-15, 0.0000000000000000000, 39.37007874015748143 ) ) ;
#32 = EDGE_CURVE ( 'NONE', #15, #18, #19, .T. ) ;
#33 = AXIS2_PLACEMENT_3D ( 'NONE', #130, #97, #186 ) ;
#34 = ORIENTED_EDGE ( 'NONE', *, *, #289, .F. ) ;
#35 = EDGE_CURVE ( 'NONE', #238, #165, #356, .T. ) ;
#36 = ORIENTED_EDGE ( 'NONE', *, *, #38, .F. ) ;
#37 = DIRECTION ( 'NONE',  ( -1.000000000000000000, 0.0000000000000000000, 1.093088985941206378E-16 ) ) ;
#38 = EDGE_CURVE ( 'NONE', #238, #18, #258, .T. ) ;
#39 = DIMENSIONAL_EXPONENTS ( 1.000000000000000000, 0.0000000000000000000, 0.0000000000000000000, 0.0000000000000000000, 0.0000000000000000000, 0.0000000000000000000, 0.0000000000000000000 ) ;
#40 = ORIENTED_EDGE ( 'NONE', *, *, #129, .F. ) ;
#41 = LINE ( 'NONE', #272, #240 ) ;
#42 = ORIENTED_EDGE ( 'NONE', *, *, #323, .T. ) ;
#43 = AXIS2_PLACEMENT_3D ( 'NONE', #113, #202, #198 ) ;
#44 = LINE ( 'NONE', #311, #159 ) ;
#45 = CONICAL_SURFACE ( 'NONE', #193, 65.52281426576882950, 1.029744258676657198 ) ;
#46 = VERTEX_POINT ( 'NONE', #322 ) ;
#47 = CARTESIAN_POINT ( 'NONE',  ( 4.660633060057140750E-15, 0.0000000000000000000, -37.49507874015748143 ) ) ;
#48 = LENGTH_MEASURE_WITH_UNIT ( LENGTH_MEASURE( 0.02539999999999999897 ), #224 );
#49 = ORIENTED_EDGE ( 'NONE', *, *, #32, .F. ) ;
#50 = DIRECTION ( 'NONE',  ( -1.183800797254513815E-16, -0.0000000000000000000, -1.000000000000000000 ) ) ;
#51 = ORIENTED_EDGE ( 'NONE', *, *, #35, .F. ) ;
#52 = AXIS2_PLACEMENT_3D ( 'NONE', #214, #66, #110 ) ;
#53 = ADVANCED_FACE ( 'NONE', ( #148 ), #318, .T. ) ;
#54 = DIRECTION ( 'NONE',  ( 1.183800797254513815E-16, 0.0000000000000000000, -1.000000000000000000 ) ) ;
#55 = FACE_OUTER_BOUND ( 'NONE', #9, .T. ) ;
#56 = CIRCLE ( 'NONE', #268, 0.09374999999999998612 ) ;
#57 = PRODUCT_DEFINITION_SHAPE ( 'NONE', 'NONE',  #80 ) ;
#58 = ORIENTED_EDGE ( 'NONE', *, *, #199, .F. ) ;
#59 = CARTESIAN_POINT ( 'NONE',  ( 0.0000000000000000000, 0.0000000000000000000, 0.0000000000000000000 ) ) ;
#60 =( CONVERSION_BASED_UNIT ( 'INCH', #123 ) LENGTH_UNIT ( ) NAMED_UNIT ( #347 ) );
#61 = CONICAL_SURFACE ( 'NONE', #276, 0.03905000000000000832, 0.5235987755983012581 ) ;
#62 = DIRECTION ( 'NONE',  ( 1.000000000000000000, 0.0000000000000000000, 0.0000000000000000000 ) ) ;
#63 = CARTESIAN_POINT ( 'NONE',  ( 1.201126990637470848E-17, 0.0000000000000000000, 1.773536392826974062 ) ) ;
#64 = EDGE_CURVE ( 'NONE', #165, #164, #95, .T. ) ;
#65 = ORIENTED_EDGE ( 'NONE', *, *, #301, .F. ) ;
#66 = DIRECTION ( 'NONE',  ( 1.183800797254513815E-16, 0.0000000000000000000, -1.000000000000000000 ) ) ;
#67 = CARTESIAN_POINT ( 'NONE',  ( 0.0000000000000000000, 0.0000000000000000000, 0.0000000000000000000 ) ) ;
#68 = DIRECTION ( 'NONE',  ( 1.183800797254513815E-16, 0.0000000000000000000, -1.000000000000000000 ) ) ;
#69 = VERTEX_POINT ( 'NONE', #143 ) ;
#70 = EDGE_CURVE ( 'NONE', #5, #15, #388, .T. ) ;
#71 = CARTESIAN_POINT ( 'NONE',  ( 0.03905000000000000138, 0.0000000000000000000, 0.02346360717302607701 ) ) ;
#72 = AXIS2_PLACEMENT_3D ( 'NONE', #128, #85, #291 ) ;
#73 = AXIS2_PLACEMENT_3D ( 'NONE', #397, #184, #182 ) ;
#74 = ORIENTED_EDGE ( 'NONE', *, *, #335, .F. ) ;
#75 = CARTESIAN_POINT ( 'NONE',  ( 0.03905000000000001525, 0.0000000000000000000, 0.1014636071730260769 ) ) ;
#76 = ORIENTED_EDGE ( 'NONE', *, *, #155, .F. ) ;
#77 = DIRECTION ( 'NONE',  ( -1.000000000000000000, 0.0000000000000000000, 0.0000000000000000000 ) ) ;
#78 = AXIS2_PLACEMENT_3D ( 'NONE', #47, #281, #137 ) ;
#79 = CARTESIAN_POINT ( 'NONE',  ( 0.0000000000000000000, 0.0000000000000000000, 1.875000000000000000 ) ) ;
#80 = PRODUCT_DEFINITION ( 'UNKNOWN', '', #286, #216 ) ;
#81 = CARTESIAN_POINT ( 'NONE',  ( -0.03905000000000000832, 0.0000000000000000000, 4.622742113278877130E-18 ) ) ;
#82 = CARTESIAN_POINT ( 'NONE',  ( 0.0000000000000000000, 0.0000000000000000000, 1.875000000000000000 ) ) ;
#83 = DIRECTION ( 'NONE',  ( 1.183800797254513815E-16, 0.0000000000000000000, 1.000000000000000000 ) ) ;
#84 =( GEOMETRIC_REPRESENTATION_CONTEXT ( 3 ) GLOBAL_UNCERTAINTY_ASSIGNED_CONTEXT ( ( #10 ) ) GLOBAL_UNIT_ASSIGNED_CONTEXT ( ( #60, #265, #239 ) ) REPRESENTATION_CONTEXT ( 'NONE', 'WORKASPACE' ) );
#85 = DIRECTION ( 'NONE',  ( -1.183800797254513815E-16, -0.0000000000000000000, -1.000000000000000000 ) ) ;
#86 = EDGE_CURVE ( 'NONE', #46, #242, #158, .T. ) ;
#87 = PRODUCT ( 'Micro_DC-2', 'Micro_DC-2', '', ( #107 ) ) ;
#88 = ORIENTED_EDGE ( 'NONE', *, *, #323, .F. ) ;
#89 = CARTESIAN_POINT ( 'NONE',  ( -0.03905000000000000138, 0.0000000000000000000, 0.1014636071730260769 ) ) ;
#90 = PRESENTATION_LAYER_ASSIGNMENT (  '', '', ( #375 ) ) ;
#91 = DIRECTION ( 'NONE',  ( 1.183800797254513815E-16, 0.0000000000000000000, -1.000000000000000000 ) ) ;
#92 = ORIENTED_EDGE ( 'NONE', *, *, #304, .T. ) ;
#93 = ORIENTED_EDGE ( 'NONE', *, *, #237, .T. ) ;
#94 = SURFACE_SIDE_STYLE ('',( #344 ) ) ;
#95 = CIRCLE ( 'NONE', #72, 0.09374999999999998612 ) ;
#96 = VECTOR ( 'NONE', #172, 39.37007874015748854 ) ;
#97 = DIRECTION ( 'NONE',  ( 1.183800797254513815E-16, 0.0000000000000000000, -1.000000000000000000 ) ) ;
#98 = DIRECTION ( 'NONE',  ( -1.183800797254513815E-16, -0.0000000000000000000, 1.000000000000000000 ) ) ;
#99 = ORIENTED_EDGE ( 'NONE', *, *, #371, .T. ) ;
#100 = FILL_AREA_STYLE_COLOUR ( '', #24 ) ;
#101 = EDGE_CURVE ( 'NONE', #330, #238, #252, .T. ) ;
#102 = ORIENTED_EDGE ( 'NONE', *, *, #301, .T. ) ;
#103 = LINE ( 'NONE', #353, #319 ) ;
#104 = ORIENTED_EDGE ( 'NONE', *, *, #332, .F. ) ;
#105 = ORIENTED_EDGE ( 'NONE', *, *, #305, .F. ) ;
#106 = CLOSED_SHELL ( 'NONE', ( #179, #325, #384, #211, #150, #241, #114, #147, #53, #29, #177, #26, #124, #28 ) ) ;
#107 = PRODUCT_CONTEXT ( 'NONE', #288, 'mechanical' ) ;
#108 = FACE_OUTER_BOUND ( 'NONE', #136, .T. ) ;
#109 = AXIS2_PLACEMENT_3D ( 'NONE', #262, #392, #118 ) ;
#110 = DIRECTION ( 'NONE',  ( -1.000000000000000000, 0.0000000000000000000, 0.0000000000000000000 ) ) ;
#111 = CONICAL_SURFACE ( 'NONE', #73, 0.03905000000000000832, 0.5235987755983012581 ) ;
#112 = DIRECTION ( 'NONE',  ( -1.183800797254513815E-16, -0.0000000000000000000, 1.000000000000000000 ) ) ;
#113 = CARTESIAN_POINT ( 'NONE',  ( 2.777623687789500442E-18, 0.0000000000000000000, 0.02346360717302608048 ) ) ;
#114 = ADVANCED_FACE ( 'NONE', ( #121 ), #389, .T. ) ;
#115 = AXIS2_PLACEMENT_3D ( 'NONE', #317, #295, #23 ) ;
#116 = DIRECTION ( 'NONE',  ( -1.000000000000000000, 0.0000000000000000000, 0.0000000000000000000 ) ) ;
#117 = CARTESIAN_POINT ( 'NONE',  ( 0.0000000000000000000, 0.0000000000000000000, 0.0000000000000000000 ) ) ;
#118 = DIRECTION ( 'NONE',  ( 1.000000000000000000, 0.0000000000000000000, -1.334178587669835812E-16 ) ) ;
#119 = DIRECTION ( 'NONE',  ( -1.183800797254513815E-16, -0.0000000000000000000, -1.000000000000000000 ) ) ;
#120 = ORIENTED_EDGE ( 'NONE', *, *, #35, .T. ) ;
#121 = FACE_OUTER_BOUND ( 'NONE', #213, .T. ) ;
#122 = STYLED_ITEM ( 'NONE', ( #156 ), #235 ) ;
#123 = LENGTH_MEASURE_WITH_UNIT ( LENGTH_MEASURE( 0.02539999999999999897 ), #152 );
#124 = ADVANCED_FACE ( 'NONE', ( #393 ), #359, .T. ) ;
#125 = FILL_AREA_STYLE_COLOUR ( '', #2 ) ;
#126 = ORIENTED_EDGE ( 'NONE', *, *, #261, .T. ) ;
#127 = ORIENTED_EDGE ( 'NONE', *, *, #282, .T. ) ;
#128 = CARTESIAN_POINT ( 'NONE',  ( 2.322697501043756925E-17, 0.0000000000000000000, 0.1962067863470431106 ) ) ;
#129 = EDGE_CURVE ( 'NONE', #242, #46, #139, .T. ) ;
#130 = CARTESIAN_POINT ( 'NONE',  ( 2.322697501043756925E-17, 0.0000000000000000000, 1.678793213652957084 ) ) ;
#131 = CARTESIAN_POINT ( 'NONE',  ( 2.322697501043756925E-17, 0.0000000000000000000, 1.678793213652957084 ) ) ;
#132 = VECTOR ( 'NONE', #293, 39.37007874015748143 ) ;
#133 = DIRECTION ( 'NONE',  ( 0.5000000000000022204, 0.0000000000000000000, 0.8660254037844373753 ) ) ;
#134 = EDGE_LOOP ( 'NONE', ( #194, #337, #274, #376 ) ) ;
#135 = DIRECTION ( 'NONE',  ( 1.000000000000000000, 0.0000000000000000000, 1.334178587669835812E-16 ) ) ;
#136 = EDGE_LOOP ( 'NONE', ( #167, #249, #99, #3 ) ) ;
#137 = DIRECTION ( 'NONE',  ( 1.000000000000000000, 0.0000000000000000000, 1.334178587669835812E-16 ) ) ;
#138 = DIRECTION ( 'NONE',  ( -0.5000000000000019984, -6.123233995736791920E-17, -0.8660254037844374864 ) ) ;
#139 = CIRCLE ( 'NONE', #245, 0.03905000000000000138 ) ;
#140 = DIRECTION ( 'NONE',  ( 1.000000000000000000, 0.0000000000000000000, -1.334178587669835812E-16 ) ) ;
#141 = CIRCLE ( 'NONE', #12, 0.03905000000000000832 ) ;
#142 = ORIENTED_EDGE ( 'NONE', *, *, #4, .T. ) ;
#143 = CARTESIAN_POINT ( 'NONE',  ( -0.03905000000000000138, 0.0000000000000000000, 1.773536392826974062 ) ) ;
#144 = DIRECTION ( 'NONE',  ( 1.000000000000000000, 0.0000000000000000000, 0.0000000000000000000 ) ) ;
#145 = DIRECTION ( 'NONE',  ( -1.183800797254513815E-16, -0.0000000000000000000, 1.000000000000000000 ) ) ;
#146 = VECTOR ( 'NONE', #285, 39.37007874015748143 ) ;
#147 = ADVANCED_FACE ( 'NONE', ( #178 ), #149, .T. ) ;
#148 = FACE_OUTER_BOUND ( 'NONE', #271, .T. ) ;
#149 = CYLINDRICAL_SURFACE ( 'NONE', #257, 0.09375000000000001388 ) ;
#150 = ADVANCED_FACE ( 'NONE', ( #180 ), #391, .T. ) ;
#151 = DIRECTION ( 'NONE',  ( -0.0000000000000000000, -0.0000000000000000000, -1.000000000000000000 ) ) ;
#152 =( LENGTH_UNIT ( ) NAMED_UNIT ( * ) SI_UNIT ( $, .METRE. ) );
#153 = AXIS2_PLACEMENT_3D ( 'NONE', #79, #145, #320 ) ;
#154 = CONICAL_SURFACE ( 'NONE', #352, 0.03905000000000000832, 0.5235987755983012581 ) ;
#155 = EDGE_CURVE ( 'NONE', #330, #15, #395, .T. ) ;
#156 = PRESENTATION_STYLE_ASSIGNMENT (( #264 ) ) ;
#157 = ORIENTED_EDGE ( 'NONE', *, *, #368, .F. ) ;
#158 = CIRCLE ( 'NONE', #326, 0.03905000000000000138 ) ;
#159 = VECTOR ( 'NONE', #243, 39.37007874015748143 ) ;
#160 = ORIENTED_EDGE ( 'NONE', *, *, #282, .F. ) ;
#161 = EDGE_CURVE ( 'NONE', #5, #18, #228, .T. ) ;
#162 = CARTESIAN_POINT ( 'NONE',  ( 1.201126990637470848E-17, 0.0000000000000000000, 0.1014636071730260769 ) ) ;
#163 = EDGE_LOOP ( 'NONE', ( #88, #120, #354, #273 ) ) ;
#164 = VERTEX_POINT ( 'NONE', #367 ) ;
#165 = VERTEX_POINT ( 'NONE', #324 ) ;
#166 = CARTESIAN_POINT ( 'NONE',  ( 0.09375000000000001388, 1.148106374200643863E-17, 1.678793213652957084 ) ) ;
#167 = ORIENTED_EDGE ( 'NONE', *, *, #304, .F. ) ;
#168 = FACE_OUTER_BOUND ( 'NONE', #14, .T. ) ;
#169 =( CONVERSION_BASED_UNIT ( 'INCH', #48 ) LENGTH_UNIT ( ) NAMED_UNIT ( #39 ) );
#170 = DIRECTION ( 'NONE',  ( 0.0000000000000000000, 0.0000000000000000000, 1.000000000000000000 ) ) ;
#171 = DIRECTION ( 'NONE',  ( 1.183800797254513815E-16, 0.0000000000000000000, -1.000000000000000000 ) ) ;
#172 = DIRECTION ( 'NONE',  ( -0.8571673007021136659, -1.049727191138620298E-16, -0.5150380749100519351 ) ) ;
#173 = AXIS2_PLACEMENT_3D ( 'NONE', #263, #119, #226 ) ;
#174 =( NAMED_UNIT ( * ) SI_UNIT ( $, .STERADIAN. ) SOLID_ANGLE_UNIT ( ) );
#175 = PRESENTATION_LAYER_ASSIGNMENT (  '', '', ( #122 ) ) ;
#176 = CARTESIAN_POINT ( 'NONE',  ( 0.0000000000000000000, 0.0000000000000000000, 0.0000000000000000000 ) ) ;
#177 = ADVANCED_FACE ( 'NONE', ( #55 ), #61, .T. ) ;
#178 = FACE_OUTER_BOUND ( 'NONE', #134, .T. ) ;
#179 = ADVANCED_FACE ( 'NONE', ( #328 ), #154, .T. ) ;
#180 = FACE_OUTER_BOUND ( 'NONE', #7, .T. ) ;
#181 = ORIENTED_EDGE ( 'NONE', *, *, #335, .T. ) ;
#182 = DIRECTION ( 'NONE',  ( 1.000000000000000000, 0.0000000000000000000, 0.0000000000000000000 ) ) ;
#183 = VECTOR ( 'NONE', #138, 39.37007874015748143 ) ;
#184 = DIRECTION ( 'NONE',  ( 1.183800797254513815E-16, 0.0000000000000000000, 1.000000000000000000 ) ) ;
#185 = LINE ( 'NONE', #333, #331 ) ;
#186 = DIRECTION ( 'NONE',  ( -1.000000000000000000, 0.0000000000000000000, 0.0000000000000000000 ) ) ;
#187 = DIRECTION ( 'NONE',  ( -1.183800797254513815E-16, -0.0000000000000000000, 1.000000000000000000 ) ) ;
#188 = ORIENTED_EDGE ( 'NONE', *, *, #70, .T. ) ;
#189 = SHAPE_DEFINITION_REPRESENTATION ( #57, #308 ) ;
#190 = DIRECTION ( 'NONE',  ( 1.183800797254513815E-16, 0.0000000000000000000, -1.000000000000000000 ) ) ;
#191 = ORIENTED_EDGE ( 'NONE', *, *, #101, .F. ) ;
#192 = CONICAL_SURFACE ( 'NONE', #78, 65.52281426576882950, 1.029744258676657198 ) ;
#193 = AXIS2_PLACEMENT_3D ( 'NONE', #302, #68, #135 ) ;
#194 = ORIENTED_EDGE ( 'NONE', *, *, #261, .F. ) ;
#195 = ORIENTED_EDGE ( 'NONE', *, *, #289, .T. ) ;
#196 = CARTESIAN_POINT ( 'NONE',  ( 0.03905000000000007077, 0.0000000000000000000, 1.851536392826973909 ) ) ;
#197 = EDGE_LOOP ( 'NONE', ( #306, #314, #195 ) ) ;
#198 = DIRECTION ( 'NONE',  ( -1.000000000000000000, 0.0000000000000000000, 1.093088985941206378E-16 ) ) ;
#199 = EDGE_CURVE ( 'NONE', #379, #165, #185, .T. ) ;
#200 = FACE_OUTER_BOUND ( 'NONE', #218, .T. ) ;
#201 = CARTESIAN_POINT ( 'NONE',  ( 2.777623687789500442E-18, 0.0000000000000000000, 1.851536392826973909 ) ) ;
#202 = DIRECTION ( 'NONE',  ( -1.183800797254513815E-16, -0.0000000000000000000, -1.000000000000000000 ) ) ;
#203 = DIRECTION ( 'NONE',  ( -0.0000000000000000000, -0.0000000000000000000, -1.000000000000000000 ) ) ;
#204 = SURFACE_STYLE_FILL_AREA ( #206 ) ;
#205 = MECHANICAL_DESIGN_GEOMETRIC_PRESENTATION_REPRESENTATION (  '', ( #122 ), #84 ) ;
#206 = FILL_AREA_STYLE ('',( #125 ) ) ;
#207 = ORIENTED_EDGE ( 'NONE', *, *, #246, .F. ) ;
#208 = VECTOR ( 'NONE', #232, 39.37007874015748143 ) ;
#209 = AXIS2_PLACEMENT_3D ( 'NONE', #31, #219, #140 ) ;
#210 = DIRECTION ( 'NONE',  ( -0.0000000000000000000, -0.0000000000000000000, -1.000000000000000000 ) ) ;
#211 = ADVANCED_FACE ( 'NONE', ( #266 ), #111, .T. ) ;
#212 = FILL_AREA_STYLE ('',( #100 ) ) ;
#213 = EDGE_LOOP ( 'NONE', ( #142, #126, #300, #58 ) ) ;
#214 = CARTESIAN_POINT ( 'NONE',  ( 1.201126990637470848E-17, 0.0000000000000000000, 1.773536392826974062 ) ) ;
#215 = VERTEX_POINT ( 'NONE', #334 ) ;
#216 = PRODUCT_DEFINITION_CONTEXT ( 'detailed design', #280, 'design' ) ;
#217 =( CONVERSION_BASED_UNIT ( 'INCH', #16 ) LENGTH_UNIT ( ) NAMED_UNIT ( #269 ) );
#218 = EDGE_LOOP ( 'NONE', ( #65, #372, #40 ) ) ;
#219 = DIRECTION ( 'NONE',  ( 1.183800797254513815E-16, 0.0000000000000000000, 1.000000000000000000 ) ) ;
#220 = ORIENTED_EDGE ( 'NONE', *, *, #38, .T. ) ;
#221 = CIRCLE ( 'NONE', #299, 0.03905000000000000832 ) ;
#222 = CARTESIAN_POINT ( 'NONE',  ( -0.09374999999999997224, 0.0000000000000000000, 1.678793213652957084 ) ) ;
#223 = ORIENTED_EDGE ( 'NONE', *, *, #86, .T. ) ;
#224 =( LENGTH_UNIT ( ) NAMED_UNIT ( * ) SI_UNIT ( $, .METRE. ) );
#225 = PRODUCT_RELATED_PRODUCT_CATEGORY ( 'part', '', ( #87 ) ) ;
#226 = DIRECTION ( 'NONE',  ( -1.000000000000000000, 0.0000000000000000000, 1.183800797254513815E-16 ) ) ;
#227 = CARTESIAN_POINT ( 'NONE',  ( 0.03905000000000000832, 4.782245750670414932E-18, -4.622742113278877130E-18 ) ) ;
#228 = LINE ( 'NONE', #117, #292 ) ;
#229 =( NAMED_UNIT ( * ) PLANE_ANGLE_UNIT ( ) SI_UNIT ( $, .RADIAN. ) );
#230 = CONICAL_SURFACE ( 'NONE', #365, 0.03905000000000000832, 0.5235987755983012581 ) ;
#231 = EDGE_LOOP ( 'NONE', ( #160, #6, #348, #74 ) ) ;
#232 = DIRECTION ( 'NONE',  ( -1.183800797254513815E-16, -0.0000000000000000000, -1.000000000000000000 ) ) ;
#233 = CIRCLE ( 'NONE', #52, 0.03905000000000000832 ) ;
#234 = ORIENTED_EDGE ( 'NONE', *, *, #371, .F. ) ;
#235 = MANIFOLD_SOLID_BREP ( 'Mirror1', #106 ) ;
#236 = CARTESIAN_POINT ( 'NONE',  ( 2.322697501043756925E-17, 0.0000000000000000000, 0.1962067863470431106 ) ) ;
#237 = EDGE_CURVE ( 'NONE', #164, #165, #338, .T. ) ;
#238 = VERTEX_POINT ( 'NONE', #89 ) ;
#239 =( NAMED_UNIT ( * ) SI_UNIT ( $, .STERADIAN. ) SOLID_ANGLE_UNIT ( ) );
#240 = VECTOR ( 'NONE', #98, 39.37007874015748143 ) ;
#241 = ADVANCED_FACE ( 'NONE', ( #1 ), #309, .T. ) ;
#242 = VERTEX_POINT ( 'NONE', #196 ) ;
#243 = DIRECTION ( 'NONE',  ( 0.5000000000000022204, 0.0000000000000000000, -0.8660254037844373753 ) ) ;
#244 = UNCERTAINTY_MEASURE_WITH_UNIT (LENGTH_MEASURE( 1.000000000000000082E-05 ), #169, 'distance_accuracy_value', 'NONE');
#245 = AXIS2_PLACEMENT_3D ( 'NONE', #27, #54, #22 ) ;
#246 = EDGE_CURVE ( 'NONE', #387, #242, #41, .T. ) ;
#247 = LINE ( 'NONE', #341, #146 ) ;
#248 = CARTESIAN_POINT ( 'NONE',  ( 0.03905000000000001525, -4.782245750670416473E-18, 1.773536392826974062 ) ) ;
#249 = ORIENTED_EDGE ( 'NONE', *, *, #305, .T. ) ;
#250 = FACE_OUTER_BOUND ( 'NONE', #231, .T. ) ;
#251 = ORIENTED_EDGE ( 'NONE', *, *, #161, .F. ) ;
#252 = CIRCLE ( 'NONE', #115, 0.03905000000000000832 ) ;
#253 = APPLICATION_PROTOCOL_DEFINITION ( 'draft international standard', 'automotive_design', 1998, #288 ) ;
#254 = FACE_OUTER_BOUND ( 'NONE', #303, .T. ) ;
#255 = CARTESIAN_POINT ( 'NONE',  ( 0.09375000000000001388, 1.148106374200643863E-17, 1.875000000000000000 ) ) ;
#256 = DIRECTION ( 'NONE',  ( 0.8571673007021137769, 0.0000000000000000000, 0.5150380749100517130 ) ) ;
#257 = AXIS2_PLACEMENT_3D ( 'NONE', #290, #151, #260 ) ;
#258 = LINE ( 'NONE', #81, #267 ) ;
#259 =( GEOMETRIC_REPRESENTATION_CONTEXT ( 3 ) GLOBAL_UNCERTAINTY_ASSIGNED_CONTEXT ( ( #244 ) ) GLOBAL_UNIT_ASSIGNED_CONTEXT ( ( #169, #229, #174 ) ) REPRESENTATION_CONTEXT ( 'NONE', 'WORKASPACE' ) );
#260 = DIRECTION ( 'NONE',  ( -1.000000000000000000, 0.0000000000000000000, 0.0000000000000000000 ) ) ;
#261 = EDGE_CURVE ( 'NONE', #336, #164, #313, .T. ) ;
#262 = CARTESIAN_POINT ( 'NONE',  ( 4.660633060057140750E-15, 0.0000000000000000000, 39.37007874015748143 ) ) ;
#263 = CARTESIAN_POINT ( 'NONE',  ( 0.0000000000000000000, 0.0000000000000000000, 0.0000000000000000000 ) ) ;
#264 = SURFACE_STYLE_USAGE ( .BOTH. , #329 ) ;
#265 =( NAMED_UNIT ( * ) PLANE_ANGLE_UNIT ( ) SI_UNIT ( $, .RADIAN. ) );
#266 = FACE_OUTER_BOUND ( 'NONE', #163, .T. ) ;
#267 = VECTOR ( 'NONE', #390, 39.37007874015748143 ) ;
#268 = AXIS2_PLACEMENT_3D ( 'NONE', #131, #346, #77 ) ;
#269 = DIMENSIONAL_EXPONENTS ( 1.000000000000000000, 0.0000000000000000000, 0.0000000000000000000, 0.0000000000000000000, 0.0000000000000000000, 0.0000000000000000000, 0.0000000000000000000 ) ;
#270 = ORIENTED_EDGE ( 'NONE', *, *, #101, .T. ) ;
#271 = EDGE_LOOP ( 'NONE', ( #251, #188, #381 ) ) ;
#272 = CARTESIAN_POINT ( 'NONE',  ( 0.03905000000000000832, -4.782245750670414932E-18, 1.875000000000000000 ) ) ;
#273 = ORIENTED_EDGE ( 'NONE', *, *, #362, .F. ) ;
#274 = ORIENTED_EDGE ( 'NONE', *, *, #199, .T. ) ;
#275 = CARTESIAN_POINT ( 'NONE',  ( 2.777623687789500442E-18, 0.0000000000000000000, 0.02346360717302608048 ) ) ;
#276 = AXIS2_PLACEMENT_3D ( 'NONE', #294, #83, #25 ) ;
#277 =( GEOMETRIC_REPRESENTATION_CONTEXT ( 3 ) GLOBAL_UNCERTAINTY_ASSIGNED_CONTEXT ( ( #343 ) ) GLOBAL_UNIT_ASSIGNED_CONTEXT ( ( #217, #279, #312 ) ) REPRESENTATION_CONTEXT ( 'NONE', 'WORKASPACE' ) );
#278 = LINE ( 'NONE', #17, #96 ) ;
#279 =( NAMED_UNIT ( * ) PLANE_ANGLE_UNIT ( ) SI_UNIT ( $, .RADIAN. ) );
#280 = APPLICATION_CONTEXT ( 'automotive_design' ) ;
#281 = DIRECTION ( 'NONE',  ( 1.183800797254513815E-16, 0.0000000000000000000, -1.000000000000000000 ) ) ;
#282 = EDGE_CURVE ( 'NONE', #387, #69, #221, .T. ) ;
#283 = DIRECTION ( 'NONE',  ( -1.000000000000000000, 0.0000000000000000000, 0.0000000000000000000 ) ) ;
#284 =( LENGTH_UNIT ( ) NAMED_UNIT ( * ) SI_UNIT ( $, .METRE. ) );
#285 = DIRECTION ( 'NONE',  ( 0.8571673007021137769, 0.0000000000000000000, -0.5150380749100517130 ) ) ;
#286 = PRODUCT_DEFINITION_FORMATION_WITH_SPECIFIED_SOURCE ( 'ANY', '', #87, .NOT_KNOWN. ) ;
#287 = DIRECTION ( 'NONE',  ( 1.183800797254513815E-16, 0.0000000000000000000, -1.000000000000000000 ) ) ;
#288 = APPLICATION_CONTEXT ( 'automotive_design' ) ;
#289 = EDGE_CURVE ( 'NONE', #18, #15, #360, .T. ) ;
#290 = CARTESIAN_POINT ( 'NONE',  ( 0.0000000000000000000, 0.0000000000000000000, 1.875000000000000000 ) ) ;
#291 = DIRECTION ( 'NONE',  ( -1.000000000000000000, 0.0000000000000000000, 0.0000000000000000000 ) ) ;
#292 = VECTOR ( 'NONE', #361, 39.37007874015748854 ) ;
#293 = DIRECTION ( 'NONE',  ( -0.5000000000000019984, 6.123233995736791920E-17, 0.8660254037844374864 ) ) ;
#294 = CARTESIAN_POINT ( 'NONE',  ( 1.201126990637470848E-17, 0.0000000000000000000, 0.1014636071730260769 ) ) ;
#295 = DIRECTION ( 'NONE',  ( -1.183800797254513815E-16, -0.0000000000000000000, -1.000000000000000000 ) ) ;
#296 = CARTESIAN_POINT ( 'NONE',  ( 1.201126990637470848E-17, 0.0000000000000000000, 1.773536392826974062 ) ) ;
#297 = DIRECTION ( 'NONE',  ( -0.0000000000000000000, -0.0000000000000000000, -1.000000000000000000 ) ) ;
#298 = DIRECTION ( 'NONE',  ( -1.183800797254513815E-16, -0.0000000000000000000, -1.000000000000000000 ) ) ;
#299 = AXIS2_PLACEMENT_3D ( 'NONE', #13, #190, #283 ) ;
#300 = ORIENTED_EDGE ( 'NONE', *, *, #64, .F. ) ;
#301 = EDGE_CURVE ( 'NONE', #215, #242, #247, .T. ) ;
#302 = CARTESIAN_POINT ( 'NONE',  ( 4.660633060057140750E-15, 0.0000000000000000000, -37.49507874015748143 ) ) ;
#303 = EDGE_LOOP ( 'NONE', ( #76, #270, #220, #49 ) ) ;
#304 = EDGE_CURVE ( 'NONE', #69, #379, #8, .T. ) ;
#305 = EDGE_CURVE ( 'NONE', #69, #387, #233, .T. ) ;
#306 = ORIENTED_EDGE ( 'NONE', *, *, #70, .F. ) ;
#307 = DIRECTION ( 'NONE',  ( -1.000000000000000000, 0.0000000000000000000, 0.0000000000000000000 ) ) ;
#308 = ADVANCED_BREP_SHAPE_REPRESENTATION ( 'Micro_DC-2', ( #235, #20 ), #259 ) ;
#309 = CONICAL_SURFACE ( 'NONE', #209, 65.52281426576882950, 1.029744258676657198 ) ;
#310 = CARTESIAN_POINT ( 'NONE',  ( -0.03904999999999998750, 4.782245750670413391E-18, 0.02346360717302608742 ) ) ;
#311 = CARTESIAN_POINT ( 'NONE',  ( 0.03905000000000001525, 0.0000000000000000000, 1.773536392826974062 ) ) ;
#312 =( NAMED_UNIT ( * ) SI_UNIT ( $, .STERADIAN. ) SOLID_ANGLE_UNIT ( ) );
#313 = LINE ( 'NONE', #255, #370 ) ;
#314 = ORIENTED_EDGE ( 'NONE', *, *, #161, .T. ) ;
#315 = PRESENTATION_STYLE_ASSIGNMENT (( #339 ) ) ;
#316 = CARTESIAN_POINT ( 'NONE',  ( -0.03905000000000000138, 4.782245750670414932E-18, 0.1014636071730260769 ) ) ;
#317 = CARTESIAN_POINT ( 'NONE',  ( 1.201126990637470848E-17, 0.0000000000000000000, 0.1014636071730260769 ) ) ;
#318 = CONICAL_SURFACE ( 'NONE', #109, 65.52281426576882950, 1.029744258676657198 ) ;
#319 = VECTOR ( 'NONE', #112, 39.37007874015748143 ) ;
#320 = DIRECTION ( 'NONE',  ( -1.000000000000000000, 0.0000000000000000000, 0.0000000000000000000 ) ) ;
#321 = CYLINDRICAL_SURFACE ( 'NONE', #382, 0.03905000000000000832 ) ;
#322 = CARTESIAN_POINT ( 'NONE',  ( -0.03905000000000005689, -4.782245750670421866E-18, 1.851536392826973909 ) ) ;
#323 = EDGE_CURVE ( 'NONE', #238, #330, #141, .T. ) ;
#324 = CARTESIAN_POINT ( 'NONE',  ( -0.09374999999999997224, 0.0000000000000000000, 0.1962067863470431106 ) ) ;
#325 = ADVANCED_FACE ( 'NONE', ( #250 ), #380, .T. ) ;
#326 = AXIS2_PLACEMENT_3D ( 'NONE', #201, #287, #363 ) ;
#327 = VECTOR ( 'NONE', #133, 39.37007874015748143 ) ;
#328 = FACE_OUTER_BOUND ( 'NONE', #394, .T. ) ;
#329 = SURFACE_SIDE_STYLE ('',( #204 ) ) ;
#330 = VERTEX_POINT ( 'NONE', #357 ) ;
#331 = VECTOR ( 'NONE', #297, 39.37007874015748143 ) ;
#332 = EDGE_CURVE ( 'NONE', #215, #46, #278, .T. ) ;
#333 = CARTESIAN_POINT ( 'NONE',  ( -0.09375000000000001388, 0.0000000000000000000, 1.875000000000000000 ) ) ;
#334 = CARTESIAN_POINT ( 'NONE',  ( 0.0000000000000000000, 0.0000000000000000000, 1.875000000000000000 ) ) ;
#335 = EDGE_CURVE ( 'NONE', #69, #46, #103, .T. ) ;
#336 = VERTEX_POINT ( 'NONE', #166 ) ;
#337 = ORIENTED_EDGE ( 'NONE', *, *, #368, .T. ) ;
#338 = CIRCLE ( 'NONE', #396, 0.09374999999999998612 ) ;
#339 = SURFACE_STYLE_USAGE ( .BOTH. , #94 ) ;
#340 = ORIENTED_EDGE ( 'NONE', *, *, #362, .T. ) ;
#341 = CARTESIAN_POINT ( 'NONE',  ( 0.0000000000000000000, 0.0000000000000000000, 1.875000000000000000 ) ) ;
#342 = EDGE_LOOP ( 'NONE', ( #207, #105, #181, #223 ) ) ;
#343 = UNCERTAINTY_MEASURE_WITH_UNIT (LENGTH_MEASURE( 1.000000000000000082E-05 ), #217, 'distance_accuracy_value', 'NONE');
#344 = SURFACE_STYLE_FILL_AREA ( #212 ) ;
#345 = ORIENTED_EDGE ( 'NONE', *, *, #155, .T. ) ;
#346 = DIRECTION ( 'NONE',  ( 1.183800797254513815E-16, 0.0000000000000000000, -1.000000000000000000 ) ) ;
#347 = DIMENSIONAL_EXPONENTS ( 1.000000000000000000, 0.0000000000000000000, 0.0000000000000000000, 0.0000000000000000000, 0.0000000000000000000, 0.0000000000000000000, 0.0000000000000000000 ) ;
#348 = ORIENTED_EDGE ( 'NONE', *, *, #129, .T. ) ;
#349 = CARTESIAN_POINT ( 'NONE',  ( 0.0000000000000000000, 0.0000000000000000000, 0.0000000000000000000 ) ) ;
#350 = LINE ( 'NONE', #75, #327 ) ;
#351 = AXIS2_PLACEMENT_3D ( 'NONE', #82, #203, #116 ) ;
#352 = AXIS2_PLACEMENT_3D ( 'NONE', #296, #91, #62 ) ;
#353 = CARTESIAN_POINT ( 'NONE',  ( -0.03905000000000000832, 0.0000000000000000000, 1.875000000000000000 ) ) ;
#354 = ORIENTED_EDGE ( 'NONE', *, *, #64, .T. ) ;
#355 = DIRECTION ( 'NONE',  ( 1.000000000000000000, 0.0000000000000000000, 0.0000000000000000000 ) ) ;
#356 = LINE ( 'NONE', #316, #132 ) ;
#357 = CARTESIAN_POINT ( 'NONE',  ( 0.03905000000000001525, 4.782245750670416473E-18, 0.1014636071730260769 ) ) ;
#358 = DIRECTION ( 'NONE',  ( -1.183800797254513815E-16, -0.0000000000000000000, -1.000000000000000000 ) ) ;
#359 = CYLINDRICAL_SURFACE ( 'NONE', #153, 0.03905000000000000832 ) ;
#360 = CIRCLE ( 'NONE', #377, 0.03905000000000000138 ) ;
#361 = DIRECTION ( 'NONE',  ( -0.8571673007021136659, 1.049727191138620298E-16, 0.5150380749100519351 ) ) ;
#362 = EDGE_CURVE ( 'NONE', #330, #164, #350, .T. ) ;
#363 = DIRECTION ( 'NONE',  ( -1.000000000000000000, 0.0000000000000000000, 0.0000000000000000000 ) ) ;
#364 = CIRCLE ( 'NONE', #33, 0.09374999999999998612 ) ;
#365 = AXIS2_PLACEMENT_3D ( 'NONE', #63, #171, #144 ) ;
#366 = AXIS2_PLACEMENT_3D ( 'NONE', #378, #187, #386 ) ;
#367 = CARTESIAN_POINT ( 'NONE',  ( 0.09375000000000001388, 1.148106374200643863E-17, 0.1962067863470431106 ) ) ;
#368 = EDGE_CURVE ( 'NONE', #336, #379, #56, .T. ) ;
#369 = DIRECTION ( 'NONE',  ( -1.000000000000000000, 0.0000000000000000000, 0.0000000000000000000 ) ) ;
#370 = VECTOR ( 'NONE', #210, 39.37007874015748143 ) ;
#371 = EDGE_CURVE ( 'NONE', #387, #336, #44, .T. ) ;
#372 = ORIENTED_EDGE ( 'NONE', *, *, #332, .T. ) ;
#373 = VECTOR ( 'NONE', #256, 39.37007874015748143 ) ;
#374 = DIRECTION ( 'NONE',  ( -1.183800797254513815E-16, -0.0000000000000000000, -1.000000000000000000 ) ) ;
#375 = STYLED_ITEM ( 'NONE', ( #315 ), #308 ) ;
#376 = ORIENTED_EDGE ( 'NONE', *, *, #237, .F. ) ;
#377 = AXIS2_PLACEMENT_3D ( 'NONE', #275, #374, #37 ) ;
#378 = CARTESIAN_POINT ( 'NONE',  ( 0.0000000000000000000, 0.0000000000000000000, 1.875000000000000000 ) ) ;
#379 = VERTEX_POINT ( 'NONE', #222 ) ;
#380 = CYLINDRICAL_SURFACE ( 'NONE', #366, 0.03905000000000000832 ) ;
#381 = ORIENTED_EDGE ( 'NONE', *, *, #32, .T. ) ;
#382 = AXIS2_PLACEMENT_3D ( 'NONE', #176, #358, #385 ) ;
#383 = APPLICATION_PROTOCOL_DEFINITION ( 'draft international standard', 'automotive_design', 1998, #280 ) ;
#384 = ADVANCED_FACE ( 'NONE', ( #200 ), #45, .T. ) ;
#385 = DIRECTION ( 'NONE',  ( -1.000000000000000000, 0.0000000000000000000, 1.183800797254513815E-16 ) ) ;
#386 = DIRECTION ( 'NONE',  ( -1.000000000000000000, 0.0000000000000000000, 0.0000000000000000000 ) ) ;
#387 = VERTEX_POINT ( 'NONE', #248 ) ;
#388 = LINE ( 'NONE', #59, #373 ) ;
#389 = CYLINDRICAL_SURFACE ( 'NONE', #351, 0.09375000000000001388 ) ;
#390 = DIRECTION ( 'NONE',  ( -1.183800797254513815E-16, -0.0000000000000000000, -1.000000000000000000 ) ) ;
#391 = CYLINDRICAL_SURFACE ( 'NONE', #173, 0.03905000000000000832 ) ;
#392 = DIRECTION ( 'NONE',  ( 1.183800797254513815E-16, 0.0000000000000000000, 1.000000000000000000 ) ) ;
#393 = FACE_OUTER_BOUND ( 'NONE', #342, .T. ) ;
#394 = EDGE_LOOP ( 'NONE', ( #127, #92, #157, #234 ) ) ;
#395 = LINE ( 'NONE', #227, #208 ) ;
#396 = AXIS2_PLACEMENT_3D ( 'NONE', #236, #298, #369 ) ;
#397 = CARTESIAN_POINT ( 'NONE',  ( 1.201126990637470848E-17, 0.0000000000000000000, 0.1014636071730260769 ) ) ;
ENDSEC;
END-ISO-10303-21;
