ISO-10303-21;
HEADER;
FILE_DESCRIPTION (( 'STEP AP214' ),
    '1' );
FILE_NAME ('07009.STEP',
    '2023-07-12T13:04:54',
    ( '' ),
    ( '' ),
    'SwSTEP 2.0',
    'SolidWorks 2023',
    '' );
FILE_SCHEMA (( 'AUTOMOTIVE_DESIGN' ));
ENDSEC;

DATA;
#1 = VERTEX_POINT ( 'NONE', #12 ) ;
#2 = EDGE_CURVE ( 'NONE', #108, #1, #43, .T. ) ;
#3 = PRESENTATION_LAYER_ASSIGNMENT (  '', '', ( #203 ) ) ;
#4 = SURFACE_STYLE_USAGE ( .BOTH. , #222 ) ;
#5 = LENGTH_MEASURE_WITH_UNIT ( LENGTH_MEASURE( 0.02539999999999999897 ), #138 );
#6 = VERTEX_POINT ( 'NONE', #143 ) ;
#7 = LINE ( 'NONE', #247, #132 ) ;
#8 = LINE ( 'NONE', #112, #249 ) ;
#9 = UNCERTAINTY_MEASURE_WITH_UNIT (LENGTH_MEASURE( 1.000000000000000082E-05 ), #230, 'distance_accuracy_value', 'NONE');
#10 = DIRECTION ( 'NONE',  ( -9.756187832564867807E-17, 1.000000000000000000, -0.000000000000000000 ) ) ;
#11 = FILL_AREA_STYLE_COLOUR ( '', #259 ) ;
#12 = CARTESIAN_POINT ( 'NONE',  ( -0.1874999999999998335, 2.500000000000000000, 0.000000000000000000 ) ) ;
#13 = EDGE_CURVE ( 'NONE', #252, #131, #116, .T. ) ;
#14 = MECHANICAL_DESIGN_GEOMETRIC_PRESENTATION_REPRESENTATION (  '', ( #126 ), #154 ) ;
#15 = DIRECTION ( 'NONE',  ( 0.7071067811865486830, 0.7071067811865462405, 8.659560562354947649E-17 ) ) ;
#16 = PLANE ( 'NONE',  #227 ) ;
#17 = SURFACE_SIDE_STYLE ('',( #91 ) ) ;
#18 = LENGTH_MEASURE_WITH_UNIT ( LENGTH_MEASURE( 0.02539999999999999897 ), #122 );
#19 = SURFACE_SIDE_STYLE ('',( #177 ) ) ;
#20 = PRODUCT_DEFINITION_CONTEXT ( 'detailed design', #72, 'design' ) ;
#21 = PLANE ( 'NONE',  #184 ) ;
#22 =( CONVERSION_BASED_UNIT ( 'INCH', #308 ) LENGTH_UNIT ( ) NAMED_UNIT ( #39 ) );
#23 = CARTESIAN_POINT ( 'NONE',  ( 6.123233995736772199E-17, 2.500000000000000000, 0.000000000000000000 ) ) ;
#24 = FILL_AREA_STYLE ('',( #103 ) ) ;
#25 = ORIENTED_EDGE ( 'NONE', *, *, #96, .T. ) ;
#26 = EDGE_CURVE ( 'NONE', #1, #54, #269, .T. ) ;
#27 = CARTESIAN_POINT ( 'NONE',  ( -0.1874999999999999445, 0.1524999999999994416, 0.000000000000000000 ) ) ;
#28 = ORIENTED_EDGE ( 'NONE', *, *, #219, .F. ) ;
#29 =( GEOMETRIC_REPRESENTATION_CONTEXT ( 3 ) GLOBAL_UNCERTAINTY_ASSIGNED_CONTEXT ( ( #85 ) ) GLOBAL_UNIT_ASSIGNED_CONTEXT ( ( #107, #201, #109 ) ) REPRESENTATION_CONTEXT ( 'NONE', 'WORKASPACE' ) );
#30 = DIRECTION ( 'NONE',  ( -1.000000000000000000, -9.106159978880893419E-17, 0.000000000000000000 ) ) ;
#31 = ORIENTED_EDGE ( 'NONE', *, *, #204, .F. ) ;
#32 = DIRECTION ( 'NONE',  ( 1.000000000000000000, -9.508053334657290194E-18, 0.000000000000000000 ) ) ;
#33 = ORIENTED_EDGE ( 'NONE', *, *, #267, .T. ) ;
#34 = MECHANICAL_DESIGN_GEOMETRIC_PRESENTATION_REPRESENTATION (  '', ( #299 ), #60 ) ;
#35 = PRESENTATION_LAYER_ASSIGNMENT (  '', '', ( #41 ) ) ;
#36 = FACE_OUTER_BOUND ( 'NONE', #64, .T. ) ;
#37 = ORIENTED_EDGE ( 'NONE', *, *, #92, .T. ) ;
#38 = EDGE_CURVE ( 'NONE', #131, #6, #231, .T. ) ;
#39 = DIMENSIONAL_EXPONENTS ( 1.000000000000000000, 0.000000000000000000, 0.000000000000000000, 0.000000000000000000, 0.000000000000000000, 0.000000000000000000, 0.000000000000000000 ) ;
#40 = CARTESIAN_POINT ( 'NONE',  ( 6.123233995736772199E-17, 2.500000000000000000, 0.000000000000000000 ) ) ;
#41 = STYLED_ITEM ( 'NONE', ( #79 ), #170 ) ;
#42 = CARTESIAN_POINT ( 'NONE',  ( -0.1874999999999996947, 2.500000000000000000, 0.000000000000000000 ) ) ;
#43 = LINE ( 'NONE', #42, #212 ) ;
#44 = DIRECTION ( 'NONE',  ( 9.508053334657290194E-18, 1.000000000000000000, 0.000000000000000000 ) ) ;
#45 = CLOSED_SHELL ( 'NONE', ( #237, #53, #65, #80 ) ) ;
#46 = FILL_AREA_STYLE ('',( #173 ) ) ;
#47 = PLANE ( 'NONE',  #175 ) ;
#48 =( NAMED_UNIT ( * ) SI_UNIT ( $, .STERADIAN. ) SOLID_ANGLE_UNIT ( ) );
#49 =( LENGTH_UNIT ( ) NAMED_UNIT ( * ) SI_UNIT ( $, .METRE. ) );
#50 = PRESENTATION_STYLE_ASSIGNMENT (( #215 ) ) ;
#51 = CARTESIAN_POINT ( 'NONE',  ( 3.164107737514066853E-36, 3.327818667130051761E-19, 0.000000000000000000 ) ) ;
#52 =( LENGTH_UNIT ( ) NAMED_UNIT ( * ) SI_UNIT ( $, .METRE. ) );
#53 = ADVANCED_FACE ( 'NONE', ( #189 ), #16, .T. ) ;
#54 = VERTEX_POINT ( 'NONE', #211 ) ;
#55 = CIRCLE ( 'NONE', #61, 0.1874999999999999722 ) ;
#56 = CARTESIAN_POINT ( 'NONE',  ( 2.902588493268279793E-16, 0.1524999999999994138, 0.000000000000000000 ) ) ;
#57 = EDGE_LOOP ( 'NONE', ( #94, #228 ) ) ;
#58 = MANIFOLD_SOLID_BREP ( 'Revolve - Cutting Edge', #45 ) ;
#59 = CARTESIAN_POINT ( 'NONE',  ( 0.1874999999999999722, 0.1524999999999995526, 2.296212748401285877E-17 ) ) ;
#60 =( GEOMETRIC_REPRESENTATION_CONTEXT ( 3 ) GLOBAL_UNCERTAINTY_ASSIGNED_CONTEXT ( ( #229 ) ) GLOBAL_UNIT_ASSIGNED_CONTEXT ( ( #77, #101, #220 ) ) REPRESENTATION_CONTEXT ( 'NONE', 'WORKASPACE' ) );
#61 = AXIS2_PLACEMENT_3D ( 'NONE', #130, #244, #288 ) ;
#62 = SURFACE_SIDE_STYLE ('',( #206 ) ) ;
#63 = DIMENSIONAL_EXPONENTS ( 1.000000000000000000, 0.000000000000000000, 0.000000000000000000, 0.000000000000000000, 0.000000000000000000, 0.000000000000000000, 0.000000000000000000 ) ;
#64 = EDGE_LOOP ( 'NONE', ( #28, #298, #253, #137 ) ) ;
#65 = ADVANCED_FACE ( 'NONE', ( #242 ), #93, .T. ) ;
#66 = SURFACE_STYLE_USAGE ( .BOTH. , #62 ) ;
#67 =( CONVERSION_BASED_UNIT ( 'INCH', #18 ) LENGTH_UNIT ( ) NAMED_UNIT ( #301 ) );
#68 = DIRECTION ( 'NONE',  ( 1.000000000000000000, 0.000000000000000000, 0.000000000000000000 ) ) ;
#69 = MECHANICAL_DESIGN_GEOMETRIC_PRESENTATION_REPRESENTATION (  '', ( #105 ), #144 ) ;
#70 = PRODUCT_RELATED_PRODUCT_CATEGORY ( 'part', '', ( #142 ) ) ;
#71 = AXIS2_PLACEMENT_3D ( 'NONE', #76, #179, #264 ) ;
#72 = APPLICATION_CONTEXT ( 'automotive_design' ) ;
#73 =( NAMED_UNIT ( * ) SI_UNIT ( $, .STERADIAN. ) SOLID_ANGLE_UNIT ( ) );
#74 = CARTESIAN_POINT ( 'NONE',  ( 3.164107737514066853E-36, 3.327818667130051761E-19, 0.000000000000000000 ) ) ;
#75 =( CONVERSION_BASED_UNIT ( 'INCH', #281 ) LENGTH_UNIT ( ) NAMED_UNIT ( #119 ) );
#76 = CARTESIAN_POINT ( 'NONE',  ( 6.123233995736772199E-17, 2.500000000000000000, 0.000000000000000000 ) ) ;
#77 =( CONVERSION_BASED_UNIT ( 'INCH', #99 ) LENGTH_UNIT ( ) NAMED_UNIT ( #167 ) );
#78 = DIRECTION ( 'NONE',  ( -0.7071067811865486830, 0.7071067811865462405, 0.000000000000000000 ) ) ;
#79 = PRESENTATION_STYLE_ASSIGNMENT (( #4 ) ) ;
#80 = ADVANCED_FACE ( 'NONE', ( #146 ), #21, .T. ) ;
#81 = AXIS2_PLACEMENT_3D ( 'NONE', #40, #300, #145 ) ;
#82 = UNCERTAINTY_MEASURE_WITH_UNIT (LENGTH_MEASURE( 1.000000000000000082E-05 ), #22, 'distance_accuracy_value', 'NONE');
#83 = SHAPE_DEFINITION_REPRESENTATION ( #274, #295 ) ;
#84 = ORIENTED_EDGE ( 'NONE', *, *, #2, .T. ) ;
#85 = UNCERTAINTY_MEASURE_WITH_UNIT (LENGTH_MEASURE( 1.000000000000000082E-05 ), #107, 'distance_accuracy_value', 'NONE');
#86 = AXIS2_PLACEMENT_3D ( 'NONE', #243, #149, #277 ) ;
#87 = PRESENTATION_LAYER_ASSIGNMENT (  '', '', ( #126 ) ) ;
#88 = AXIS2_PLACEMENT_3D ( 'NONE', #51, #162, #233 ) ;
#89 = EDGE_LOOP ( 'NONE', ( #273, #294 ) ) ;
#90 = DIMENSIONAL_EXPONENTS ( 1.000000000000000000, 0.000000000000000000, 0.000000000000000000, 0.000000000000000000, 0.000000000000000000, 0.000000000000000000, 0.000000000000000000 ) ;
#91 = SURFACE_STYLE_FILL_AREA ( #255 ) ;
#92 = EDGE_CURVE ( 'NONE', #183, #108, #180, .T. ) ;
#93 = CONICAL_SURFACE ( 'NONE', #139, 0.03500000000000000333, 0.7853981633974500554 ) ;
#94 = ORIENTED_EDGE ( 'NONE', *, *, #26, .T. ) ;
#95 = CYLINDRICAL_SURFACE ( 'NONE', #86, 0.1874999999999997780 ) ;
#96 = EDGE_CURVE ( 'NONE', #252, #113, #7, .T. ) ;
#97 = AXIS2_PLACEMENT_3D ( 'NONE', #23, #218, #124 ) ;
#98 =( NAMED_UNIT ( * ) PLANE_ANGLE_UNIT ( ) SI_UNIT ( $, .RADIAN. ) );
#99 = LENGTH_MEASURE_WITH_UNIT ( LENGTH_MEASURE( 0.02539999999999999897 ), #52 );
#100 = COLOUR_RGB ( '',0.7921568627450980005, 0.8196078431372548767, 0.9333333333333333481 ) ;
#101 =( NAMED_UNIT ( * ) PLANE_ANGLE_UNIT ( ) SI_UNIT ( $, .RADIAN. ) );
#102 = CARTESIAN_POINT ( 'NONE',  ( 0.1874999999999999722, 2.500000000000000000, 0.000000000000000000 ) ) ;
#103 = FILL_AREA_STYLE_COLOUR ( '', #100 ) ;
#104 = ORIENTED_EDGE ( 'NONE', *, *, #190, .F. ) ;
#105 = STYLED_ITEM ( 'NONE', ( #171 ), #53 ) ;
#106 = ORIENTED_EDGE ( 'NONE', *, *, #190, .T. ) ;
#107 =( CONVERSION_BASED_UNIT ( 'INCH', #5 ) LENGTH_UNIT ( ) NAMED_UNIT ( #63 ) );
#108 = VERTEX_POINT ( 'NONE', #226 ) ;
#109 =( NAMED_UNIT ( * ) SI_UNIT ( $, .STERADIAN. ) SOLID_ANGLE_UNIT ( ) );
#110 = CARTESIAN_POINT ( 'NONE',  ( 0.000000000000000000, 0.000000000000000000, 0.000000000000000000 ) ) ;
#111 = COLOUR_RGB ( '',0.7921568627450980005, 0.8196078431372548767, 0.9333333333333333481 ) ;
#112 = CARTESIAN_POINT ( 'NONE',  ( 0.1874999999999998335, 2.500000000000000000, 2.296212748401284644E-17 ) ) ;
#113 = VERTEX_POINT ( 'NONE', #27 ) ;
#114 = APPLICATION_CONTEXT ( 'automotive_design' ) ;
#115 = DIRECTION ( 'NONE',  ( -9.508053334657290194E-18, -1.000000000000000000, -0.000000000000000000 ) ) ;
#116 = CIRCLE ( 'NONE', #297, 0.03500000000000000333 ) ;
#117 = AXIS2_PLACEMENT_3D ( 'NONE', #250, #251, #30 ) ;
#118 = FILL_AREA_STYLE_COLOUR ( '', #293 ) ;
#119 = DIMENSIONAL_EXPONENTS ( 1.000000000000000000, 0.000000000000000000, 0.000000000000000000, 0.000000000000000000, 0.000000000000000000, 0.000000000000000000, 0.000000000000000000 ) ;
#120 = DIRECTION ( 'NONE',  ( 9.508053334657290194E-18, 1.000000000000000000, 0.000000000000000000 ) ) ;
#121 = FILL_AREA_STYLE_COLOUR ( '', #307 ) ;
#122 =( LENGTH_UNIT ( ) NAMED_UNIT ( * ) SI_UNIT ( $, .METRE. ) );
#123 =( LENGTH_UNIT ( ) NAMED_UNIT ( * ) SI_UNIT ( $, .METRE. ) );
#124 = DIRECTION ( 'NONE',  ( -1.000000000000000000, 0.000000000000000000, 0.000000000000000000 ) ) ;
#125 = FACE_OUTER_BOUND ( 'NONE', #275, .T. ) ;
#126 = STYLED_ITEM ( 'NONE', ( #140 ), #58 ) ;
#127 = UNCERTAINTY_MEASURE_WITH_UNIT (LENGTH_MEASURE( 1.000000000000000082E-05 ), #75, 'distance_accuracy_value', 'NONE');
#128 = ORIENTED_EDGE ( 'NONE', *, *, #26, .F. ) ;
#129 =( GEOMETRIC_REPRESENTATION_CONTEXT ( 3 ) GLOBAL_UNCERTAINTY_ASSIGNED_CONTEXT ( ( #127 ) ) GLOBAL_UNIT_ASSIGNED_CONTEXT ( ( #75, #216, #73 ) ) REPRESENTATION_CONTEXT ( 'NONE', 'WORKASPACE' ) );
#130 = CARTESIAN_POINT ( 'NONE',  ( 1.449978133535231439E-18, 0.1524999999999994416, 0.000000000000000000 ) ) ;
#131 = VERTEX_POINT ( 'NONE', #182 ) ;
#132 = VECTOR ( 'NONE', #78, 39.37007874015748854 ) ;
#133 = AXIS2_PLACEMENT_3D ( 'NONE', #56, #265, #185 ) ;
#134 = PRODUCT_DEFINITION ( 'UNKNOWN', '', #248, #20 ) ;
#135 = UNCERTAINTY_MEASURE_WITH_UNIT (LENGTH_MEASURE( 1.000000000000000082E-05 ), #213, 'distance_accuracy_value', 'NONE');
#136 = SURFACE_STYLE_FILL_AREA ( #24 ) ;
#137 = ORIENTED_EDGE ( 'NONE', *, *, #96, .F. ) ;
#138 =( LENGTH_UNIT ( ) NAMED_UNIT ( * ) SI_UNIT ( $, .METRE. ) );
#139 = AXIS2_PLACEMENT_3D ( 'NONE', #74, #44, #194 ) ;
#140 = PRESENTATION_STYLE_ASSIGNMENT (( #304 ) ) ;
#141 = LENGTH_MEASURE_WITH_UNIT ( LENGTH_MEASURE( 0.02539999999999999897 ), #168 );
#142 = PRODUCT ( '07009', '07009', '', ( #271 ) ) ;
#143 = CARTESIAN_POINT ( 'NONE',  ( 0.1874999999999999445, 0.1524999999999994416, 2.296212748401286493E-17 ) ) ;
#144 =( GEOMETRIC_REPRESENTATION_CONTEXT ( 3 ) GLOBAL_UNCERTAINTY_ASSIGNED_CONTEXT ( ( #9 ) ) GLOBAL_UNIT_ASSIGNED_CONTEXT ( ( #230, #234, #296 ) ) REPRESENTATION_CONTEXT ( 'NONE', 'WORKASPACE' ) );
#145 = DIRECTION ( 'NONE',  ( -1.000000000000000000, 0.000000000000000000, 0.000000000000000000 ) ) ;
#146 = FACE_OUTER_BOUND ( 'NONE', #89, .T. ) ;
#147 = AXIS2_PLACEMENT_3D ( 'NONE', #110, #292, #157 ) ;
#148 = MECHANICAL_DESIGN_GEOMETRIC_PRESENTATION_REPRESENTATION (  '', ( #203 ), #188 ) ;
#149 = DIRECTION ( 'NONE',  ( -9.756187832564866575E-17, 1.000000000000000000, -0.000000000000000000 ) ) ;
#150 =( NAMED_UNIT ( * ) SI_UNIT ( $, .STERADIAN. ) SOLID_ANGLE_UNIT ( ) );
#151 = CARTESIAN_POINT ( 'NONE',  ( 3.164107737514066853E-36, 3.327818667130051761E-19, 0.000000000000000000 ) ) ;
#152 =( LENGTH_UNIT ( ) NAMED_UNIT ( * ) SI_UNIT ( $, .METRE. ) );
#153 = APPLICATION_PROTOCOL_DEFINITION ( 'draft international standard', 'automotive_design', 1998, #114 ) ;
#154 =( GEOMETRIC_REPRESENTATION_CONTEXT ( 3 ) GLOBAL_UNCERTAINTY_ASSIGNED_CONTEXT ( ( #82 ) ) GLOBAL_UNIT_ASSIGNED_CONTEXT ( ( #22, #198, #150 ) ) REPRESENTATION_CONTEXT ( 'NONE', 'WORKASPACE' ) );
#155 = EDGE_CURVE ( 'NONE', #6, #113, #55, .T. ) ;
#156 = SURFACE_STYLE_FILL_AREA ( #239 ) ;
#157 = DIRECTION ( 'NONE',  ( 1.000000000000000000, 0.000000000000000000, 0.000000000000000000 ) ) ;
#158 = EDGE_LOOP ( 'NONE', ( #106, #181, #128, #246 ) ) ;
#159 = COLOUR_RGB ( '',1.000000000000000000, 0.000000000000000000, 0.000000000000000000 ) ;
#160 = FACE_OUTER_BOUND ( 'NONE', #270, .T. ) ;
#161 = EDGE_LOOP ( 'NONE', ( #165, #166 ) ) ;
#162 = DIRECTION ( 'NONE',  ( -9.508053334657290194E-18, -1.000000000000000000, -0.000000000000000000 ) ) ;
#163 = FILL_AREA_STYLE_COLOUR ( '', #111 ) ;
#164 = DIMENSIONAL_EXPONENTS ( 1.000000000000000000, 0.000000000000000000, 0.000000000000000000, 0.000000000000000000, 0.000000000000000000, 0.000000000000000000, 0.000000000000000000 ) ;
#165 = ORIENTED_EDGE ( 'NONE', *, *, #267, .F. ) ;
#166 = ORIENTED_EDGE ( 'NONE', *, *, #155, .F. ) ;
#167 = DIMENSIONAL_EXPONENTS ( 1.000000000000000000, 0.000000000000000000, 0.000000000000000000, 0.000000000000000000, 0.000000000000000000, 0.000000000000000000, 0.000000000000000000 ) ;
#168 =( LENGTH_UNIT ( ) NAMED_UNIT ( * ) SI_UNIT ( $, .METRE. ) );
#169 = VECTOR ( 'NONE', #15, 39.37007874015748854 ) ;
#170 = MANIFOLD_SOLID_BREP ( 'Revolve - Tool Body (Tipped Off)', #278 ) ;
#171 = PRESENTATION_STYLE_ASSIGNMENT (( #66 ) ) ;
#172 = ADVANCED_FACE ( 'NONE', ( #160 ), #268, .F. ) ;
#173 = FILL_AREA_STYLE_COLOUR ( '', #159 ) ;
#174 = CYLINDRICAL_SURFACE ( 'NONE', #97, 0.1874999999999997780 ) ;
#175 = AXIS2_PLACEMENT_3D ( 'NONE', #102, #197, #309 ) ;
#176 = PRESENTATION_LAYER_ASSIGNMENT (  '', '', ( #299 ) ) ;
#177 = SURFACE_STYLE_FILL_AREA ( #46 ) ;
#178 = DIRECTION ( 'NONE',  ( 9.508053334657290194E-18, 1.000000000000000000, 0.000000000000000000 ) ) ;
#179 = DIRECTION ( 'NONE',  ( -9.756187832564866575E-17, 1.000000000000000000, -0.000000000000000000 ) ) ;
#180 = CIRCLE ( 'NONE', #286, 0.1874999999999996669 ) ;
#181 = ORIENTED_EDGE ( 'NONE', *, *, #204, .T. ) ;
#182 = CARTESIAN_POINT ( 'NONE',  ( 0.03500000000000000333, 0.000000000000000000, 1.362419564051430200E-17 ) ) ;
#183 = VERTEX_POINT ( 'NONE', #59 ) ;
#184 = AXIS2_PLACEMENT_3D ( 'NONE', #238, #287, #32 ) ;
#185 = DIRECTION ( 'NONE',  ( -1.000000000000000000, -9.756187832564867807E-17, 0.000000000000000000 ) ) ;
#186 = EDGE_LOOP ( 'NONE', ( #221, #202, #25, #33 ) ) ;
#187 = CONICAL_SURFACE ( 'NONE', #207, 0.03500000000000000333, 0.7853981633974500554 ) ;
#188 =( GEOMETRIC_REPRESENTATION_CONTEXT ( 3 ) GLOBAL_UNCERTAINTY_ASSIGNED_CONTEXT ( ( #205 ) ) GLOBAL_UNIT_ASSIGNED_CONTEXT ( ( #67, #98, #261 ) ) REPRESENTATION_CONTEXT ( 'NONE', 'WORKASPACE' ) );
#189 = FACE_OUTER_BOUND ( 'NONE', #161, .T. ) ;
#190 = EDGE_CURVE ( 'NONE', #108, #183, #210, .T. ) ;
#191 = CARTESIAN_POINT ( 'NONE',  ( 0.03500000000000000333, 0.000000000000000000, 4.286263797015735979E-18 ) ) ;
#192 = CARTESIAN_POINT ( 'NONE',  ( 1.449978133535231054E-18, 0.1524999999999994416, 0.000000000000000000 ) ) ;
#193 = DIRECTION ( 'NONE',  ( 1.000000000000000000, -9.508053334657290194E-18, 0.000000000000000000 ) ) ;
#194 = DIRECTION ( 'NONE',  ( -1.000000000000000000, 9.508053334657290194E-18, 0.000000000000000000 ) ) ;
#195 = CARTESIAN_POINT ( 'NONE',  ( -0.03500000000000000333, 6.655637334260103521E-19, 0.000000000000000000 ) ) ;
#196 =( GEOMETRIC_REPRESENTATION_CONTEXT ( 3 ) GLOBAL_UNCERTAINTY_ASSIGNED_CONTEXT ( ( #135 ) ) GLOBAL_UNIT_ASSIGNED_CONTEXT ( ( #213, #280, #48 ) ) REPRESENTATION_CONTEXT ( 'NONE', 'WORKASPACE' ) );
#197 = DIRECTION ( 'NONE',  ( 9.756187832564867807E-17, -1.000000000000000000, 0.000000000000000000 ) ) ;
#198 =( NAMED_UNIT ( * ) PLANE_ANGLE_UNIT ( ) SI_UNIT ( $, .RADIAN. ) );
#199 = SURFACE_SIDE_STYLE ('',( #263 ) ) ;
#200 = CARTESIAN_POINT ( 'NONE',  ( 2.902588493268280286E-16, 0.1524999999999995248, 0.000000000000000000 ) ) ;
#201 =( NAMED_UNIT ( * ) PLANE_ANGLE_UNIT ( ) SI_UNIT ( $, .RADIAN. ) );
#202 = ORIENTED_EDGE ( 'NONE', *, *, #13, .F. ) ;
#203 = STYLED_ITEM ( 'NONE', ( #50 ), #65 ) ;
#204 = EDGE_CURVE ( 'NONE', #183, #54, #8, .T. ) ;
#205 = UNCERTAINTY_MEASURE_WITH_UNIT (LENGTH_MEASURE( 1.000000000000000082E-05 ), #67, 'distance_accuracy_value', 'NONE');
#206 = SURFACE_STYLE_FILL_AREA ( #208 ) ;
#207 = AXIS2_PLACEMENT_3D ( 'NONE', #151, #178, #283 ) ;
#208 = FILL_AREA_STYLE ('',( #118 ) ) ;
#209 = MECHANICAL_DESIGN_GEOMETRIC_PRESENTATION_REPRESENTATION (  '', ( #305 ), #196 ) ;
#210 = CIRCLE ( 'NONE', #117, 0.1874999999999996669 ) ;
#211 = CARTESIAN_POINT ( 'NONE',  ( 0.1874999999999999722, 2.500000000000000000, 2.296212748401285877E-17 ) ) ;
#212 = VECTOR ( 'NONE', #10, 39.37007874015748143 ) ;
#213 =( CONVERSION_BASED_UNIT ( 'INCH', #235 ) LENGTH_UNIT ( ) NAMED_UNIT ( #164 ) );
#214 = EDGE_CURVE ( 'NONE', #54, #1, #279, .T. ) ;
#215 = SURFACE_STYLE_USAGE ( .BOTH. , #199 ) ;
#216 =( NAMED_UNIT ( * ) PLANE_ANGLE_UNIT ( ) SI_UNIT ( $, .RADIAN. ) );
#217 = MECHANICAL_DESIGN_GEOMETRIC_PRESENTATION_REPRESENTATION (  '', ( #41 ), #29 ) ;
#218 = DIRECTION ( 'NONE',  ( -9.756187832564866575E-17, 1.000000000000000000, -0.000000000000000000 ) ) ;
#219 = EDGE_CURVE ( 'NONE', #131, #252, #223, .T. ) ;
#220 =( NAMED_UNIT ( * ) SI_UNIT ( $, .STERADIAN. ) SOLID_ANGLE_UNIT ( ) );
#221 = ORIENTED_EDGE ( 'NONE', *, *, #38, .F. ) ;
#222 = SURFACE_SIDE_STYLE ('',( #136 ) ) ;
#223 = CIRCLE ( 'NONE', #88, 0.03500000000000000333 ) ;
#224 = ORIENTED_EDGE ( 'NONE', *, *, #214, .F. ) ;
#225 = DIRECTION ( 'NONE',  ( -1.000000000000000000, -9.106159978880893419E-17, 0.000000000000000000 ) ) ;
#226 = CARTESIAN_POINT ( 'NONE',  ( -0.1874999999999993616, 0.1524999999999995248, 0.000000000000000000 ) ) ;
#227 = AXIS2_PLACEMENT_3D ( 'NONE', #192, #120, #254 ) ;
#228 = ORIENTED_EDGE ( 'NONE', *, *, #214, .T. ) ;
#229 = UNCERTAINTY_MEASURE_WITH_UNIT (LENGTH_MEASURE( 1.000000000000000082E-05 ), #77, 'distance_accuracy_value', 'NONE');
#230 =( CONVERSION_BASED_UNIT ( 'INCH', #141 ) LENGTH_UNIT ( ) NAMED_UNIT ( #90 ) );
#231 = LINE ( 'NONE', #191, #169 ) ;
#232 = PRESENTATION_LAYER_ASSIGNMENT (  '', '', ( #305 ) ) ;
#233 = DIRECTION ( 'NONE',  ( 1.000000000000000000, -9.508053334657290194E-18, 0.000000000000000000 ) ) ;
#234 =( NAMED_UNIT ( * ) PLANE_ANGLE_UNIT ( ) SI_UNIT ( $, .RADIAN. ) );
#235 = LENGTH_MEASURE_WITH_UNIT ( LENGTH_MEASURE( 0.02539999999999999897 ), #123 );
#236 = SURFACE_SIDE_STYLE ('',( #156 ) ) ;
#237 = ADVANCED_FACE ( 'NONE', ( #36 ), #187, .T. ) ;
#238 = CARTESIAN_POINT ( 'NONE',  ( 1.582053868757033426E-36, 1.663909333565025880E-19, 0.000000000000000000 ) ) ;
#239 = FILL_AREA_STYLE ('',( #11 ) ) ;
#240 = DIRECTION ( 'NONE',  ( -9.508053334657290194E-18, -1.000000000000000000, -0.000000000000000000 ) ) ;
#241 = PRESENTATION_LAYER_ASSIGNMENT (  '', '', ( #105 ) ) ;
#242 = FACE_OUTER_BOUND ( 'NONE', #186, .T. ) ;
#243 = CARTESIAN_POINT ( 'NONE',  ( 6.123233995736772199E-17, 2.500000000000000000, 0.000000000000000000 ) ) ;
#244 = DIRECTION ( 'NONE',  ( -9.508053334657290194E-18, -1.000000000000000000, -0.000000000000000000 ) ) ;
#245 = SURFACE_STYLE_USAGE ( .BOTH. , #236 ) ;
#246 = ORIENTED_EDGE ( 'NONE', *, *, #2, .F. ) ;
#247 = CARTESIAN_POINT ( 'NONE',  ( -0.03500000000000000333, 6.655637334260103521E-19, 0.000000000000000000 ) ) ;
#248 = PRODUCT_DEFINITION_FORMATION_WITH_SPECIFIED_SOURCE ( 'ANY', '', #142, .NOT_KNOWN. ) ;
#249 = VECTOR ( 'NONE', #284, 39.37007874015748143 ) ;
#250 = CARTESIAN_POINT ( 'NONE',  ( 2.902588493268280286E-16, 0.1524999999999995248, 0.000000000000000000 ) ) ;
#251 = DIRECTION ( 'NONE',  ( -9.756187832564866575E-17, 1.000000000000000000, -0.000000000000000000 ) ) ;
#252 = VERTEX_POINT ( 'NONE', #195 ) ;
#253 = ORIENTED_EDGE ( 'NONE', *, *, #155, .T. ) ;
#254 = DIRECTION ( 'NONE',  ( -1.000000000000000000, 9.508053334657290194E-18, 0.000000000000000000 ) ) ;
#255 = FILL_AREA_STYLE ('',( #163 ) ) ;
#256 = AXIS2_PLACEMENT_3D ( 'NONE', #285, #240, #68 ) ;
#257 = PRESENTATION_STYLE_ASSIGNMENT (( #245 ) ) ;
#258 = ADVANCED_FACE ( 'NONE', ( #125 ), #95, .T. ) ;
#259 = COLOUR_RGB ( '',1.000000000000000000, 0.000000000000000000, 0.000000000000000000 ) ;
#260 = FACE_OUTER_BOUND ( 'NONE', #158, .T. ) ;
#261 =( NAMED_UNIT ( * ) SI_UNIT ( $, .STERADIAN. ) SOLID_ANGLE_UNIT ( ) );
#262 = FACE_OUTER_BOUND ( 'NONE', #57, .T. ) ;
#263 = SURFACE_STYLE_FILL_AREA ( #282 ) ;
#264 = DIRECTION ( 'NONE',  ( -1.000000000000000000, 0.000000000000000000, 0.000000000000000000 ) ) ;
#265 = DIRECTION ( 'NONE',  ( -9.756187832564867807E-17, 1.000000000000000000, 0.000000000000000000 ) ) ;
#266 = CIRCLE ( 'NONE', #256, 0.1874999999999999722 ) ;
#267 = EDGE_CURVE ( 'NONE', #113, #6, #266, .T. ) ;
#268 = PLANE ( 'NONE',  #133 ) ;
#269 = CIRCLE ( 'NONE', #81, 0.1874999999999999167 ) ;
#270 = EDGE_LOOP ( 'NONE', ( #104, #272 ) ) ;
#271 = PRODUCT_CONTEXT ( 'NONE', #114, 'mechanical' ) ;
#272 = ORIENTED_EDGE ( 'NONE', *, *, #92, .F. ) ;
#273 = ORIENTED_EDGE ( 'NONE', *, *, #13, .T. ) ;
#274 = PRODUCT_DEFINITION_SHAPE ( 'NONE', 'NONE',  #134 ) ;
#275 = EDGE_LOOP ( 'NONE', ( #31, #37, #84, #224 ) ) ;
#276 = SURFACE_STYLE_USAGE ( .BOTH. , #19 ) ;
#277 = DIRECTION ( 'NONE',  ( -1.000000000000000000, 0.000000000000000000, 0.000000000000000000 ) ) ;
#278 = CLOSED_SHELL ( 'NONE', ( #303, #172, #258, #289 ) ) ;
#279 = CIRCLE ( 'NONE', #71, 0.1874999999999999167 ) ;
#280 =( NAMED_UNIT ( * ) PLANE_ANGLE_UNIT ( ) SI_UNIT ( $, .RADIAN. ) );
#281 = LENGTH_MEASURE_WITH_UNIT ( LENGTH_MEASURE( 0.02539999999999999897 ), #49 );
#282 = FILL_AREA_STYLE ('',( #121 ) ) ;
#283 = DIRECTION ( 'NONE',  ( -1.000000000000000000, 9.508053334657290194E-18, 0.000000000000000000 ) ) ;
#284 = DIRECTION ( 'NONE',  ( -9.756187832564867807E-17, 1.000000000000000000, -0.000000000000000000 ) ) ;
#285 = CARTESIAN_POINT ( 'NONE',  ( 1.449978133535231439E-18, 0.1524999999999994416, 0.000000000000000000 ) ) ;
#286 = AXIS2_PLACEMENT_3D ( 'NONE', #200, #291, #225 ) ;
#287 = DIRECTION ( 'NONE',  ( -9.508053334657290194E-18, -1.000000000000000000, 0.000000000000000000 ) ) ;
#288 = DIRECTION ( 'NONE',  ( 1.000000000000000000, 0.000000000000000000, 0.000000000000000000 ) ) ;
#289 = ADVANCED_FACE ( 'NONE', ( #262 ), #47, .F. ) ;
#290 = APPLICATION_PROTOCOL_DEFINITION ( 'draft international standard', 'automotive_design', 1998, #72 ) ;
#291 = DIRECTION ( 'NONE',  ( -9.756187832564866575E-17, 1.000000000000000000, -0.000000000000000000 ) ) ;
#292 = DIRECTION ( 'NONE',  ( 0.000000000000000000, 0.000000000000000000, 1.000000000000000000 ) ) ;
#293 = COLOUR_RGB ( '',1.000000000000000000, 0.000000000000000000, 0.000000000000000000 ) ;
#294 = ORIENTED_EDGE ( 'NONE', *, *, #219, .T. ) ;
#295 = ADVANCED_BREP_SHAPE_REPRESENTATION ( '07009', ( #58, #170, #147 ), #129 ) ;
#296 =( NAMED_UNIT ( * ) SI_UNIT ( $, .STERADIAN. ) SOLID_ANGLE_UNIT ( ) );
#297 = AXIS2_PLACEMENT_3D ( 'NONE', #302, #115, #193 ) ;
#298 = ORIENTED_EDGE ( 'NONE', *, *, #38, .T. ) ;
#299 = STYLED_ITEM ( 'NONE', ( #257 ), #237 ) ;
#300 = DIRECTION ( 'NONE',  ( -9.756187832564866575E-17, 1.000000000000000000, -0.000000000000000000 ) ) ;
#301 = DIMENSIONAL_EXPONENTS ( 1.000000000000000000, 0.000000000000000000, 0.000000000000000000, 0.000000000000000000, 0.000000000000000000, 0.000000000000000000, 0.000000000000000000 ) ;
#302 = CARTESIAN_POINT ( 'NONE',  ( 3.164107737514066853E-36, 3.327818667130051761E-19, 0.000000000000000000 ) ) ;
#303 = ADVANCED_FACE ( 'NONE', ( #260 ), #174, .T. ) ;
#304 = SURFACE_STYLE_USAGE ( .BOTH. , #17 ) ;
#305 = STYLED_ITEM ( 'NONE', ( #306 ), #80 ) ;
#306 = PRESENTATION_STYLE_ASSIGNMENT (( #276 ) ) ;
#307 = COLOUR_RGB ( '',1.000000000000000000, 0.000000000000000000, 0.000000000000000000 ) ;
#308 = LENGTH_MEASURE_WITH_UNIT ( LENGTH_MEASURE( 0.02539999999999999897 ), #152 );
#309 = DIRECTION ( 'NONE',  ( 1.000000000000000000, 9.756187832564867807E-17, 0.000000000000000000 ) ) ;
ENDSEC;
END-ISO-10303-21;
