ISO-10303-21;
HEADER;
FILE_DESCRIPTION (( 'STEP AP214' ),
    '1' );
FILE_NAME ('44017.STEP',
    '2023-06-22T19:12:35',
    ( '' ),
    ( '' ),
    'SwSTEP 2.0',
    'SolidWorks 2023',
    '' );
FILE_SCHEMA (( 'AUTOMOTIVE_DESIGN' ));
ENDSEC;

DATA;
#1 = LENGTH_MEASURE_WITH_UNIT ( LENGTH_MEASURE( 0.02539999999999999897 ), #264 );
#2 = ORIENTED_EDGE ( 'NONE', *, *, #203, .T. ) ;
#3 = CARTESIAN_POINT ( 'NONE',  ( 7.654042494670959086E-18, 0.000000000000000000, 0.06250000000000001388 ) ) ;
#4 = ADVANCED_BREP_SHAPE_REPRESENTATION ( '44017', ( #118, #229, #244 ), #52 ) ;
#5 = EDGE_CURVE ( 'NONE', #86, #139, #233, .T. ) ;
#6 = FILL_AREA_STYLE_COLOUR ( '', #249 ) ;
#7 =( NAMED_UNIT ( * ) SI_UNIT ( $, .STERADIAN. ) SOLID_ANGLE_UNIT ( ) );
#8 = CARTESIAN_POINT ( 'NONE',  ( 0.06250000000000034694, 1.499999999999999778, 7.654042494670917485E-18 ) ) ;
#9 = ADVANCED_FACE ( 'NONE', ( #95 ), #102, .T. ) ;
#10 = FILL_AREA_STYLE ('',( #225 ) ) ;
#11 =( CONVERSION_BASED_UNIT ( 'INCH', #106 ) LENGTH_UNIT ( ) NAMED_UNIT ( #77 ) );
#12 =( NAMED_UNIT ( * ) PLANE_ANGLE_UNIT ( ) SI_UNIT ( $, .RADIAN. ) );
#13 = CYLINDRICAL_SURFACE ( 'NONE', #256, 0.06250000000000001388 ) ;
#14 = DIRECTION ( 'NONE',  ( -0.000000000000000000, -1.000000000000000000, -0.000000000000000000 ) ) ;
#15 = LINE ( 'NONE', #78, #151 ) ;
#16 = CIRCLE ( 'NONE', #291, 0.06249999999999934081 ) ;
#17 = SURFACE_STYLE_USAGE ( .BOTH. , #44 ) ;
#18 =( LENGTH_UNIT ( ) NAMED_UNIT ( * ) SI_UNIT ( $, .METRE. ) );
#19 = EDGE_LOOP ( 'NONE', ( #302, #68 ) ) ;
#20 = DIRECTION ( 'NONE',  ( 5.388445916248354013E-16, 1.000000000000000000, -0.000000000000000000 ) ) ;
#21 = CARTESIAN_POINT ( 'NONE',  ( 6.735557395310442023E-16, 1.499999999999999778, 0.000000000000000000 ) ) ;
#22 = ADVANCED_FACE ( 'NONE', ( #247 ), #276, .T. ) ;
#23 = COLOUR_RGB ( '',1.000000000000000000, 0.000000000000000000, 0.000000000000000000 ) ;
#24 = CYLINDRICAL_SURFACE ( 'NONE', #217, 0.06250000000000001388 ) ;
#25 =( NAMED_UNIT ( * ) SI_UNIT ( $, .STERADIAN. ) SOLID_ANGLE_UNIT ( ) );
#26 = EDGE_CURVE ( 'NONE', #268, #99, #125, .T. ) ;
#27 = PRESENTATION_STYLE_ASSIGNMENT (( #187 ) ) ;
#28 =( GEOMETRIC_REPRESENTATION_CONTEXT ( 3 ) GLOBAL_UNCERTAINTY_ASSIGNED_CONTEXT ( ( #189 ) ) GLOBAL_UNIT_ASSIGNED_CONTEXT ( ( #11, #81, #60 ) ) REPRESENTATION_CONTEXT ( 'NONE', 'WORKASPACE' ) );
#29 = CARTESIAN_POINT ( 'NONE',  ( -0.06250000000000001388, 0.2499999999999998335, 0.000000000000000000 ) ) ;
#30 = FILL_AREA_STYLE ('',( #70 ) ) ;
#31 = STYLED_ITEM ( 'NONE', ( #278 ), #9 ) ;
#32 = AXIS2_PLACEMENT_3D ( 'NONE', #21, #235, #108 ) ;
#33 = SURFACE_STYLE_FILL_AREA ( #30 ) ;
#34 = DIRECTION ( 'NONE',  ( 5.388445916248354013E-16, 1.000000000000000000, -0.000000000000000000 ) ) ;
#35 = FACE_OUTER_BOUND ( 'NONE', #273, .T. ) ;
#36 = PRODUCT ( '44017', '44017', '', ( #116 ) ) ;
#37 = DIRECTION ( 'NONE',  ( -1.000000000000000000, 0.000000000000000000, 0.000000000000000000 ) ) ;
#38 = FILL_AREA_STYLE_COLOUR ( '', #215 ) ;
#39 = FACE_OUTER_BOUND ( 'NONE', #184, .T. ) ;
#40 =( NAMED_UNIT ( * ) PLANE_ANGLE_UNIT ( ) SI_UNIT ( $, .RADIAN. ) );
#41 = CIRCLE ( 'NONE', #155, 0.06250000000000001388 ) ;
#42 = EDGE_LOOP ( 'NONE', ( #2, #236, #166, #190 ) ) ;
#43 = SURFACE_STYLE_FILL_AREA ( #132 ) ;
#44 = SURFACE_SIDE_STYLE ('',( #252 ) ) ;
#45 =( GEOMETRIC_REPRESENTATION_CONTEXT ( 3 ) GLOBAL_UNCERTAINTY_ASSIGNED_CONTEXT ( ( #279 ) ) GLOBAL_UNIT_ASSIGNED_CONTEXT ( ( #200, #12, #101 ) ) REPRESENTATION_CONTEXT ( 'NONE', 'WORKASPACE' ) );
#46 = DIRECTION ( 'NONE',  ( -5.388445916248354013E-16, -1.000000000000000000, 0.000000000000000000 ) ) ;
#47 = FILL_AREA_STYLE_COLOUR ( '', #76 ) ;
#48 = CARTESIAN_POINT ( 'NONE',  ( 7.654042494670959086E-18, 0.000000000000000000, 0.06250000000000001388 ) ) ;
#49 = DIRECTION ( 'NONE',  ( 1.000000000000000000, 0.000000000000000000, 0.000000000000000000 ) ) ;
#50 = VERTEX_POINT ( 'NONE', #219 ) ;
#51 = ORIENTED_EDGE ( 'NONE', *, *, #269, .F. ) ;
#52 =( GEOMETRIC_REPRESENTATION_CONTEXT ( 3 ) GLOBAL_UNCERTAINTY_ASSIGNED_CONTEXT ( ( #294 ) ) GLOBAL_UNIT_ASSIGNED_CONTEXT ( ( #112, #67, #209 ) ) REPRESENTATION_CONTEXT ( 'NONE', 'WORKASPACE' ) );
#53 = AXIS2_PLACEMENT_3D ( 'NONE', #66, #159, #306 ) ;
#54 = DIRECTION ( 'NONE',  ( 5.388445916248354013E-16, 1.000000000000000000, -0.000000000000000000 ) ) ;
#55 = DIMENSIONAL_EXPONENTS ( 1.000000000000000000, 0.000000000000000000, 0.000000000000000000, 0.000000000000000000, 0.000000000000000000, 0.000000000000000000, 0.000000000000000000 ) ;
#56 = LINE ( 'NONE', #220, #75 ) ;
#57 =( NAMED_UNIT ( * ) SI_UNIT ( $, .STERADIAN. ) SOLID_ANGLE_UNIT ( ) );
#58 = CARTESIAN_POINT ( 'NONE',  ( 0.000000000000000000, 0.000000000000000000, -0.06250000000000001388 ) ) ;
#59 = CARTESIAN_POINT ( 'NONE',  ( 0.000000000000000000, 0.000000000000000000, 0.000000000000000000 ) ) ;
#60 =( NAMED_UNIT ( * ) SI_UNIT ( $, .STERADIAN. ) SOLID_ANGLE_UNIT ( ) );
#61 = FACE_OUTER_BOUND ( 'NONE', #42, .T. ) ;
#62 = STYLED_ITEM ( 'NONE', ( #153 ), #246 ) ;
#63 = ORIENTED_EDGE ( 'NONE', *, *, #26, .T. ) ;
#64 = DIMENSIONAL_EXPONENTS ( 1.000000000000000000, 0.000000000000000000, 0.000000000000000000, 0.000000000000000000, 0.000000000000000000, 0.000000000000000000, 0.000000000000000000 ) ;
#65 = APPLICATION_CONTEXT ( 'automotive_design' ) ;
#66 = CARTESIAN_POINT ( 'NONE',  ( 0.000000000000000000, 0.000000000000000000, 0.000000000000000000 ) ) ;
#67 =( NAMED_UNIT ( * ) PLANE_ANGLE_UNIT ( ) SI_UNIT ( $, .RADIAN. ) );
#68 = ORIENTED_EDGE ( 'NONE', *, *, #164, .T. ) ;
#69 = ORIENTED_EDGE ( 'NONE', *, *, #26, .F. ) ;
#70 = FILL_AREA_STYLE_COLOUR ( '', #23 ) ;
#71 = EDGE_CURVE ( 'NONE', #238, #88, #15, .T. ) ;
#72 = DIRECTION ( 'NONE',  ( -0.000000000000000000, -1.000000000000000000, -0.000000000000000000 ) ) ;
#73 = CARTESIAN_POINT ( 'NONE',  ( 0.000000000000000000, 0.2499999999999998057, 0.000000000000000000 ) ) ;
#74 = EDGE_CURVE ( 'NONE', #50, #86, #56, .T. ) ;
#75 = VECTOR ( 'NONE', #248, 39.37007874015748143 ) ;
#76 = COLOUR_RGB ( '',1.000000000000000000, 0.000000000000000000, 0.000000000000000000 ) ;
#77 = DIMENSIONAL_EXPONENTS ( 1.000000000000000000, 0.000000000000000000, 0.000000000000000000, 0.000000000000000000, 0.000000000000000000, 0.000000000000000000, 0.000000000000000000 ) ;
#78 = CARTESIAN_POINT ( 'NONE',  ( -0.06249999999999900080, 1.499999999999999778, 0.000000000000000000 ) ) ;
#79 = CARTESIAN_POINT ( 'NONE',  ( 0.000000000000000000, 0.2499999999999998057, 0.000000000000000000 ) ) ;
#80 = ORIENTED_EDGE ( 'NONE', *, *, #115, .T. ) ;
#81 =( NAMED_UNIT ( * ) PLANE_ANGLE_UNIT ( ) SI_UNIT ( $, .RADIAN. ) );
#82 = CIRCLE ( 'NONE', #32, 0.06249999999999934081 ) ;
#83 = PRODUCT_RELATED_PRODUCT_CATEGORY ( 'part', '', ( #36 ) ) ;
#84 = DIRECTION ( 'NONE',  ( -0.000000000000000000, -1.000000000000000000, -0.000000000000000000 ) ) ;
#85 = PRESENTATION_LAYER_ASSIGNMENT (  '', '', ( #228 ) ) ;
#86 = VERTEX_POINT ( 'NONE', #58 ) ;
#87 =( CONVERSION_BASED_UNIT ( 'INCH', #1 ) LENGTH_UNIT ( ) NAMED_UNIT ( #223 ) );
#88 = VERTEX_POINT ( 'NONE', #152 ) ;
#89 = APPLICATION_PROTOCOL_DEFINITION ( 'draft international standard', 'automotive_design', 1998, #65 ) ;
#90 = ORIENTED_EDGE ( 'NONE', *, *, #71, .T. ) ;
#91 = AXIS2_PLACEMENT_3D ( 'NONE', #79, #134, #100 ) ;
#92 = ORIENTED_EDGE ( 'NONE', *, *, #178, .F. ) ;
#93 = CLOSED_SHELL ( 'NONE', ( #267, #241, #246, #9 ) ) ;
#94 = CIRCLE ( 'NONE', #250, 0.06250000000000001388 ) ;
#95 = FACE_OUTER_BOUND ( 'NONE', #211, .T. ) ;
#96 = SURFACE_SIDE_STYLE ('',( #33 ) ) ;
#97 = AXIS2_PLACEMENT_3D ( 'NONE', #224, #255, #192 ) ;
#98 =( GEOMETRIC_REPRESENTATION_CONTEXT ( 3 ) GLOBAL_UNCERTAINTY_ASSIGNED_CONTEXT ( ( #117 ) ) GLOBAL_UNIT_ASSIGNED_CONTEXT ( ( #243, #126, #7 ) ) REPRESENTATION_CONTEXT ( 'NONE', 'WORKASPACE' ) );
#99 = VERTEX_POINT ( 'NONE', #282 ) ;
#100 = DIRECTION ( 'NONE',  ( 0.000000000000000000, -0.000000000000000000, 1.000000000000000000 ) ) ;
#101 =( NAMED_UNIT ( * ) SI_UNIT ( $, .STERADIAN. ) SOLID_ANGLE_UNIT ( ) );
#102 = PLANE ( 'NONE',  #214 ) ;
#103 = MECHANICAL_DESIGN_GEOMETRIC_PRESENTATION_REPRESENTATION (  '', ( #228 ), #98 ) ;
#104 = PRODUCT_DEFINITION_FORMATION_WITH_SPECIFIED_SOURCE ( 'ANY', '', #36, .NOT_KNOWN. ) ;
#105 = ADVANCED_FACE ( 'NONE', ( #39 ), #251, .T. ) ;
#106 = LENGTH_MEASURE_WITH_UNIT ( LENGTH_MEASURE( 0.02539999999999999897 ), #272 );
#107 = CARTESIAN_POINT ( 'NONE',  ( 0.06250000000000001388, 1.499999999999999778, 0.000000000000000000 ) ) ;
#108 = DIRECTION ( 'NONE',  ( -1.000000000000000000, 0.000000000000000000, 0.000000000000000000 ) ) ;
#109 = DIMENSIONAL_EXPONENTS ( 1.000000000000000000, 0.000000000000000000, 0.000000000000000000, 0.000000000000000000, 0.000000000000000000, 0.000000000000000000, 0.000000000000000000 ) ;
#110 = ORIENTED_EDGE ( 'NONE', *, *, #140, .T. ) ;
#111 = DIRECTION ( 'NONE',  ( -1.000000000000000000, 0.000000000000000000, 0.000000000000000000 ) ) ;
#112 =( CONVERSION_BASED_UNIT ( 'INCH', #287 ) LENGTH_UNIT ( ) NAMED_UNIT ( #55 ) );
#113 = VECTOR ( 'NONE', #72, 39.37007874015748143 ) ;
#114 = DIRECTION ( 'NONE',  ( 0.000000000000000000, 0.000000000000000000, -1.000000000000000000 ) ) ;
#115 = EDGE_CURVE ( 'NONE', #207, #50, #284, .T. ) ;
#116 = PRODUCT_CONTEXT ( 'NONE', #212, 'mechanical' ) ;
#117 = UNCERTAINTY_MEASURE_WITH_UNIT (LENGTH_MEASURE( 1.000000000000000082E-05 ), #243, 'distance_accuracy_value', 'NONE');
#118 = MANIFOLD_SOLID_BREP ( 'Revolve - Cutting Edge', #93 ) ;
#119 = PRESENTATION_LAYER_ASSIGNMENT (  '', '', ( #161 ) ) ;
#120 = PRODUCT_DEFINITION_CONTEXT ( 'detailed design', #65, 'design' ) ;
#121 = FILL_AREA_STYLE ('',( #170 ) ) ;
#122 = SURFACE_STYLE_FILL_AREA ( #121 ) ;
#123 = AXIS2_PLACEMENT_3D ( 'NONE', #107, #46, #232 ) ;
#124 = PRESENTATION_LAYER_ASSIGNMENT (  '', '', ( #62 ) ) ;
#125 = LINE ( 'NONE', #8, #198 ) ;
#126 =( NAMED_UNIT ( * ) PLANE_ANGLE_UNIT ( ) SI_UNIT ( $, .RADIAN. ) );
#127 = SURFACE_STYLE_FILL_AREA ( #131 ) ;
#128 = DIMENSIONAL_EXPONENTS ( 1.000000000000000000, 0.000000000000000000, 0.000000000000000000, 0.000000000000000000, 0.000000000000000000, 0.000000000000000000, 0.000000000000000000 ) ;
#129 = ORIENTED_EDGE ( 'NONE', *, *, #206, .F. ) ;
#130 = ADVANCED_FACE ( 'NONE', ( #286 ), #141, .F. ) ;
#131 = FILL_AREA_STYLE ('',( #38 ) ) ;
#132 = FILL_AREA_STYLE ('',( #6 ) ) ;
#133 = DIRECTION ( 'NONE',  ( 0.000000000000000000, 0.000000000000000000, -1.000000000000000000 ) ) ;
#134 = DIRECTION ( 'NONE',  ( 0.000000000000000000, 1.000000000000000000, 0.000000000000000000 ) ) ;
#135 = EDGE_CURVE ( 'NONE', #139, #86, #304, .T. ) ;
#136 = CARTESIAN_POINT ( 'NONE',  ( 6.735557395310442023E-16, 1.499999999999999778, 0.000000000000000000 ) ) ;
#137 = FILL_AREA_STYLE ('',( #47 ) ) ;
#138 = APPLICATION_PROTOCOL_DEFINITION ( 'draft international standard', 'automotive_design', 1998, #212 ) ;
#139 = VERTEX_POINT ( 'NONE', #48 ) ;
#140 = EDGE_CURVE ( 'NONE', #238, #268, #41, .T. ) ;
#141 = PLANE ( 'NONE',  #123 ) ;
#142 = AXIS2_PLACEMENT_3D ( 'NONE', #73, #14, #165 ) ;
#143 = SURFACE_SIDE_STYLE ('',( #122 ) ) ;
#144 = PRESENTATION_STYLE_ASSIGNMENT (( #167 ) ) ;
#145 = PLANE ( 'NONE',  #91 ) ;
#146 = PRESENTATION_LAYER_ASSIGNMENT (  '', '', ( #31 ) ) ;
#147 = PRESENTATION_LAYER_ASSIGNMENT (  '', '', ( #168 ) ) ;
#148 = SURFACE_SIDE_STYLE ('',( #43 ) ) ;
#149 =( CONVERSION_BASED_UNIT ( 'INCH', #280 ) LENGTH_UNIT ( ) NAMED_UNIT ( #308 ) );
#150 = DIRECTION ( 'NONE',  ( 5.388445916248354013E-16, 1.000000000000000000, -0.000000000000000000 ) ) ;
#151 = VECTOR ( 'NONE', #54, 39.37007874015748143 ) ;
#152 = CARTESIAN_POINT ( 'NONE',  ( -0.06249999999999866773, 1.499999999999999778, 0.000000000000000000 ) ) ;
#153 = PRESENTATION_STYLE_ASSIGNMENT (( #222 ) ) ;
#154 = AXIS2_PLACEMENT_3D ( 'NONE', #177, #34, #37 ) ;
#155 = AXIS2_PLACEMENT_3D ( 'NONE', #259, #230, #205 ) ;
#156 = SURFACE_STYLE_FILL_AREA ( #137 ) ;
#157 =( NAMED_UNIT ( * ) SI_UNIT ( $, .STERADIAN. ) SOLID_ANGLE_UNIT ( ) );
#158 =( NAMED_UNIT ( * ) PLANE_ANGLE_UNIT ( ) SI_UNIT ( $, .RADIAN. ) );
#159 = DIRECTION ( 'NONE',  ( -0.000000000000000000, -1.000000000000000000, -0.000000000000000000 ) ) ;
#160 = STYLED_ITEM ( 'NONE', ( #180 ), #118 ) ;
#161 = STYLED_ITEM ( 'NONE', ( #27 ), #267 ) ;
#162 = CARTESIAN_POINT ( 'NONE',  ( 0.000000000000000000, 0.000000000000000000, 0.000000000000000000 ) ) ;
#163 = EDGE_LOOP ( 'NONE', ( #288, #307 ) ) ;
#164 = EDGE_CURVE ( 'NONE', #99, #88, #16, .T. ) ;
#165 = DIRECTION ( 'NONE',  ( 0.000000000000000000, 0.000000000000000000, -1.000000000000000000 ) ) ;
#166 = ORIENTED_EDGE ( 'NONE', *, *, #5, .F. ) ;
#167 = SURFACE_STYLE_USAGE ( .BOTH. , #143 ) ;
#168 = STYLED_ITEM ( 'NONE', ( #218 ), #241 ) ;
#169 = PLANE ( 'NONE',  #194 ) ;
#170 = FILL_AREA_STYLE_COLOUR ( '', #296 ) ;
#171 = LINE ( 'NONE', #3, #113 ) ;
#172 =( GEOMETRIC_REPRESENTATION_CONTEXT ( 3 ) GLOBAL_UNCERTAINTY_ASSIGNED_CONTEXT ( ( #289 ) ) GLOBAL_UNIT_ASSIGNED_CONTEXT ( ( #149, #40, #57 ) ) REPRESENTATION_CONTEXT ( 'NONE', 'WORKASPACE' ) );
#173 = ORIENTED_EDGE ( 'NONE', *, *, #178, .T. ) ;
#174 =( LENGTH_UNIT ( ) NAMED_UNIT ( * ) SI_UNIT ( $, .METRE. ) );
#175 = DIRECTION ( 'NONE',  ( 0.000000000000000000, -1.000000000000000000, -0.000000000000000000 ) ) ;
#176 = COLOUR_RGB ( '',0.7921568627450980005, 0.8196078431372548767, 0.9333333333333333481 ) ;
#177 = CARTESIAN_POINT ( 'NONE',  ( 6.735557395310442023E-16, 1.499999999999999778, 0.000000000000000000 ) ) ;
#178 = EDGE_CURVE ( 'NONE', #268, #238, #285, .T. ) ;
#179 = ORIENTED_EDGE ( 'NONE', *, *, #135, .T. ) ;
#180 = PRESENTATION_STYLE_ASSIGNMENT (( #17 ) ) ;
#181 = PRESENTATION_LAYER_ASSIGNMENT (  '', '', ( #160 ) ) ;
#182 =( GEOMETRIC_REPRESENTATION_CONTEXT ( 3 ) GLOBAL_UNCERTAINTY_ASSIGNED_CONTEXT ( ( #240 ) ) GLOBAL_UNIT_ASSIGNED_CONTEXT ( ( #260, #158, #25 ) ) REPRESENTATION_CONTEXT ( 'NONE', 'WORKASPACE' ) );
#183 = SURFACE_SIDE_STYLE ('',( #156 ) ) ;
#184 = EDGE_LOOP ( 'NONE', ( #110, #63, #51, #226 ) ) ;
#185 = PRODUCT_DEFINITION ( 'UNKNOWN', '', #104, #120 ) ;
#186 = DIRECTION ( 'NONE',  ( -1.000000000000000000, 5.463695987328525451E-16, 0.000000000000000000 ) ) ;
#187 = SURFACE_STYLE_USAGE ( .BOTH. , #183 ) ;
#188 = ORIENTED_EDGE ( 'NONE', *, *, #135, .F. ) ;
#189 = UNCERTAINTY_MEASURE_WITH_UNIT (LENGTH_MEASURE( 1.000000000000000082E-05 ), #11, 'distance_accuracy_value', 'NONE');
#190 = ORIENTED_EDGE ( 'NONE', *, *, #74, .F. ) ;
#191 = ORIENTED_EDGE ( 'NONE', *, *, #164, .F. ) ;
#192 = DIRECTION ( 'NONE',  ( -1.000000000000000000, 0.000000000000000000, 0.000000000000000000 ) ) ;
#193 = CARTESIAN_POINT ( 'NONE',  ( 0.000000000000000000, 0.2499999999999998057, 0.000000000000000000 ) ) ;
#194 = AXIS2_PLACEMENT_3D ( 'NONE', #275, #242, #295 ) ;
#195 = CARTESIAN_POINT ( 'NONE',  ( 7.654042494670959086E-18, 0.2499999999999998057, 0.06250000000000001388 ) ) ;
#196 = FACE_OUTER_BOUND ( 'NONE', #163, .T. ) ;
#197 = SURFACE_STYLE_USAGE ( .BOTH. , #96 ) ;
#198 = VECTOR ( 'NONE', #150, 39.37007874015748143 ) ;
#199 = ORIENTED_EDGE ( 'NONE', *, *, #74, .T. ) ;
#200 =( CONVERSION_BASED_UNIT ( 'INCH', #298 ) LENGTH_UNIT ( ) NAMED_UNIT ( #128 ) );
#201 = SURFACE_STYLE_USAGE ( .BOTH. , #148 ) ;
#202 = UNCERTAINTY_MEASURE_WITH_UNIT (LENGTH_MEASURE( 1.000000000000000082E-05 ), #87, 'distance_accuracy_value', 'NONE');
#203 = EDGE_CURVE ( 'NONE', #50, #207, #94, .T. ) ;
#204 = FACE_OUTER_BOUND ( 'NONE', #293, .T. ) ;
#205 = DIRECTION ( 'NONE',  ( -1.000000000000000000, 5.463695987328525451E-16, 0.000000000000000000 ) ) ;
#206 = EDGE_CURVE ( 'NONE', #207, #139, #171, .T. ) ;
#207 = VERTEX_POINT ( 'NONE', #195 ) ;
#208 = CARTESIAN_POINT ( 'NONE',  ( -1.213184216936841517E-31, 0.2499999999999998057, 0.000000000000000000 ) ) ;
#209 =( NAMED_UNIT ( * ) SI_UNIT ( $, .STERADIAN. ) SOLID_ANGLE_UNIT ( ) );
#210 = ADVANCED_FACE ( 'NONE', ( #35 ), #169, .F. ) ;
#211 = EDGE_LOOP ( 'NONE', ( #263, #179 ) ) ;
#212 = APPLICATION_CONTEXT ( 'automotive_design' ) ;
#213 =( LENGTH_UNIT ( ) NAMED_UNIT ( * ) SI_UNIT ( $, .METRE. ) );
#214 = AXIS2_PLACEMENT_3D ( 'NONE', #303, #175, #133 ) ;
#215 = COLOUR_RGB ( '',1.000000000000000000, 0.000000000000000000, 0.000000000000000000 ) ;
#216 =( GEOMETRIC_REPRESENTATION_CONTEXT ( 3 ) GLOBAL_UNCERTAINTY_ASSIGNED_CONTEXT ( ( #202 ) ) GLOBAL_UNIT_ASSIGNED_CONTEXT ( ( #87, #261, #157 ) ) REPRESENTATION_CONTEXT ( 'NONE', 'WORKASPACE' ) );
#217 = AXIS2_PLACEMENT_3D ( 'NONE', #262, #84, #114 ) ;
#218 = PRESENTATION_STYLE_ASSIGNMENT (( #197 ) ) ;
#219 = CARTESIAN_POINT ( 'NONE',  ( 0.000000000000000000, 0.2499999999999998057, -0.06250000000000001388 ) ) ;
#220 = CARTESIAN_POINT ( 'NONE',  ( 0.000000000000000000, 0.000000000000000000, -0.06250000000000001388 ) ) ;
#221 = EDGE_LOOP ( 'NONE', ( #69, #173, #90, #191 ) ) ;
#222 = SURFACE_STYLE_USAGE ( .BOTH. , #227 ) ;
#223 = DIMENSIONAL_EXPONENTS ( 1.000000000000000000, 0.000000000000000000, 0.000000000000000000, 0.000000000000000000, 0.000000000000000000, 0.000000000000000000, 0.000000000000000000 ) ;
#224 = CARTESIAN_POINT ( 'NONE',  ( 6.735557395310442023E-16, 1.499999999999999778, 0.000000000000000000 ) ) ;
#225 = FILL_AREA_STYLE_COLOUR ( '', #176 ) ;
#226 = ORIENTED_EDGE ( 'NONE', *, *, #71, .F. ) ;
#227 = SURFACE_SIDE_STYLE ('',( #127 ) ) ;
#228 = STYLED_ITEM ( 'NONE', ( #144 ), #229 ) ;
#229 = MANIFOLD_SOLID_BREP ( 'Revolve - Tool Body (Straight Shanked)', #254 ) ;
#230 = DIRECTION ( 'NONE',  ( 5.388445916248354013E-16, 1.000000000000000000, -0.000000000000000000 ) ) ;
#231 = LENGTH_MEASURE_WITH_UNIT ( LENGTH_MEASURE( 0.02539999999999999897 ), #18 );
#232 = DIRECTION ( 'NONE',  ( 1.000000000000000000, -5.388445916248354013E-16, 0.000000000000000000 ) ) ;
#233 = CIRCLE ( 'NONE', #290, 0.06250000000000001388 ) ;
#234 = DIRECTION ( 'NONE',  ( -0.000000000000000000, -1.000000000000000000, -0.000000000000000000 ) ) ;
#235 = DIRECTION ( 'NONE',  ( 5.388445916248354013E-16, 1.000000000000000000, -0.000000000000000000 ) ) ;
#236 = ORIENTED_EDGE ( 'NONE', *, *, #206, .T. ) ;
#237 = DIRECTION ( 'NONE',  ( 0.000000000000000000, 0.000000000000000000, -1.000000000000000000 ) ) ;
#238 = VERTEX_POINT ( 'NONE', #29 ) ;
#239 = AXIS2_PLACEMENT_3D ( 'NONE', #208, #309, #186 ) ;
#240 = UNCERTAINTY_MEASURE_WITH_UNIT (LENGTH_MEASURE( 1.000000000000000082E-05 ), #260, 'distance_accuracy_value', 'NONE');
#241 = ADVANCED_FACE ( 'NONE', ( #196 ), #145, .T. ) ;
#242 = DIRECTION ( 'NONE',  ( 5.388445916248354013E-16, 1.000000000000000000, -0.000000000000000000 ) ) ;
#243 =( CONVERSION_BASED_UNIT ( 'INCH', #274 ) LENGTH_UNIT ( ) NAMED_UNIT ( #109 ) );
#244 = AXIS2_PLACEMENT_3D ( 'NONE', #266, #292, #49 ) ;
#245 = MECHANICAL_DESIGN_GEOMETRIC_PRESENTATION_REPRESENTATION (  '', ( #62 ), #172 ) ;
#246 = ADVANCED_FACE ( 'NONE', ( #204 ), #13, .T. ) ;
#247 = FACE_OUTER_BOUND ( 'NONE', #221, .T. ) ;
#248 = DIRECTION ( 'NONE',  ( -0.000000000000000000, -1.000000000000000000, -0.000000000000000000 ) ) ;
#249 = COLOUR_RGB ( '',1.000000000000000000, 0.000000000000000000, 0.000000000000000000 ) ;
#250 = AXIS2_PLACEMENT_3D ( 'NONE', #193, #301, #297 ) ;
#251 = CYLINDRICAL_SURFACE ( 'NONE', #97, 0.06249999999999967387 ) ;
#252 = SURFACE_STYLE_FILL_AREA ( #10 ) ;
#253 =( LENGTH_UNIT ( ) NAMED_UNIT ( * ) SI_UNIT ( $, .METRE. ) );
#254 = CLOSED_SHELL ( 'NONE', ( #105, #210, #22, #130 ) ) ;
#255 = DIRECTION ( 'NONE',  ( 5.388445916248354013E-16, 1.000000000000000000, -0.000000000000000000 ) ) ;
#256 = AXIS2_PLACEMENT_3D ( 'NONE', #162, #234, #237 ) ;
#257 = CARTESIAN_POINT ( 'NONE',  ( 0.06250000000000001388, 0.2499999999999997502, 7.654042494670939056E-18 ) ) ;
#258 = ORIENTED_EDGE ( 'NONE', *, *, #140, .F. ) ;
#259 = CARTESIAN_POINT ( 'NONE',  ( -1.213184216936841517E-31, 0.2499999999999998057, 0.000000000000000000 ) ) ;
#260 =( CONVERSION_BASED_UNIT ( 'INCH', #231 ) LENGTH_UNIT ( ) NAMED_UNIT ( #64 ) );
#261 =( NAMED_UNIT ( * ) PLANE_ANGLE_UNIT ( ) SI_UNIT ( $, .RADIAN. ) );
#262 = CARTESIAN_POINT ( 'NONE',  ( 0.000000000000000000, 0.000000000000000000, 0.000000000000000000 ) ) ;
#263 = ORIENTED_EDGE ( 'NONE', *, *, #5, .T. ) ;
#264 =( LENGTH_UNIT ( ) NAMED_UNIT ( * ) SI_UNIT ( $, .METRE. ) );
#265 = MECHANICAL_DESIGN_GEOMETRIC_PRESENTATION_REPRESENTATION (  '', ( #168 ), #28 ) ;
#266 = CARTESIAN_POINT ( 'NONE',  ( 0.000000000000000000, 0.000000000000000000, 0.000000000000000000 ) ) ;
#267 = ADVANCED_FACE ( 'NONE', ( #61 ), #24, .T. ) ;
#268 = VERTEX_POINT ( 'NONE', #257 ) ;
#269 = EDGE_CURVE ( 'NONE', #88, #99, #82, .T. ) ;
#270 = SHAPE_DEFINITION_REPRESENTATION ( #299, #4 ) ;
#271 = MECHANICAL_DESIGN_GEOMETRIC_PRESENTATION_REPRESENTATION (  '', ( #161 ), #182 ) ;
#272 =( LENGTH_UNIT ( ) NAMED_UNIT ( * ) SI_UNIT ( $, .METRE. ) );
#273 = EDGE_LOOP ( 'NONE', ( #258, #92 ) ) ;
#274 = LENGTH_MEASURE_WITH_UNIT ( LENGTH_MEASURE( 0.02539999999999999897 ), #277 );
#275 = CARTESIAN_POINT ( 'NONE',  ( 9.073546685104240443E-33, 0.2499999999999998057, 0.000000000000000000 ) ) ;
#276 = CYLINDRICAL_SURFACE ( 'NONE', #154, 0.06249999999999967387 ) ;
#277 =( LENGTH_UNIT ( ) NAMED_UNIT ( * ) SI_UNIT ( $, .METRE. ) );
#278 = PRESENTATION_STYLE_ASSIGNMENT (( #201 ) ) ;
#279 = UNCERTAINTY_MEASURE_WITH_UNIT (LENGTH_MEASURE( 1.000000000000000082E-05 ), #200, 'distance_accuracy_value', 'NONE');
#280 = LENGTH_MEASURE_WITH_UNIT ( LENGTH_MEASURE( 0.02539999999999999897 ), #253 );
#281 = MECHANICAL_DESIGN_GEOMETRIC_PRESENTATION_REPRESENTATION (  '', ( #160 ), #216 ) ;
#282 = CARTESIAN_POINT ( 'NONE',  ( 0.06250000000000001388, 1.499999999999999778, 7.654042494670939056E-18 ) ) ;
#283 = DIRECTION ( 'NONE',  ( 0.000000000000000000, 0.000000000000000000, -1.000000000000000000 ) ) ;
#284 = CIRCLE ( 'NONE', #142, 0.06250000000000001388 ) ;
#285 = CIRCLE ( 'NONE', #239, 0.06250000000000001388 ) ;
#286 = FACE_OUTER_BOUND ( 'NONE', #19, .T. ) ;
#287 = LENGTH_MEASURE_WITH_UNIT ( LENGTH_MEASURE( 0.02539999999999999897 ), #213 );
#288 = ORIENTED_EDGE ( 'NONE', *, *, #203, .F. ) ;
#289 = UNCERTAINTY_MEASURE_WITH_UNIT (LENGTH_MEASURE( 1.000000000000000082E-05 ), #149, 'distance_accuracy_value', 'NONE');
#290 = AXIS2_PLACEMENT_3D ( 'NONE', #59, #305, #283 ) ;
#291 = AXIS2_PLACEMENT_3D ( 'NONE', #136, #20, #111 ) ;
#292 = DIRECTION ( 'NONE',  ( 0.000000000000000000, 0.000000000000000000, 1.000000000000000000 ) ) ;
#293 = EDGE_LOOP ( 'NONE', ( #129, #80, #199, #188 ) ) ;
#294 = UNCERTAINTY_MEASURE_WITH_UNIT (LENGTH_MEASURE( 1.000000000000000082E-05 ), #112, 'distance_accuracy_value', 'NONE');
#295 = DIRECTION ( 'NONE',  ( -1.000000000000000000, 5.388445916248354013E-16, 0.000000000000000000 ) ) ;
#296 = COLOUR_RGB ( '',0.7921568627450980005, 0.8196078431372548767, 0.9333333333333333481 ) ;
#297 = DIRECTION ( 'NONE',  ( 0.000000000000000000, 0.000000000000000000, -1.000000000000000000 ) ) ;
#298 = LENGTH_MEASURE_WITH_UNIT ( LENGTH_MEASURE( 0.02539999999999999897 ), #174 );
#299 = PRODUCT_DEFINITION_SHAPE ( 'NONE', 'NONE',  #185 ) ;
#300 = MECHANICAL_DESIGN_GEOMETRIC_PRESENTATION_REPRESENTATION (  '', ( #31 ), #45 ) ;
#301 = DIRECTION ( 'NONE',  ( -0.000000000000000000, -1.000000000000000000, -0.000000000000000000 ) ) ;
#302 = ORIENTED_EDGE ( 'NONE', *, *, #269, .T. ) ;
#303 = CARTESIAN_POINT ( 'NONE',  ( 0.000000000000000000, 0.000000000000000000, 0.000000000000000000 ) ) ;
#304 = CIRCLE ( 'NONE', #53, 0.06250000000000001388 ) ;
#305 = DIRECTION ( 'NONE',  ( -0.000000000000000000, -1.000000000000000000, -0.000000000000000000 ) ) ;
#306 = DIRECTION ( 'NONE',  ( 0.000000000000000000, 0.000000000000000000, -1.000000000000000000 ) ) ;
#307 = ORIENTED_EDGE ( 'NONE', *, *, #115, .F. ) ;
#308 = DIMENSIONAL_EXPONENTS ( 1.000000000000000000, 0.000000000000000000, 0.000000000000000000, 0.000000000000000000, 0.000000000000000000, 0.000000000000000000, 0.000000000000000000 ) ;
#309 = DIRECTION ( 'NONE',  ( 5.388445916248354013E-16, 1.000000000000000000, -0.000000000000000000 ) ) ;
ENDSEC;
END-ISO-10303-21;
