ISO-10303-21;
HEADER;
FILE_DESCRIPTION (( 'STEP AP214' ),
    '1' );
FILE_NAME ('01332.STEP',
    '2023-06-22T14:27:05',
    ( '' ),
    ( '' ),
    'SwSTEP 2.0',
    'SolidWorks 2023',
    '' );
FILE_SCHEMA (( 'AUTOMOTIVE_DESIGN' ));
ENDSEC;

DATA;
#1 = CIRCLE ( 'NONE', #87, 0.1875000000000000278 ) ;
#2 =( NAMED_UNIT ( * ) SI_UNIT ( $, .STERADIAN. ) SOLID_ANGLE_UNIT ( ) );
#3 = FACE_OUTER_BOUND ( 'NONE', #89, .T. ) ;
#4 = MECHANICAL_DESIGN_GEOMETRIC_PRESENTATION_REPRESENTATION (  '', ( #120 ), #23 ) ;
#5 = FILL_AREA_STYLE ('',( #211 ) ) ;
#6 =( GEOMETRIC_REPRESENTATION_CONTEXT ( 3 ) GLOBAL_UNCERTAINTY_ASSIGNED_CONTEXT ( ( #162 ) ) GLOBAL_UNIT_ASSIGNED_CONTEXT ( ( #45, #259, #52 ) ) REPRESENTATION_CONTEXT ( 'NONE', 'WORKASPACE' ) );
#7 = EDGE_LOOP ( 'NONE', ( #277, #66 ) ) ;
#8 = FACE_OUTER_BOUND ( 'NONE', #139, .T. ) ;
#9 = VECTOR ( 'NONE', #171, 39.37007874015748143 ) ;
#10 = SURFACE_STYLE_USAGE ( .BOTH. , #63 ) ;
#11 = DIMENSIONAL_EXPONENTS ( 1.000000000000000000, 0.000000000000000000, 0.000000000000000000, 0.000000000000000000, 0.000000000000000000, 0.000000000000000000, 0.000000000000000000 ) ;
#12 = EDGE_LOOP ( 'NONE', ( #209, #40, #188, #236 ) ) ;
#13 = DIRECTION ( 'NONE',  ( 0.000000000000000000, -0.000000000000000000, 1.000000000000000000 ) ) ;
#14 = MANIFOLD_SOLID_BREP ( 'Revolve - Cutting Edge', #64 ) ;
#15 = EDGE_CURVE ( 'NONE', #195, #164, #281, .T. ) ;
#16 = ORIENTED_EDGE ( 'NONE', *, *, #28, .F. ) ;
#17 = SURFACE_STYLE_USAGE ( .BOTH. , #253 ) ;
#18 = PRODUCT_RELATED_PRODUCT_CATEGORY ( 'part', '', ( #67 ) ) ;
#19 = DIMENSIONAL_EXPONENTS ( 1.000000000000000000, 0.000000000000000000, 0.000000000000000000, 0.000000000000000000, 0.000000000000000000, 0.000000000000000000, 0.000000000000000000 ) ;
#20 = SURFACE_STYLE_USAGE ( .BOTH. , #240 ) ;
#21 =( CONVERSION_BASED_UNIT ( 'INCH', #106 ) LENGTH_UNIT ( ) NAMED_UNIT ( #185 ) );
#22 = DIRECTION ( 'NONE',  ( -1.000000000000000000, 0.000000000000000000, 0.000000000000000000 ) ) ;
#23 =( GEOMETRIC_REPRESENTATION_CONTEXT ( 3 ) GLOBAL_UNCERTAINTY_ASSIGNED_CONTEXT ( ( #217 ) ) GLOBAL_UNIT_ASSIGNED_CONTEXT ( ( #272, #37, #136 ) ) REPRESENTATION_CONTEXT ( 'NONE', 'WORKASPACE' ) );
#24 = DIRECTION ( 'NONE',  ( 0.000000000000000000, 0.000000000000000000, -1.000000000000000000 ) ) ;
#25 = FILL_AREA_STYLE_COLOUR ( '', #265 ) ;
#26 = PRESENTATION_LAYER_ASSIGNMENT (  '', '', ( #118 ) ) ;
#27 = DIRECTION ( 'NONE',  ( 1.632862398863137774E-16, 1.000000000000000000, -0.000000000000000000 ) ) ;
#28 = EDGE_CURVE ( 'NONE', #252, #219, #121, .T. ) ;
#29 = FILL_AREA_STYLE ('',( #80 ) ) ;
#30 = AXIS2_PLACEMENT_3D ( 'NONE', #150, #143, #43 ) ;
#31 = CYLINDRICAL_SURFACE ( 'NONE', #223, 0.1875000000000000278 ) ;
#32 = DIRECTION ( 'NONE',  ( -0.000000000000000000, -1.000000000000000000, -0.000000000000000000 ) ) ;
#33 = VECTOR ( 'NONE', #263, 39.37007874015748143 ) ;
#34 = DIRECTION ( 'NONE',  ( 0.000000000000000000, 0.000000000000000000, -1.000000000000000000 ) ) ;
#35 = CIRCLE ( 'NONE', #168, 0.1875000000000000278 ) ;
#36 = ORIENTED_EDGE ( 'NONE', *, *, #175, .F. ) ;
#37 =( NAMED_UNIT ( * ) PLANE_ANGLE_UNIT ( ) SI_UNIT ( $, .RADIAN. ) );
#38 = EDGE_CURVE ( 'NONE', #42, #125, #54, .T. ) ;
#39 = PRESENTATION_STYLE_ASSIGNMENT (( #10 ) ) ;
#40 = ORIENTED_EDGE ( 'NONE', *, *, #15, .T. ) ;
#41 =( CONVERSION_BASED_UNIT ( 'INCH', #279 ) LENGTH_UNIT ( ) NAMED_UNIT ( #11 ) );
#42 = VERTEX_POINT ( 'NONE', #307 ) ;
#43 = DIRECTION ( 'NONE',  ( -1.000000000000000000, 0.000000000000000000, 0.000000000000000000 ) ) ;
#44 = CIRCLE ( 'NONE', #301, 0.1875000000000000278 ) ;
#45 =( CONVERSION_BASED_UNIT ( 'INCH', #73 ) LENGTH_UNIT ( ) NAMED_UNIT ( #260 ) );
#46 = ORIENTED_EDGE ( 'NONE', *, *, #221, .T. ) ;
#47 = APPLICATION_PROTOCOL_DEFINITION ( 'draft international standard', 'automotive_design', 1998, #216 ) ;
#48 = EDGE_CURVE ( 'NONE', #59, #219, #244, .T. ) ;
#49 = UNCERTAINTY_MEASURE_WITH_UNIT (LENGTH_MEASURE( 1.000000000000000082E-05 ), #140, 'distance_accuracy_value', 'NONE');
#50 = FILL_AREA_STYLE ('',( #266 ) ) ;
#51 = VECTOR ( 'NONE', #27, 39.37007874015748143 ) ;
#52 =( NAMED_UNIT ( * ) SI_UNIT ( $, .STERADIAN. ) SOLID_ANGLE_UNIT ( ) );
#53 = FACE_OUTER_BOUND ( 'NONE', #238, .T. ) ;
#54 = CIRCLE ( 'NONE', #234, 0.1874999999999997780 ) ;
#55 = STYLED_ITEM ( 'NONE', ( #39 ), #228 ) ;
#56 = MECHANICAL_DESIGN_GEOMETRIC_PRESENTATION_REPRESENTATION (  '', ( #202 ), #197 ) ;
#57 = EDGE_CURVE ( 'NONE', #164, #42, #71, .T. ) ;
#58 = DIRECTION ( 'NONE',  ( -1.000000000000000000, 0.000000000000000000, 0.000000000000000000 ) ) ;
#59 = VERTEX_POINT ( 'NONE', #303 ) ;
#60 = AXIS2_PLACEMENT_3D ( 'NONE', #107, #177, #250 ) ;
#61 = FILL_AREA_STYLE ('',( #275 ) ) ;
#62 = ORIENTED_EDGE ( 'NONE', *, *, #48, .F. ) ;
#63 = SURFACE_SIDE_STYLE ('',( #208 ) ) ;
#64 = CLOSED_SHELL ( 'NONE', ( #137, #212, #86, #194 ) ) ;
#65 = ORIENTED_EDGE ( 'NONE', *, *, #287, .F. ) ;
#66 = ORIENTED_EDGE ( 'NONE', *, *, #15, .F. ) ;
#67 = PRODUCT ( '01332', '01332', '', ( #75 ) ) ;
#68 = SURFACE_SIDE_STYLE ('',( #192 ) ) ;
#69 = DIRECTION ( 'NONE',  ( 1.632862398863137774E-16, 1.000000000000000000, -0.000000000000000000 ) ) ;
#70 =( GEOMETRIC_REPRESENTATION_CONTEXT ( 3 ) GLOBAL_UNCERTAINTY_ASSIGNED_CONTEXT ( ( #138 ) ) GLOBAL_UNIT_ASSIGNED_CONTEXT ( ( #41, #91, #166 ) ) REPRESENTATION_CONTEXT ( 'NONE', 'WORKASPACE' ) );
#71 = LINE ( 'NONE', #76, #33 ) ;
#72 = DIRECTION ( 'NONE',  ( -0.000000000000000000, -1.000000000000000000, -0.000000000000000000 ) ) ;
#73 = LENGTH_MEASURE_WITH_UNIT ( LENGTH_MEASURE( 0.02539999999999999897 ), #193 );
#74 =( NAMED_UNIT ( * ) SI_UNIT ( $, .STERADIAN. ) SOLID_ANGLE_UNIT ( ) );
#75 = PRODUCT_CONTEXT ( 'NONE', #153, 'mechanical' ) ;
#76 = CARTESIAN_POINT ( 'NONE',  ( -0.1874999999999996669, 2.000000000000000000, 0.000000000000000000 ) ) ;
#77 = AXIS2_PLACEMENT_3D ( 'NONE', #309, #103, #246 ) ;
#78 = DIRECTION ( 'NONE',  ( 0.000000000000000000, 0.000000000000000000, -1.000000000000000000 ) ) ;
#79 = DIRECTION ( 'NONE',  ( -0.000000000000000000, -1.000000000000000000, -0.000000000000000000 ) ) ;
#80 = FILL_AREA_STYLE_COLOUR ( '', #230 ) ;
#81 = SURFACE_SIDE_STYLE ('',( #205 ) ) ;
#82 =( GEOMETRIC_REPRESENTATION_CONTEXT ( 3 ) GLOBAL_UNCERTAINTY_ASSIGNED_CONTEXT ( ( #196 ) ) GLOBAL_UNIT_ASSIGNED_CONTEXT ( ( #128, #305, #74 ) ) REPRESENTATION_CONTEXT ( 'NONE', 'WORKASPACE' ) );
#83 = AXIS2_PLACEMENT_3D ( 'NONE', #288, #179, #58 ) ;
#84 = PRESENTATION_STYLE_ASSIGNMENT (( #17 ) ) ;
#85 =( LENGTH_UNIT ( ) NAMED_UNIT ( * ) SI_UNIT ( $, .METRE. ) );
#86 = ADVANCED_FACE ( 'NONE', ( #174 ), #31, .T. ) ;
#87 = AXIS2_PLACEMENT_3D ( 'NONE', #93, #69, #22 ) ;
#88 = CARTESIAN_POINT ( 'NONE',  ( 0.1875000000000000278, 0.5000000000000001110, 2.296212748401286493E-17 ) ) ;
#89 = EDGE_LOOP ( 'NONE', ( #148, #294 ) ) ;
#90 = ORIENTED_EDGE ( 'NONE', *, *, #233, .F. ) ;
#91 =( NAMED_UNIT ( * ) PLANE_ANGLE_UNIT ( ) SI_UNIT ( $, .RADIAN. ) );
#92 = PLANE ( 'NONE',  #100 ) ;
#93 = CARTESIAN_POINT ( 'NONE',  ( 0.000000000000000000, 0.5000000000000001110, 0.000000000000000000 ) ) ;
#94 = PRODUCT_DEFINITION_CONTEXT ( 'detailed design', #216, 'design' ) ;
#95 = DIRECTION ( 'NONE',  ( 0.000000000000000000, 0.000000000000000000, -1.000000000000000000 ) ) ;
#96 = CARTESIAN_POINT ( 'NONE',  ( 2.296212748401287726E-17, 0.5000000000000001110, 0.1875000000000000278 ) ) ;
#97 = EDGE_CURVE ( 'NONE', #195, #125, #229, .T. ) ;
#98 = DIRECTION ( 'NONE',  ( 1.632862398863137774E-16, 1.000000000000000000, -0.000000000000000000 ) ) ;
#99 =( NAMED_UNIT ( * ) PLANE_ANGLE_UNIT ( ) SI_UNIT ( $, .RADIAN. ) );
#100 = AXIS2_PLACEMENT_3D ( 'NONE', #243, #146, #283 ) ;
#101 = CARTESIAN_POINT ( 'NONE',  ( 0.000000000000000000, 0.000000000000000000, 0.000000000000000000 ) ) ;
#102 = AXIS2_PLACEMENT_3D ( 'NONE', #200, #98, #198 ) ;
#103 = DIRECTION ( 'NONE',  ( -0.000000000000000000, -1.000000000000000000, -0.000000000000000000 ) ) ;
#104 = CARTESIAN_POINT ( 'NONE',  ( -0.1875000000000000278, 0.5000000000000001110, 0.000000000000000000 ) ) ;
#105 = COLOUR_RGB ( '',1.000000000000000000, 0.000000000000000000, 0.000000000000000000 ) ;
#106 = LENGTH_MEASURE_WITH_UNIT ( LENGTH_MEASURE( 0.02539999999999999897 ), #280 );
#107 = CARTESIAN_POINT ( 'NONE',  ( 2.449293598294706414E-16, 2.000000000000000000, 0.000000000000000000 ) ) ;
#108 = FILL_AREA_STYLE ('',( #157 ) ) ;
#109 = SURFACE_STYLE_FILL_AREA ( #29 ) ;
#110 = LENGTH_MEASURE_WITH_UNIT ( LENGTH_MEASURE( 0.02539999999999999897 ), #186 );
#111 = ORIENTED_EDGE ( 'NONE', *, *, #178, .T. ) ;
#112 = CARTESIAN_POINT ( 'NONE',  ( 0.000000000000000000, 0.000000000000000000, -0.1875000000000000278 ) ) ;
#113 = DIMENSIONAL_EXPONENTS ( 1.000000000000000000, 0.000000000000000000, 0.000000000000000000, 0.000000000000000000, 0.000000000000000000, 0.000000000000000000, 0.000000000000000000 ) ;
#114 = PRESENTATION_LAYER_ASSIGNMENT (  '', '', ( #202 ) ) ;
#115 = ORIENTED_EDGE ( 'NONE', *, *, #175, .T. ) ;
#116 = CARTESIAN_POINT ( 'NONE',  ( 0.000000000000000000, 0.000000000000000000, 0.000000000000000000 ) ) ;
#117 = ORIENTED_EDGE ( 'NONE', *, *, #57, .F. ) ;
#118 = STYLED_ITEM ( 'NONE', ( #119 ), #86 ) ;
#119 = PRESENTATION_STYLE_ASSIGNMENT (( #20 ) ) ;
#120 = STYLED_ITEM ( 'NONE', ( #159 ), #194 ) ;
#121 = LINE ( 'NONE', #285, #9 ) ;
#122 = SURFACE_STYLE_FILL_AREA ( #50 ) ;
#123 = FACE_OUTER_BOUND ( 'NONE', #7, .T. ) ;
#124 = CLOSED_SHELL ( 'NONE', ( #126, #282, #269, #187 ) ) ;
#125 = VERTEX_POINT ( 'NONE', #249 ) ;
#126 = ADVANCED_FACE ( 'NONE', ( #127 ), #152, .T. ) ;
#127 = FACE_OUTER_BOUND ( 'NONE', #256, .T. ) ;
#128 =( CONVERSION_BASED_UNIT ( 'INCH', #165 ) LENGTH_UNIT ( ) NAMED_UNIT ( #19 ) );
#129 = CARTESIAN_POINT ( 'NONE',  ( 0.1875000000000001388, 2.000000000000000000, 2.296212748401286185E-17 ) ) ;
#130 = MECHANICAL_DESIGN_GEOMETRIC_PRESENTATION_REPRESENTATION (  '', ( #55 ), #82 ) ;
#131 =( NAMED_UNIT ( * ) PLANE_ANGLE_UNIT ( ) SI_UNIT ( $, .RADIAN. ) );
#132 = DIRECTION ( 'NONE',  ( 0.000000000000000000, 0.000000000000000000, -1.000000000000000000 ) ) ;
#133 = SURFACE_STYLE_FILL_AREA ( #61 ) ;
#134 = ADVANCED_BREP_SHAPE_REPRESENTATION ( '01332', ( #14, #228, #284 ), #248 ) ;
#135 = ORIENTED_EDGE ( 'NONE', *, *, #221, .F. ) ;
#136 =( NAMED_UNIT ( * ) SI_UNIT ( $, .STERADIAN. ) SOLID_ANGLE_UNIT ( ) );
#137 = ADVANCED_FACE ( 'NONE', ( #182 ), #268, .T. ) ;
#138 = UNCERTAINTY_MEASURE_WITH_UNIT (LENGTH_MEASURE( 1.000000000000000082E-05 ), #41, 'distance_accuracy_value', 'NONE');
#139 = EDGE_LOOP ( 'NONE', ( #36, #135 ) ) ;
#140 =( CONVERSION_BASED_UNIT ( 'INCH', #296 ) LENGTH_UNIT ( ) NAMED_UNIT ( #276 ) );
#141 = ORIENTED_EDGE ( 'NONE', *, *, #287, .T. ) ;
#142 = DIRECTION ( 'NONE',  ( 0.000000000000000000, 1.000000000000000000, 0.000000000000000000 ) ) ;
#143 = DIRECTION ( 'NONE',  ( 1.632862398863137774E-16, 1.000000000000000000, -0.000000000000000000 ) ) ;
#144 = CIRCLE ( 'NONE', #258, 0.1875000000000000278 ) ;
#145 = FILL_AREA_STYLE ('',( #25 ) ) ;
#146 = DIRECTION ( 'NONE',  ( 1.632862398863137774E-16, 1.000000000000000000, -0.000000000000000000 ) ) ;
#147 = PRODUCT_DEFINITION_SHAPE ( 'NONE', 'NONE',  #155 ) ;
#148 = ORIENTED_EDGE ( 'NONE', *, *, #233, .T. ) ;
#149 = PRESENTATION_STYLE_ASSIGNMENT (( #306 ) ) ;
#150 = CARTESIAN_POINT ( 'NONE',  ( 2.449293598294706414E-16, 2.000000000000000000, 0.000000000000000000 ) ) ;
#151 =( GEOMETRIC_REPRESENTATION_CONTEXT ( 3 ) GLOBAL_UNCERTAINTY_ASSIGNED_CONTEXT ( ( #302 ) ) GLOBAL_UNIT_ASSIGNED_CONTEXT ( ( #251, #131, #2 ) ) REPRESENTATION_CONTEXT ( 'NONE', 'WORKASPACE' ) );
#152 = CYLINDRICAL_SURFACE ( 'NONE', #83, 0.1874999999999999167 ) ;
#153 = APPLICATION_CONTEXT ( 'automotive_design' ) ;
#154 = PLANE ( 'NONE',  #254 ) ;
#155 = PRODUCT_DEFINITION ( 'UNKNOWN', '', #181, #94 ) ;
#156 = PLANE ( 'NONE',  #295 ) ;
#157 = FILL_AREA_STYLE_COLOUR ( '', #105 ) ;
#158 = UNCERTAINTY_MEASURE_WITH_UNIT (LENGTH_MEASURE( 1.000000000000000082E-05 ), #21, 'distance_accuracy_value', 'NONE');
#159 = PRESENTATION_STYLE_ASSIGNMENT (( #180 ) ) ;
#160 = EDGE_LOOP ( 'NONE', ( #115, #141, #90, #16 ) ) ;
#161 = STYLED_ITEM ( 'NONE', ( #149 ), #14 ) ;
#162 = UNCERTAINTY_MEASURE_WITH_UNIT (LENGTH_MEASURE( 1.000000000000000082E-05 ), #45, 'distance_accuracy_value', 'NONE');
#163 = PLANE ( 'NONE',  #267 ) ;
#164 = VERTEX_POINT ( 'NONE', #104 ) ;
#165 = LENGTH_MEASURE_WITH_UNIT ( LENGTH_MEASURE( 0.02539999999999999897 ), #257 );
#166 =( NAMED_UNIT ( * ) SI_UNIT ( $, .STERADIAN. ) SOLID_ANGLE_UNIT ( ) );
#167 =( NAMED_UNIT ( * ) SI_UNIT ( $, .STERADIAN. ) SOLID_ANGLE_UNIT ( ) );
#168 = AXIS2_PLACEMENT_3D ( 'NONE', #203, #290, #78 ) ;
#169 = DIRECTION ( 'NONE',  ( -0.000000000000000000, -1.000000000000000000, -0.000000000000000000 ) ) ;
#170 = CARTESIAN_POINT ( 'NONE',  ( 2.296212748401287726E-17, 0.000000000000000000, 0.1875000000000000278 ) ) ;
#171 = DIRECTION ( 'NONE',  ( -0.000000000000000000, -1.000000000000000000, -0.000000000000000000 ) ) ;
#172 = DIRECTION ( 'NONE',  ( 1.000000000000000000, 0.000000000000000000, 0.000000000000000000 ) ) ;
#173 = AXIS2_PLACEMENT_3D ( 'NONE', #101, #169, #95 ) ;
#174 = FACE_OUTER_BOUND ( 'NONE', #273, .T. ) ;
#175 = EDGE_CURVE ( 'NONE', #252, #298, #35, .T. ) ;
#176 = MECHANICAL_DESIGN_GEOMETRIC_PRESENTATION_REPRESENTATION (  '', ( #237 ), #151 ) ;
#177 = DIRECTION ( 'NONE',  ( 1.632862398863137774E-16, 1.000000000000000000, -0.000000000000000000 ) ) ;
#178 = EDGE_CURVE ( 'NONE', #125, #42, #241, .T. ) ;
#179 = DIRECTION ( 'NONE',  ( 1.632862398863137774E-16, 1.000000000000000000, -0.000000000000000000 ) ) ;
#180 = SURFACE_STYLE_USAGE ( .BOTH. , #81 ) ;
#181 = PRODUCT_DEFINITION_FORMATION_WITH_SPECIFIED_SOURCE ( 'ANY', '', #67, .NOT_KNOWN. ) ;
#182 = FACE_OUTER_BOUND ( 'NONE', #160, .T. ) ;
#183 = ORIENTED_EDGE ( 'NONE', *, *, #38, .F. ) ;
#184 =( NAMED_UNIT ( * ) PLANE_ANGLE_UNIT ( ) SI_UNIT ( $, .RADIAN. ) );
#185 = DIMENSIONAL_EXPONENTS ( 1.000000000000000000, 0.000000000000000000, 0.000000000000000000, 0.000000000000000000, 0.000000000000000000, 0.000000000000000000, 0.000000000000000000 ) ;
#186 =( LENGTH_UNIT ( ) NAMED_UNIT ( * ) SI_UNIT ( $, .METRE. ) );
#187 = ADVANCED_FACE ( 'NONE', ( #53 ), #154, .F. ) ;
#188 = ORIENTED_EDGE ( 'NONE', *, *, #57, .T. ) ;
#189 = ORIENTED_EDGE ( 'NONE', *, *, #28, .T. ) ;
#190 = CARTESIAN_POINT ( 'NONE',  ( 0.000000000000000000, 0.5000000000000001110, 0.000000000000000000 ) ) ;
#191 = COLOUR_RGB ( '',1.000000000000000000, 0.000000000000000000, 0.000000000000000000 ) ;
#192 = SURFACE_STYLE_FILL_AREA ( #145 ) ;
#193 =( LENGTH_UNIT ( ) NAMED_UNIT ( * ) SI_UNIT ( $, .METRE. ) );
#194 = ADVANCED_FACE ( 'NONE', ( #3 ), #156, .T. ) ;
#195 = VERTEX_POINT ( 'NONE', #88 ) ;
#196 = UNCERTAINTY_MEASURE_WITH_UNIT (LENGTH_MEASURE( 1.000000000000000082E-05 ), #128, 'distance_accuracy_value', 'NONE');
#197 =( GEOMETRIC_REPRESENTATION_CONTEXT ( 3 ) GLOBAL_UNCERTAINTY_ASSIGNED_CONTEXT ( ( #49 ) ) GLOBAL_UNIT_ASSIGNED_CONTEXT ( ( #140, #184, #299 ) ) REPRESENTATION_CONTEXT ( 'NONE', 'WORKASPACE' ) );
#198 = DIRECTION ( 'NONE',  ( -1.000000000000000000, 0.000000000000000000, 0.000000000000000000 ) ) ;
#199 = APPLICATION_PROTOCOL_DEFINITION ( 'draft international standard', 'automotive_design', 1998, #153 ) ;
#200 = CARTESIAN_POINT ( 'NONE',  ( 0.000000000000000000, 0.5000000000000001110, 0.000000000000000000 ) ) ;
#201 = CARTESIAN_POINT ( 'NONE',  ( 0.000000000000000000, 0.000000000000000000, 0.000000000000000000 ) ) ;
#202 = STYLED_ITEM ( 'NONE', ( #84 ), #212 ) ;
#203 = CARTESIAN_POINT ( 'NONE',  ( 0.000000000000000000, 0.5000000000000001110, 0.000000000000000000 ) ) ;
#204 = DIRECTION ( 'NONE',  ( -1.632862398863137774E-16, -1.000000000000000000, 0.000000000000000000 ) ) ;
#205 = SURFACE_STYLE_FILL_AREA ( #108 ) ;
#206 = SURFACE_SIDE_STYLE ('',( #109 ) ) ;
#207 = COLOUR_RGB ( '',0.7921568627450980005, 0.8196078431372548767, 0.9333333333333333481 ) ;
#208 = SURFACE_STYLE_FILL_AREA ( #5 ) ;
#209 = ORIENTED_EDGE ( 'NONE', *, *, #97, .F. ) ;
#210 = CARTESIAN_POINT ( 'NONE',  ( 0.000000000000000000, 0.000000000000000000, 0.000000000000000000 ) ) ;
#211 = FILL_AREA_STYLE_COLOUR ( '', #207 ) ;
#212 = ADVANCED_FACE ( 'NONE', ( #8 ), #163, .T. ) ;
#213 = ORIENTED_EDGE ( 'NONE', *, *, #97, .T. ) ;
#214 = COLOUR_RGB ( '',1.000000000000000000, 0.000000000000000000, 0.000000000000000000 ) ;
#215 = PRESENTATION_LAYER_ASSIGNMENT (  '', '', ( #237 ) ) ;
#216 = APPLICATION_CONTEXT ( 'automotive_design' ) ;
#217 = UNCERTAINTY_MEASURE_WITH_UNIT (LENGTH_MEASURE( 1.000000000000000082E-05 ), #272, 'distance_accuracy_value', 'NONE');
#218 = DIRECTION ( 'NONE',  ( -1.000000000000000000, 0.000000000000000000, 0.000000000000000000 ) ) ;
#219 = VERTEX_POINT ( 'NONE', #112 ) ;
#220 = CARTESIAN_POINT ( 'NONE',  ( 0.000000000000000000, 0.000000000000000000, 0.000000000000000000 ) ) ;
#221 = EDGE_CURVE ( 'NONE', #298, #252, #44, .T. ) ;
#222 = DIRECTION ( 'NONE',  ( 1.632862398863137774E-16, 1.000000000000000000, -0.000000000000000000 ) ) ;
#223 = AXIS2_PLACEMENT_3D ( 'NONE', #201, #32, #132 ) ;
#224 = LENGTH_MEASURE_WITH_UNIT ( LENGTH_MEASURE( 0.02539999999999999897 ), #271 );
#225 = MECHANICAL_DESIGN_GEOMETRIC_PRESENTATION_REPRESENTATION (  '', ( #118 ), #6 ) ;
#226 = VECTOR ( 'NONE', #79, 39.37007874015748143 ) ;
#227 = SURFACE_STYLE_USAGE ( .BOTH. , #206 ) ;
#228 = MANIFOLD_SOLID_BREP ( 'Revolve - Tool Body (Straight Shanked)', #124 ) ;
#229 = LINE ( 'NONE', #129, #51 ) ;
#230 = COLOUR_RGB ( '',1.000000000000000000, 0.000000000000000000, 0.000000000000000000 ) ;
#231 = DIRECTION ( 'NONE',  ( 0.000000000000000000, 0.000000000000000000, -1.000000000000000000 ) ) ;
#232 = DIMENSIONAL_EXPONENTS ( 1.000000000000000000, 0.000000000000000000, 0.000000000000000000, 0.000000000000000000, 0.000000000000000000, 0.000000000000000000, 0.000000000000000000 ) ;
#233 = EDGE_CURVE ( 'NONE', #219, #59, #144, .T. ) ;
#234 = AXIS2_PLACEMENT_3D ( 'NONE', #264, #222, #218 ) ;
#235 = DIRECTION ( 'NONE',  ( -0.000000000000000000, -1.000000000000000000, -0.000000000000000000 ) ) ;
#236 = ORIENTED_EDGE ( 'NONE', *, *, #178, .F. ) ;
#237 = STYLED_ITEM ( 'NONE', ( #293 ), #137 ) ;
#238 = EDGE_LOOP ( 'NONE', ( #274, #111 ) ) ;
#239 = DIRECTION ( 'NONE',  ( 0.000000000000000000, -1.000000000000000000, -0.000000000000000000 ) ) ;
#240 = SURFACE_SIDE_STYLE ('',( #122 ) ) ;
#241 = CIRCLE ( 'NONE', #60, 0.1874999999999997780 ) ;
#242 = ORIENTED_EDGE ( 'NONE', *, *, #308, .T. ) ;
#243 = CARTESIAN_POINT ( 'NONE',  ( 2.499599637769763364E-33, 0.5000000000000001110, 0.000000000000000000 ) ) ;
#244 = CIRCLE ( 'NONE', #173, 0.1875000000000000278 ) ;
#245 = SHAPE_DEFINITION_REPRESENTATION ( #147, #134 ) ;
#246 = DIRECTION ( 'NONE',  ( 0.000000000000000000, 0.000000000000000000, -1.000000000000000000 ) ) ;
#247 = CARTESIAN_POINT ( 'NONE',  ( 0.1875000000000000278, 2.000000000000000000, 0.000000000000000000 ) ) ;
#248 =( GEOMETRIC_REPRESENTATION_CONTEXT ( 3 ) GLOBAL_UNCERTAINTY_ASSIGNED_CONTEXT ( ( #158 ) ) GLOBAL_UNIT_ASSIGNED_CONTEXT ( ( #21, #99, #167 ) ) REPRESENTATION_CONTEXT ( 'NONE', 'WORKASPACE' ) );
#249 = CARTESIAN_POINT ( 'NONE',  ( 0.1875000000000000278, 2.000000000000000000, 2.296212748401286493E-17 ) ) ;
#250 = DIRECTION ( 'NONE',  ( -1.000000000000000000, 0.000000000000000000, 0.000000000000000000 ) ) ;
#251 =( CONVERSION_BASED_UNIT ( 'INCH', #224 ) LENGTH_UNIT ( ) NAMED_UNIT ( #113 ) );
#252 = VERTEX_POINT ( 'NONE', #291 ) ;
#253 = SURFACE_SIDE_STYLE ('',( #133 ) ) ;
#254 = AXIS2_PLACEMENT_3D ( 'NONE', #247, #204, #292 ) ;
#255 = CARTESIAN_POINT ( 'NONE',  ( 0.000000000000000000, 0.5000000000000001110, 0.000000000000000000 ) ) ;
#256 = EDGE_LOOP ( 'NONE', ( #242, #213, #183, #117 ) ) ;
#257 =( LENGTH_UNIT ( ) NAMED_UNIT ( * ) SI_UNIT ( $, .METRE. ) );
#258 = AXIS2_PLACEMENT_3D ( 'NONE', #116, #72, #24 ) ;
#259 =( NAMED_UNIT ( * ) PLANE_ANGLE_UNIT ( ) SI_UNIT ( $, .RADIAN. ) );
#260 = DIMENSIONAL_EXPONENTS ( 1.000000000000000000, 0.000000000000000000, 0.000000000000000000, 0.000000000000000000, 0.000000000000000000, 0.000000000000000000, 0.000000000000000000 ) ;
#261 = PRESENTATION_LAYER_ASSIGNMENT (  '', '', ( #161 ) ) ;
#262 = CYLINDRICAL_SURFACE ( 'NONE', #30, 0.1874999999999999167 ) ;
#263 = DIRECTION ( 'NONE',  ( 1.632862398863137774E-16, 1.000000000000000000, -0.000000000000000000 ) ) ;
#264 = CARTESIAN_POINT ( 'NONE',  ( 2.449293598294706414E-16, 2.000000000000000000, 0.000000000000000000 ) ) ;
#265 = COLOUR_RGB ( '',0.7921568627450980005, 0.8196078431372548767, 0.9333333333333333481 ) ;
#266 = FILL_AREA_STYLE_COLOUR ( '', #214 ) ;
#267 = AXIS2_PLACEMENT_3D ( 'NONE', #190, #142, #13 ) ;
#268 = CYLINDRICAL_SURFACE ( 'NONE', #77, 0.1875000000000000278 ) ;
#269 = ADVANCED_FACE ( 'NONE', ( #278 ), #262, .T. ) ;
#270 = PRESENTATION_LAYER_ASSIGNMENT (  '', '', ( #55 ) ) ;
#271 =( LENGTH_UNIT ( ) NAMED_UNIT ( * ) SI_UNIT ( $, .METRE. ) );
#272 =( CONVERSION_BASED_UNIT ( 'INCH', #110 ) LENGTH_UNIT ( ) NAMED_UNIT ( #232 ) );
#273 = EDGE_LOOP ( 'NONE', ( #65, #46, #189, #62 ) ) ;
#274 = ORIENTED_EDGE ( 'NONE', *, *, #38, .T. ) ;
#275 = FILL_AREA_STYLE_COLOUR ( '', #191 ) ;
#276 = DIMENSIONAL_EXPONENTS ( 1.000000000000000000, 0.000000000000000000, 0.000000000000000000, 0.000000000000000000, 0.000000000000000000, 0.000000000000000000, 0.000000000000000000 ) ;
#277 = ORIENTED_EDGE ( 'NONE', *, *, #308, .F. ) ;
#278 = FACE_OUTER_BOUND ( 'NONE', #12, .T. ) ;
#279 = LENGTH_MEASURE_WITH_UNIT ( LENGTH_MEASURE( 0.02539999999999999897 ), #300 );
#280 =( LENGTH_UNIT ( ) NAMED_UNIT ( * ) SI_UNIT ( $, .METRE. ) );
#281 = CIRCLE ( 'NONE', #102, 0.1875000000000000278 ) ;
#282 = ADVANCED_FACE ( 'NONE', ( #123 ), #92, .F. ) ;
#283 = DIRECTION ( 'NONE',  ( -1.000000000000000000, 1.632862398863137774E-16, 0.000000000000000000 ) ) ;
#284 = AXIS2_PLACEMENT_3D ( 'NONE', #220, #286, #172 ) ;
#285 = CARTESIAN_POINT ( 'NONE',  ( 0.000000000000000000, 0.000000000000000000, -0.1875000000000000278 ) ) ;
#286 = DIRECTION ( 'NONE',  ( 0.000000000000000000, 0.000000000000000000, 1.000000000000000000 ) ) ;
#287 = EDGE_CURVE ( 'NONE', #298, #59, #304, .T. ) ;
#288 = CARTESIAN_POINT ( 'NONE',  ( 2.449293598294706414E-16, 2.000000000000000000, 0.000000000000000000 ) ) ;
#289 = PRESENTATION_LAYER_ASSIGNMENT (  '', '', ( #120 ) ) ;
#290 = DIRECTION ( 'NONE',  ( -0.000000000000000000, -1.000000000000000000, -0.000000000000000000 ) ) ;
#291 = CARTESIAN_POINT ( 'NONE',  ( 0.000000000000000000, 0.5000000000000001110, -0.1875000000000000278 ) ) ;
#292 = DIRECTION ( 'NONE',  ( 1.000000000000000000, -1.632862398863137774E-16, 0.000000000000000000 ) ) ;
#293 = PRESENTATION_STYLE_ASSIGNMENT (( #227 ) ) ;
#294 = ORIENTED_EDGE ( 'NONE', *, *, #48, .T. ) ;
#295 = AXIS2_PLACEMENT_3D ( 'NONE', #210, #239, #231 ) ;
#296 = LENGTH_MEASURE_WITH_UNIT ( LENGTH_MEASURE( 0.02539999999999999897 ), #85 );
#297 = MECHANICAL_DESIGN_GEOMETRIC_PRESENTATION_REPRESENTATION (  '', ( #161 ), #70 ) ;
#298 = VERTEX_POINT ( 'NONE', #96 ) ;
#299 =( NAMED_UNIT ( * ) SI_UNIT ( $, .STERADIAN. ) SOLID_ANGLE_UNIT ( ) );
#300 =( LENGTH_UNIT ( ) NAMED_UNIT ( * ) SI_UNIT ( $, .METRE. ) );
#301 = AXIS2_PLACEMENT_3D ( 'NONE', #255, #235, #34 ) ;
#302 = UNCERTAINTY_MEASURE_WITH_UNIT (LENGTH_MEASURE( 1.000000000000000082E-05 ), #251, 'distance_accuracy_value', 'NONE');
#303 = CARTESIAN_POINT ( 'NONE',  ( 2.296212748401287726E-17, 0.000000000000000000, 0.1875000000000000278 ) ) ;
#304 = LINE ( 'NONE', #170, #226 ) ;
#305 =( NAMED_UNIT ( * ) PLANE_ANGLE_UNIT ( ) SI_UNIT ( $, .RADIAN. ) );
#306 = SURFACE_STYLE_USAGE ( .BOTH. , #68 ) ;
#307 = CARTESIAN_POINT ( 'NONE',  ( -0.1874999999999995282, 2.000000000000000000, 0.000000000000000000 ) ) ;
#308 = EDGE_CURVE ( 'NONE', #164, #195, #1, .T. ) ;
#309 = CARTESIAN_POINT ( 'NONE',  ( 0.000000000000000000, 0.000000000000000000, 0.000000000000000000 ) ) ;
ENDSEC;
END-ISO-10303-21;
