ISO-10303-21;
HEADER;
FILE_DESCRIPTION (( 'STEP AP214' ),
    '1' );
FILE_NAME ('26347.STEP',
    '2023-06-22T17:42:04',
    ( '' ),
    ( '' ),
    'SwSTEP 2.0',
    'SolidWorks 2023',
    '' );
FILE_SCHEMA (( 'AUTOMOTIVE_DESIGN' ));
ENDSEC;

DATA;
#1 = AXIS2_PLACEMENT_3D ( 'NONE', #32, #246, #248 ) ;
#2 = DIRECTION ( 'NONE',  ( 0.000000000000000000, 0.000000000000000000, -1.000000000000000000 ) ) ;
#3 = DIRECTION ( 'NONE',  ( 3.265724797726275178E-17, -1.000000000000000000, 0.000000000000000000 ) ) ;
#4 = PLANE ( 'NONE',  #99 ) ;
#5 = ORIENTED_EDGE ( 'NONE', *, *, #37, .F. ) ;
#6 = STYLED_ITEM ( 'NONE', ( #150 ), #230 ) ;
#7 = DIRECTION ( 'NONE',  ( -3.265724797726275178E-17, 1.000000000000000000, -0.000000000000000000 ) ) ;
#8 = CARTESIAN_POINT ( 'NONE',  ( 0.000000000000000000, 0.000000000000000000, -0.3125000000000000000 ) ) ;
#9 = PRESENTATION_LAYER_ASSIGNMENT (  '', '', ( #204 ) ) ;
#10 = CARTESIAN_POINT ( 'NONE',  ( -0.3125000000000000000, 2.125000000000000000, 0.000000000000000000 ) ) ;
#11 = EDGE_LOOP ( 'NONE', ( #108, #202, #268, #110 ) ) ;
#12 = CARTESIAN_POINT ( 'NONE',  ( -6.123233995736766036E-17, 4.000000000000000000, 0.000000000000000000 ) ) ;
#13 = VERTEX_POINT ( 'NONE', #156 ) ;
#14 = ORIENTED_EDGE ( 'NONE', *, *, #199, .T. ) ;
#15 = FILL_AREA_STYLE_COLOUR ( '', #181 ) ;
#16 = FILL_AREA_STYLE_COLOUR ( '', #153 ) ;
#17 = APPLICATION_CONTEXT ( 'automotive_design' ) ;
#18 =( CONVERSION_BASED_UNIT ( 'INCH', #142 ) LENGTH_UNIT ( ) NAMED_UNIT ( #117 ) );
#19 =( LENGTH_UNIT ( ) NAMED_UNIT ( * ) SI_UNIT ( $, .METRE. ) );
#20 = FACE_OUTER_BOUND ( 'NONE', #249, .T. ) ;
#21 = SURFACE_STYLE_USAGE ( .BOTH. , #309 ) ;
#22 = DIMENSIONAL_EXPONENTS ( 1.000000000000000000, 0.000000000000000000, 0.000000000000000000, 0.000000000000000000, 0.000000000000000000, 0.000000000000000000, 0.000000000000000000 ) ;
#23 = DIMENSIONAL_EXPONENTS ( 1.000000000000000000, 0.000000000000000000, 0.000000000000000000, 0.000000000000000000, 0.000000000000000000, 0.000000000000000000, 0.000000000000000000 ) ;
#24 = CARTESIAN_POINT ( 'NONE',  ( 0.3125000000000000000, 4.000000000000000000, 3.827021247335478926E-17 ) ) ;
#25 = CYLINDRICAL_SURFACE ( 'NONE', #45, 0.3125000000000000000 ) ;
#26 = LINE ( 'NONE', #146, #41 ) ;
#27 = VERTEX_POINT ( 'NONE', #109 ) ;
#28 = STYLED_ITEM ( 'NONE', ( #68 ), #55 ) ;
#29 = AXIS2_PLACEMENT_3D ( 'NONE', #12, #300, #90 ) ;
#30 = FACE_OUTER_BOUND ( 'NONE', #35, .T. ) ;
#31 = DIRECTION ( 'NONE',  ( -0.000000000000000000, -1.000000000000000000, -0.000000000000000000 ) ) ;
#32 = CARTESIAN_POINT ( 'NONE',  ( 0.000000000000000000, 2.125000000000000000, 0.000000000000000000 ) ) ;
#33 = AXIS2_PLACEMENT_3D ( 'NONE', #265, #3, #77 ) ;
#34 =( LENGTH_UNIT ( ) NAMED_UNIT ( * ) SI_UNIT ( $, .METRE. ) );
#35 = EDGE_LOOP ( 'NONE', ( #157, #51 ) ) ;
#36 =( CONVERSION_BASED_UNIT ( 'INCH', #129 ) LENGTH_UNIT ( ) NAMED_UNIT ( #235 ) );
#37 = EDGE_CURVE ( 'NONE', #266, #13, #40, .T. ) ;
#38 = ORIENTED_EDGE ( 'NONE', *, *, #143, .F. ) ;
#39 = SURFACE_SIDE_STYLE ('',( #252 ) ) ;
#40 = LINE ( 'NONE', #134, #53 ) ;
#41 = VECTOR ( 'NONE', #97, 39.37007874015748143 ) ;
#42 = LENGTH_MEASURE_WITH_UNIT ( LENGTH_MEASURE( 0.02539999999999999897 ), #210 );
#43 =( CONVERSION_BASED_UNIT ( 'INCH', #260 ) LENGTH_UNIT ( ) NAMED_UNIT ( #215 ) );
#44 = DIRECTION ( 'NONE',  ( -0.000000000000000000, -1.000000000000000000, -0.000000000000000000 ) ) ;
#45 = AXIS2_PLACEMENT_3D ( 'NONE', #203, #105, #175 ) ;
#46 = DIMENSIONAL_EXPONENTS ( 1.000000000000000000, 0.000000000000000000, 0.000000000000000000, 0.000000000000000000, 0.000000000000000000, 0.000000000000000000, 0.000000000000000000 ) ;
#47 =( NAMED_UNIT ( * ) PLANE_ANGLE_UNIT ( ) SI_UNIT ( $, .RADIAN. ) );
#48 = CARTESIAN_POINT ( 'NONE',  ( 1.666399758513175262E-34, 2.125000000000000000, 0.000000000000000000 ) ) ;
#49 =( GEOMETRIC_REPRESENTATION_CONTEXT ( 3 ) GLOBAL_UNCERTAINTY_ASSIGNED_CONTEXT ( ( #193 ) ) GLOBAL_UNIT_ASSIGNED_CONTEXT ( ( #141, #47, #209 ) ) REPRESENTATION_CONTEXT ( 'NONE', 'WORKASPACE' ) );
#50 = FACE_OUTER_BOUND ( 'NONE', #81, .T. ) ;
#51 = ORIENTED_EDGE ( 'NONE', *, *, #306, .F. ) ;
#52 = DIRECTION ( 'NONE',  ( 0.000000000000000000, 0.000000000000000000, -1.000000000000000000 ) ) ;
#53 = VECTOR ( 'NONE', #228, 39.37007874015748143 ) ;
#54 = VECTOR ( 'NONE', #132, 39.37007874015748143 ) ;
#55 = MANIFOLD_SOLID_BREP ( 'Revolve - Cutting Edge', #186 ) ;
#56 = CARTESIAN_POINT ( 'NONE',  ( 0.3125000000000000000, 2.125000000000000000, 3.827021247335478926E-17 ) ) ;
#57 = PRODUCT_DEFINITION ( 'UNKNOWN', '', #223, #289 ) ;
#58 = MANIFOLD_SOLID_BREP ( 'Revolve - Tool Body (Straight Shanked)', #274 ) ;
#59 = FACE_OUTER_BOUND ( 'NONE', #200, .T. ) ;
#60 = ADVANCED_FACE ( 'NONE', ( #20 ), #303, .T. ) ;
#61 = COLOUR_RGB ( '',0.7921568627450980005, 0.8196078431372548767, 0.9333333333333333481 ) ;
#62 = SURFACE_SIDE_STYLE ('',( #221 ) ) ;
#63 = VERTEX_POINT ( 'NONE', #98 ) ;
#64 = ORIENTED_EDGE ( 'NONE', *, *, #253, .T. ) ;
#65 = SURFACE_STYLE_FILL_AREA ( #114 ) ;
#66 = COLOUR_RGB ( '',1.000000000000000000, 0.000000000000000000, 0.000000000000000000 ) ;
#67 = AXIS2_PLACEMENT_3D ( 'NONE', #158, #44, #91 ) ;
#68 = PRESENTATION_STYLE_ASSIGNMENT (( #187 ) ) ;
#69 = APPLICATION_PROTOCOL_DEFINITION ( 'draft international standard', 'automotive_design', 1998, #161 ) ;
#70 = PRESENTATION_STYLE_ASSIGNMENT (( #112 ) ) ;
#71 = LENGTH_MEASURE_WITH_UNIT ( LENGTH_MEASURE( 0.02539999999999999897 ), #73 );
#72 =( NAMED_UNIT ( * ) SI_UNIT ( $, .STERADIAN. ) SOLID_ANGLE_UNIT ( ) );
#73 =( LENGTH_UNIT ( ) NAMED_UNIT ( * ) SI_UNIT ( $, .METRE. ) );
#74 =( GEOMETRIC_REPRESENTATION_CONTEXT ( 3 ) GLOBAL_UNCERTAINTY_ASSIGNED_CONTEXT ( ( #82 ) ) GLOBAL_UNIT_ASSIGNED_CONTEXT ( ( #36, #201, #155 ) ) REPRESENTATION_CONTEXT ( 'NONE', 'WORKASPACE' ) );
#75 = CARTESIAN_POINT ( 'NONE',  ( 0.000000000000000000, 0.000000000000000000, 0.000000000000000000 ) ) ;
#76 = FACE_OUTER_BOUND ( 'NONE', #106, .T. ) ;
#77 = DIRECTION ( 'NONE',  ( 1.000000000000000000, 3.265724797726275178E-17, 0.000000000000000000 ) ) ;
#78 =( GEOMETRIC_REPRESENTATION_CONTEXT ( 3 ) GLOBAL_UNCERTAINTY_ASSIGNED_CONTEXT ( ( #267 ) ) GLOBAL_UNIT_ASSIGNED_CONTEXT ( ( #79, #262, #291 ) ) REPRESENTATION_CONTEXT ( 'NONE', 'WORKASPACE' ) );
#79 =( CONVERSION_BASED_UNIT ( 'INCH', #294 ) LENGTH_UNIT ( ) NAMED_UNIT ( #167 ) );
#80 = ADVANCED_BREP_SHAPE_REPRESENTATION ( '26347', ( #55, #58, #113 ), #271 ) ;
#81 = EDGE_LOOP ( 'NONE', ( #131, #242, #152, #147 ) ) ;
#82 = UNCERTAINTY_MEASURE_WITH_UNIT (LENGTH_MEASURE( 1.000000000000000082E-05 ), #36, 'distance_accuracy_value', 'NONE');
#83 = SURFACE_STYLE_USAGE ( .BOTH. , #62 ) ;
#84 = AXIS2_PLACEMENT_3D ( 'NONE', #122, #241, #52 ) ;
#85 = EDGE_CURVE ( 'NONE', #273, #227, #26, .T. ) ;
#86 = FILL_AREA_STYLE_COLOUR ( '', #277 ) ;
#87 = ORIENTED_EDGE ( 'NONE', *, *, #253, .F. ) ;
#88 = AXIS2_PLACEMENT_3D ( 'NONE', #236, #171, #292 ) ;
#89 = CIRCLE ( 'NONE', #130, 0.3125000000000000000 ) ;
#90 = DIRECTION ( 'NONE',  ( -1.000000000000000000, 0.000000000000000000, 0.000000000000000000 ) ) ;
#91 = DIRECTION ( 'NONE',  ( 0.000000000000000000, 0.000000000000000000, -1.000000000000000000 ) ) ;
#92 = DIRECTION ( 'NONE',  ( -3.265724797726275178E-17, 1.000000000000000000, -0.000000000000000000 ) ) ;
#93 = CARTESIAN_POINT ( 'NONE',  ( 0.000000000000000000, 0.000000000000000000, 0.000000000000000000 ) ) ;
#94 = CIRCLE ( 'NONE', #124, 0.3125000000000000555 ) ;
#95 = AXIS2_PLACEMENT_3D ( 'NONE', #304, #92, #111 ) ;
#96 = ADVANCED_FACE ( 'NONE', ( #30 ), #4, .F. ) ;
#97 = DIRECTION ( 'NONE',  ( -3.265724797726275178E-17, 1.000000000000000000, -0.000000000000000000 ) ) ;
#98 = CARTESIAN_POINT ( 'NONE',  ( 0.000000000000000000, 2.125000000000000000, -0.3125000000000000000 ) ) ;
#99 = AXIS2_PLACEMENT_3D ( 'NONE', #48, #244, #213 ) ;
#100 = ORIENTED_EDGE ( 'NONE', *, *, #185, .T. ) ;
#101 = COLOUR_RGB ( '',1.000000000000000000, 0.000000000000000000, 0.000000000000000000 ) ;
#102 = PRODUCT_DEFINITION_SHAPE ( 'NONE', 'NONE',  #57 ) ;
#103 = FILL_AREA_STYLE_COLOUR ( '', #66 ) ;
#104 = DIRECTION ( 'NONE',  ( 0.000000000000000000, 0.000000000000000000, -1.000000000000000000 ) ) ;
#105 = DIRECTION ( 'NONE',  ( -0.000000000000000000, -1.000000000000000000, -0.000000000000000000 ) ) ;
#106 = EDGE_LOOP ( 'NONE', ( #178, #121, #225, #295 ) ) ;
#107 = CYLINDRICAL_SURFACE ( 'NONE', #67, 0.3125000000000000000 ) ;
#108 = ORIENTED_EDGE ( 'NONE', *, *, #247, .T. ) ;
#109 = CARTESIAN_POINT ( 'NONE',  ( 0.000000000000000000, 0.000000000000000000, -0.3125000000000000000 ) ) ;
#110 = ORIENTED_EDGE ( 'NONE', *, *, #85, .F. ) ;
#111 = DIRECTION ( 'NONE',  ( -1.000000000000000000, 0.000000000000000000, 0.000000000000000000 ) ) ;
#112 = SURFACE_STYLE_USAGE ( .BOTH. , #138 ) ;
#113 = AXIS2_PLACEMENT_3D ( 'NONE', #93, #140, #137 ) ;
#114 = FILL_AREA_STYLE ('',( #16 ) ) ;
#115 = APPLICATION_PROTOCOL_DEFINITION ( 'draft international standard', 'automotive_design', 1998, #17 ) ;
#116 = FILL_AREA_STYLE_COLOUR ( '', #61 ) ;
#117 = DIMENSIONAL_EXPONENTS ( 1.000000000000000000, 0.000000000000000000, 0.000000000000000000, 0.000000000000000000, 0.000000000000000000, 0.000000000000000000, 0.000000000000000000 ) ;
#118 = PRESENTATION_LAYER_ASSIGNMENT (  '', '', ( #245 ) ) ;
#119 = CARTESIAN_POINT ( 'NONE',  ( -6.123233995736766036E-17, 4.000000000000000000, 0.000000000000000000 ) ) ;
#120 = SURFACE_SIDE_STYLE ('',( #195 ) ) ;
#121 = ORIENTED_EDGE ( 'NONE', *, *, #306, .T. ) ;
#122 = CARTESIAN_POINT ( 'NONE',  ( 0.000000000000000000, 0.000000000000000000, 0.000000000000000000 ) ) ;
#123 = ADVANCED_FACE ( 'NONE', ( #76 ), #126, .T. ) ;
#124 = AXIS2_PLACEMENT_3D ( 'NONE', #119, #7, #144 ) ;
#125 = AXIS2_PLACEMENT_3D ( 'NONE', #272, #127, #104 ) ;
#126 = CYLINDRICAL_SURFACE ( 'NONE', #88, 0.3125000000000000000 ) ;
#127 = DIRECTION ( 'NONE',  ( -0.000000000000000000, -1.000000000000000000, -0.000000000000000000 ) ) ;
#128 = EDGE_CURVE ( 'NONE', #219, #174, #191, .T. ) ;
#129 = LENGTH_MEASURE_WITH_UNIT ( LENGTH_MEASURE( 0.02539999999999999897 ), #34 );
#130 = AXIS2_PLACEMENT_3D ( 'NONE', #198, #31, #224 ) ;
#131 = ORIENTED_EDGE ( 'NONE', *, *, #143, .T. ) ;
#132 = DIRECTION ( 'NONE',  ( -0.000000000000000000, -1.000000000000000000, -0.000000000000000000 ) ) ;
#133 =( LENGTH_UNIT ( ) NAMED_UNIT ( * ) SI_UNIT ( $, .METRE. ) );
#134 = CARTESIAN_POINT ( 'NONE',  ( 3.827021247335478926E-17, 0.000000000000000000, 0.3125000000000000000 ) ) ;
#135 = AXIS2_PLACEMENT_3D ( 'NONE', #263, #145, #239 ) ;
#136 = CIRCLE ( 'NONE', #95, 0.3125000000000000000 ) ;
#137 = DIRECTION ( 'NONE',  ( 1.000000000000000000, 0.000000000000000000, 0.000000000000000000 ) ) ;
#138 = SURFACE_SIDE_STYLE ('',( #258 ) ) ;
#139 = ADVANCED_FACE ( 'NONE', ( #220 ), #293, .T. ) ;
#140 = DIRECTION ( 'NONE',  ( 0.000000000000000000, 0.000000000000000000, 1.000000000000000000 ) ) ;
#141 =( CONVERSION_BASED_UNIT ( 'INCH', #42 ) LENGTH_UNIT ( ) NAMED_UNIT ( #22 ) );
#142 = LENGTH_MEASURE_WITH_UNIT ( LENGTH_MEASURE( 0.02539999999999999897 ), #231 );
#143 = EDGE_CURVE ( 'NONE', #63, #266, #176, .T. ) ;
#144 = DIRECTION ( 'NONE',  ( -1.000000000000000000, 0.000000000000000000, 0.000000000000000000 ) ) ;
#145 = DIRECTION ( 'NONE',  ( -3.265724797726275178E-17, 1.000000000000000000, -0.000000000000000000 ) ) ;
#146 = CARTESIAN_POINT ( 'NONE',  ( -0.3125000000000000555, 4.000000000000000000, 0.000000000000000000 ) ) ;
#147 = ORIENTED_EDGE ( 'NONE', *, *, #279, .F. ) ;
#148 = DIRECTION ( 'NONE',  ( 0.000000000000000000, -0.000000000000000000, 1.000000000000000000 ) ) ;
#149 = PRODUCT_RELATED_PRODUCT_CATEGORY ( 'part', '', ( #172 ) ) ;
#150 = PRESENTATION_STYLE_ASSIGNMENT (( #83 ) ) ;
#151 = LINE ( 'NONE', #8, #54 ) ;
#152 = ORIENTED_EDGE ( 'NONE', *, *, #182, .F. ) ;
#153 = COLOUR_RGB ( '',1.000000000000000000, 0.000000000000000000, 0.000000000000000000 ) ;
#154 = MECHANICAL_DESIGN_GEOMETRIC_PRESENTATION_REPRESENTATION (  '', ( #6 ), #74 ) ;
#155 =( NAMED_UNIT ( * ) SI_UNIT ( $, .STERADIAN. ) SOLID_ANGLE_UNIT ( ) );
#156 = CARTESIAN_POINT ( 'NONE',  ( 3.827021247335478926E-17, 0.000000000000000000, 0.3125000000000000000 ) ) ;
#157 = ORIENTED_EDGE ( 'NONE', *, *, #247, .F. ) ;
#158 = CARTESIAN_POINT ( 'NONE',  ( 0.000000000000000000, 0.000000000000000000, 0.000000000000000000 ) ) ;
#159 =( NAMED_UNIT ( * ) SI_UNIT ( $, .STERADIAN. ) SOLID_ANGLE_UNIT ( ) );
#160 =( GEOMETRIC_REPRESENTATION_CONTEXT ( 3 ) GLOBAL_UNCERTAINTY_ASSIGNED_CONTEXT ( ( #243 ) ) GLOBAL_UNIT_ASSIGNED_CONTEXT ( ( #43, #282, #232 ) ) REPRESENTATION_CONTEXT ( 'NONE', 'WORKASPACE' ) );
#161 = APPLICATION_CONTEXT ( 'automotive_design' ) ;
#162 = SHAPE_DEFINITION_REPRESENTATION ( #102, #80 ) ;
#163 =( NAMED_UNIT ( * ) PLANE_ANGLE_UNIT ( ) SI_UNIT ( $, .RADIAN. ) );
#164 =( CONVERSION_BASED_UNIT ( 'INCH', #71 ) LENGTH_UNIT ( ) NAMED_UNIT ( #23 ) );
#165 = AXIS2_PLACEMENT_3D ( 'NONE', #177, #226, #148 ) ;
#166 =( NAMED_UNIT ( * ) PLANE_ANGLE_UNIT ( ) SI_UNIT ( $, .RADIAN. ) );
#167 = DIMENSIONAL_EXPONENTS ( 1.000000000000000000, 0.000000000000000000, 0.000000000000000000, 0.000000000000000000, 0.000000000000000000, 0.000000000000000000, 0.000000000000000000 ) ;
#168 = DIRECTION ( 'NONE',  ( -0.000000000000000000, -1.000000000000000000, -0.000000000000000000 ) ) ;
#169 = DIRECTION ( 'NONE',  ( -3.265724797726275178E-17, 1.000000000000000000, -0.000000000000000000 ) ) ;
#170 = UNCERTAINTY_MEASURE_WITH_UNIT (LENGTH_MEASURE( 1.000000000000000082E-05 ), #257, 'distance_accuracy_value', 'NONE');
#171 = DIRECTION ( 'NONE',  ( -3.265724797726275178E-17, 1.000000000000000000, -0.000000000000000000 ) ) ;
#172 = PRODUCT ( '26347', '26347', '', ( #285 ) ) ;
#173 = FILL_AREA_STYLE ('',( #103 ) ) ;
#174 = VERTEX_POINT ( 'NONE', #24 ) ;
#175 = DIRECTION ( 'NONE',  ( 0.000000000000000000, 0.000000000000000000, -1.000000000000000000 ) ) ;
#176 = CIRCLE ( 'NONE', #211, 0.3125000000000000000 ) ;
#177 = CARTESIAN_POINT ( 'NONE',  ( 0.000000000000000000, 2.125000000000000000, 0.000000000000000000 ) ) ;
#178 = ORIENTED_EDGE ( 'NONE', *, *, #128, .F. ) ;
#179 = UNCERTAINTY_MEASURE_WITH_UNIT (LENGTH_MEASURE( 1.000000000000000082E-05 ), #164, 'distance_accuracy_value', 'NONE');
#180 = PRESENTATION_STYLE_ASSIGNMENT (( #297 ) ) ;
#181 = COLOUR_RGB ( '',0.7921568627450980005, 0.8196078431372548767, 0.9333333333333333481 ) ;
#182 = EDGE_CURVE ( 'NONE', #27, #13, #217, .T. ) ;
#183 = FACE_OUTER_BOUND ( 'NONE', #278, .T. ) ;
#184 = EDGE_LOOP ( 'NONE', ( #281, #100 ) ) ;
#185 = EDGE_CURVE ( 'NONE', #174, #227, #94, .T. ) ;
#186 = CLOSED_SHELL ( 'NONE', ( #196, #230, #290, #60 ) ) ;
#187 = SURFACE_STYLE_USAGE ( .BOTH. , #305 ) ;
#188 = ADVANCED_FACE ( 'NONE', ( #218 ), #190, .F. ) ;
#189 = FILL_AREA_STYLE ('',( #116 ) ) ;
#190 = PLANE ( 'NONE',  #33 ) ;
#191 = LINE ( 'NONE', #192, #222 ) ;
#192 = CARTESIAN_POINT ( 'NONE',  ( 0.3124999999999999445, 4.000000000000000000, 3.827021247335478926E-17 ) ) ;
#193 = UNCERTAINTY_MEASURE_WITH_UNIT (LENGTH_MEASURE( 1.000000000000000082E-05 ), #141, 'distance_accuracy_value', 'NONE');
#194 =( LENGTH_UNIT ( ) NAMED_UNIT ( * ) SI_UNIT ( $, .METRE. ) );
#195 = SURFACE_STYLE_FILL_AREA ( #173 ) ;
#196 = ADVANCED_FACE ( 'NONE', ( #50 ), #25, .T. ) ;
#197 = FILL_AREA_STYLE ('',( #298 ) ) ;
#198 = CARTESIAN_POINT ( 'NONE',  ( 0.000000000000000000, 0.000000000000000000, 0.000000000000000000 ) ) ;
#199 = EDGE_CURVE ( 'NONE', #13, #27, #89, .T. ) ;
#200 = EDGE_LOOP ( 'NONE', ( #38, #87 ) ) ;
#201 =( NAMED_UNIT ( * ) PLANE_ANGLE_UNIT ( ) SI_UNIT ( $, .RADIAN. ) );
#202 = ORIENTED_EDGE ( 'NONE', *, *, #128, .T. ) ;
#203 = CARTESIAN_POINT ( 'NONE',  ( 0.000000000000000000, 0.000000000000000000, 0.000000000000000000 ) ) ;
#204 = STYLED_ITEM ( 'NONE', ( #70 ), #58 ) ;
#205 = MECHANICAL_DESIGN_GEOMETRIC_PRESENTATION_REPRESENTATION (  '', ( #245 ), #212 ) ;
#206 = ORIENTED_EDGE ( 'NONE', *, *, #182, .T. ) ;
#207 = LENGTH_MEASURE_WITH_UNIT ( LENGTH_MEASURE( 0.02539999999999999897 ), #133 );
#208 =( NAMED_UNIT ( * ) PLANE_ANGLE_UNIT ( ) SI_UNIT ( $, .RADIAN. ) );
#209 =( NAMED_UNIT ( * ) SI_UNIT ( $, .STERADIAN. ) SOLID_ANGLE_UNIT ( ) );
#210 =( LENGTH_UNIT ( ) NAMED_UNIT ( * ) SI_UNIT ( $, .METRE. ) );
#211 = AXIS2_PLACEMENT_3D ( 'NONE', #240, #168, #214 ) ;
#212 =( GEOMETRIC_REPRESENTATION_CONTEXT ( 3 ) GLOBAL_UNCERTAINTY_ASSIGNED_CONTEXT ( ( #170 ) ) GLOBAL_UNIT_ASSIGNED_CONTEXT ( ( #257, #163, #72 ) ) REPRESENTATION_CONTEXT ( 'NONE', 'WORKASPACE' ) );
#213 = DIRECTION ( 'NONE',  ( -1.000000000000000000, -3.265724797726275178E-17, 0.000000000000000000 ) ) ;
#214 = DIRECTION ( 'NONE',  ( 0.000000000000000000, 0.000000000000000000, -1.000000000000000000 ) ) ;
#215 = DIMENSIONAL_EXPONENTS ( 1.000000000000000000, 0.000000000000000000, 0.000000000000000000, 0.000000000000000000, 0.000000000000000000, 0.000000000000000000, 0.000000000000000000 ) ;
#216 = PRESENTATION_STYLE_ASSIGNMENT (( #296 ) ) ;
#217 = CIRCLE ( 'NONE', #84, 0.3125000000000000000 ) ;
#218 = FACE_OUTER_BOUND ( 'NONE', #184, .T. ) ;
#219 = VERTEX_POINT ( 'NONE', #56 ) ;
#220 = FACE_OUTER_BOUND ( 'NONE', #11, .T. ) ;
#221 = SURFACE_STYLE_FILL_AREA ( #197 ) ;
#222 = VECTOR ( 'NONE', #169, 39.37007874015748143 ) ;
#223 = PRODUCT_DEFINITION_FORMATION_WITH_SPECIFIED_SOURCE ( 'ANY', '', #172, .NOT_KNOWN. ) ;
#224 = DIRECTION ( 'NONE',  ( 0.000000000000000000, 0.000000000000000000, -1.000000000000000000 ) ) ;
#225 = ORIENTED_EDGE ( 'NONE', *, *, #85, .T. ) ;
#226 = DIRECTION ( 'NONE',  ( 0.000000000000000000, 1.000000000000000000, 0.000000000000000000 ) ) ;
#227 = VERTEX_POINT ( 'NONE', #275 ) ;
#228 = DIRECTION ( 'NONE',  ( -0.000000000000000000, -1.000000000000000000, -0.000000000000000000 ) ) ;
#229 = STYLED_ITEM ( 'NONE', ( #254 ), #60 ) ;
#230 = ADVANCED_FACE ( 'NONE', ( #59 ), #251, .T. ) ;
#231 =( LENGTH_UNIT ( ) NAMED_UNIT ( * ) SI_UNIT ( $, .METRE. ) );
#232 =( NAMED_UNIT ( * ) SI_UNIT ( $, .STERADIAN. ) SOLID_ANGLE_UNIT ( ) );
#233 = MECHANICAL_DESIGN_GEOMETRIC_PRESENTATION_REPRESENTATION (  '', ( #204 ), #49 ) ;
#234 = UNCERTAINTY_MEASURE_WITH_UNIT (LENGTH_MEASURE( 1.000000000000000082E-05 ), #18, 'distance_accuracy_value', 'NONE');
#235 = DIMENSIONAL_EXPONENTS ( 1.000000000000000000, 0.000000000000000000, 0.000000000000000000, 0.000000000000000000, 0.000000000000000000, 0.000000000000000000, 0.000000000000000000 ) ;
#236 = CARTESIAN_POINT ( 'NONE',  ( -6.123233995736766036E-17, 4.000000000000000000, 0.000000000000000000 ) ) ;
#237 = PRESENTATION_LAYER_ASSIGNMENT (  '', '', ( #261 ) ) ;
#238 = CIRCLE ( 'NONE', #29, 0.3125000000000000555 ) ;
#239 = DIRECTION ( 'NONE',  ( -1.000000000000000000, 0.000000000000000000, 0.000000000000000000 ) ) ;
#240 = CARTESIAN_POINT ( 'NONE',  ( 0.000000000000000000, 2.125000000000000000, 0.000000000000000000 ) ) ;
#241 = DIRECTION ( 'NONE',  ( -0.000000000000000000, -1.000000000000000000, -0.000000000000000000 ) ) ;
#242 = ORIENTED_EDGE ( 'NONE', *, *, #37, .T. ) ;
#243 = UNCERTAINTY_MEASURE_WITH_UNIT (LENGTH_MEASURE( 1.000000000000000082E-05 ), #43, 'distance_accuracy_value', 'NONE');
#244 = DIRECTION ( 'NONE',  ( -3.265724797726275178E-17, 1.000000000000000000, 0.000000000000000000 ) ) ;
#245 = STYLED_ITEM ( 'NONE', ( #180 ), #290 ) ;
#246 = DIRECTION ( 'NONE',  ( -3.265724797726275178E-17, 1.000000000000000000, -0.000000000000000000 ) ) ;
#247 = EDGE_CURVE ( 'NONE', #273, #219, #256, .T. ) ;
#248 = DIRECTION ( 'NONE',  ( -1.000000000000000000, 0.000000000000000000, 0.000000000000000000 ) ) ;
#249 = EDGE_LOOP ( 'NONE', ( #206, #14 ) ) ;
#250 = CIRCLE ( 'NONE', #125, 0.3125000000000000000 ) ;
#251 = PLANE ( 'NONE',  #165 ) ;
#252 = SURFACE_STYLE_FILL_AREA ( #280 ) ;
#253 = EDGE_CURVE ( 'NONE', #266, #63, #250, .T. ) ;
#254 = PRESENTATION_STYLE_ASSIGNMENT (( #21 ) ) ;
#255 = MECHANICAL_DESIGN_GEOMETRIC_PRESENTATION_REPRESENTATION (  '', ( #261 ), #78 ) ;
#256 = CIRCLE ( 'NONE', #1, 0.3125000000000000000 ) ;
#257 =( CONVERSION_BASED_UNIT ( 'INCH', #207 ) LENGTH_UNIT ( ) NAMED_UNIT ( #46 ) );
#258 = SURFACE_STYLE_FILL_AREA ( #189 ) ;
#259 =( NAMED_UNIT ( * ) SI_UNIT ( $, .STERADIAN. ) SOLID_ANGLE_UNIT ( ) );
#260 = LENGTH_MEASURE_WITH_UNIT ( LENGTH_MEASURE( 0.02539999999999999897 ), #19 );
#261 = STYLED_ITEM ( 'NONE', ( #216 ), #196 ) ;
#262 =( NAMED_UNIT ( * ) PLANE_ANGLE_UNIT ( ) SI_UNIT ( $, .RADIAN. ) );
#263 = CARTESIAN_POINT ( 'NONE',  ( -6.123233995736766036E-17, 4.000000000000000000, 0.000000000000000000 ) ) ;
#264 = MECHANICAL_DESIGN_GEOMETRIC_PRESENTATION_REPRESENTATION (  '', ( #229 ), #270 ) ;
#265 = CARTESIAN_POINT ( 'NONE',  ( 0.3125000000000000000, 4.000000000000000000, 0.000000000000000000 ) ) ;
#266 = VERTEX_POINT ( 'NONE', #302 ) ;
#267 = UNCERTAINTY_MEASURE_WITH_UNIT (LENGTH_MEASURE( 1.000000000000000082E-05 ), #79, 'distance_accuracy_value', 'NONE');
#268 = ORIENTED_EDGE ( 'NONE', *, *, #287, .F. ) ;
#269 = DIRECTION ( 'NONE',  ( 0.000000000000000000, -1.000000000000000000, -0.000000000000000000 ) ) ;
#270 =( GEOMETRIC_REPRESENTATION_CONTEXT ( 3 ) GLOBAL_UNCERTAINTY_ASSIGNED_CONTEXT ( ( #179 ) ) GLOBAL_UNIT_ASSIGNED_CONTEXT ( ( #164, #166, #159 ) ) REPRESENTATION_CONTEXT ( 'NONE', 'WORKASPACE' ) );
#271 =( GEOMETRIC_REPRESENTATION_CONTEXT ( 3 ) GLOBAL_UNCERTAINTY_ASSIGNED_CONTEXT ( ( #234 ) ) GLOBAL_UNIT_ASSIGNED_CONTEXT ( ( #18, #208, #259 ) ) REPRESENTATION_CONTEXT ( 'NONE', 'WORKASPACE' ) );
#272 = CARTESIAN_POINT ( 'NONE',  ( 0.000000000000000000, 2.125000000000000000, 0.000000000000000000 ) ) ;
#273 = VERTEX_POINT ( 'NONE', #10 ) ;
#274 = CLOSED_SHELL ( 'NONE', ( #139, #96, #123, #188 ) ) ;
#275 = CARTESIAN_POINT ( 'NONE',  ( -0.3125000000000001665, 4.000000000000000000, 0.000000000000000000 ) ) ;
#276 = PRESENTATION_LAYER_ASSIGNMENT (  '', '', ( #229 ) ) ;
#277 = COLOUR_RGB ( '',1.000000000000000000, 0.000000000000000000, 0.000000000000000000 ) ;
#278 = EDGE_LOOP ( 'NONE', ( #5, #64, #301, #299 ) ) ;
#279 = EDGE_CURVE ( 'NONE', #63, #27, #151, .T. ) ;
#280 = FILL_AREA_STYLE ('',( #86 ) ) ;
#281 = ORIENTED_EDGE ( 'NONE', *, *, #287, .T. ) ;
#282 =( NAMED_UNIT ( * ) PLANE_ANGLE_UNIT ( ) SI_UNIT ( $, .RADIAN. ) );
#283 = SURFACE_STYLE_FILL_AREA ( #286 ) ;
#284 = AXIS2_PLACEMENT_3D ( 'NONE', #75, #269, #2 ) ;
#285 = PRODUCT_CONTEXT ( 'NONE', #17, 'mechanical' ) ;
#286 = FILL_AREA_STYLE ('',( #15 ) ) ;
#287 = EDGE_CURVE ( 'NONE', #227, #174, #238, .T. ) ;
#288 = PRESENTATION_LAYER_ASSIGNMENT (  '', '', ( #28 ) ) ;
#289 = PRODUCT_DEFINITION_CONTEXT ( 'detailed design', #161, 'design' ) ;
#290 = ADVANCED_FACE ( 'NONE', ( #183 ), #107, .T. ) ;
#291 =( NAMED_UNIT ( * ) SI_UNIT ( $, .STERADIAN. ) SOLID_ANGLE_UNIT ( ) );
#292 = DIRECTION ( 'NONE',  ( -1.000000000000000000, 0.000000000000000000, 0.000000000000000000 ) ) ;
#293 = CYLINDRICAL_SURFACE ( 'NONE', #135, 0.3125000000000000000 ) ;
#294 = LENGTH_MEASURE_WITH_UNIT ( LENGTH_MEASURE( 0.02539999999999999897 ), #194 );
#295 = ORIENTED_EDGE ( 'NONE', *, *, #185, .F. ) ;
#296 = SURFACE_STYLE_USAGE ( .BOTH. , #120 ) ;
#297 = SURFACE_STYLE_USAGE ( .BOTH. , #39 ) ;
#298 = FILL_AREA_STYLE_COLOUR ( '', #101 ) ;
#299 = ORIENTED_EDGE ( 'NONE', *, *, #199, .F. ) ;
#300 = DIRECTION ( 'NONE',  ( -3.265724797726275178E-17, 1.000000000000000000, -0.000000000000000000 ) ) ;
#301 = ORIENTED_EDGE ( 'NONE', *, *, #279, .T. ) ;
#302 = CARTESIAN_POINT ( 'NONE',  ( 3.827021247335478926E-17, 2.125000000000000000, 0.3125000000000000000 ) ) ;
#303 = PLANE ( 'NONE',  #284 ) ;
#304 = CARTESIAN_POINT ( 'NONE',  ( 0.000000000000000000, 2.125000000000000000, 0.000000000000000000 ) ) ;
#305 = SURFACE_SIDE_STYLE ('',( #283 ) ) ;
#306 = EDGE_CURVE ( 'NONE', #219, #273, #136, .T. ) ;
#307 = MECHANICAL_DESIGN_GEOMETRIC_PRESENTATION_REPRESENTATION (  '', ( #28 ), #160 ) ;
#308 = PRESENTATION_LAYER_ASSIGNMENT (  '', '', ( #6 ) ) ;
#309 = SURFACE_SIDE_STYLE ('',( #65 ) ) ;
ENDSEC;
END-ISO-10303-21;
