ISO-10303-21;
HEADER;
FILE_DESCRIPTION (( 'STEP AP214' ),
    '1' );
FILE_NAME ('59814.STEP',
    '2023-07-12T13:05:58',
    ( '' ),
    ( '' ),
    'SwSTEP 2.0',
    'SolidWorks 2023',
    '' );
FILE_SCHEMA (( 'AUTOMOTIVE_DESIGN' ));
ENDSEC;

DATA;
#1 = CYLINDRICAL_SURFACE ( 'NONE', #225, 0.2499999999999998890 ) ;
#2 = MECHANICAL_DESIGN_GEOMETRIC_PRESENTATION_REPRESENTATION (  '', ( #154 ), #60 ) ;
#3 =( CONVERSION_BASED_UNIT ( 'INCH', #96 ) LENGTH_UNIT ( ) NAMED_UNIT ( #228 ) );
#4 = DIRECTION ( 'NONE',  ( -1.206031236776656774E-16, 1.000000000000000000, -0.000000000000000000 ) ) ;
#5 = CARTESIAN_POINT ( 'NONE',  ( 2.793254433903104166E-16, 0.1762109225472281715, 0.000000000000000000 ) ) ;
#6 = VERTEX_POINT ( 'NONE', #239 ) ;
#7 = DIRECTION ( 'NONE',  ( -1.206031236776656774E-16, 1.000000000000000000, 0.000000000000000000 ) ) ;
#8 = DIRECTION ( 'NONE',  ( -1.000000000000000000, 0.000000000000000000, 0.000000000000000000 ) ) ;
#9 =( CONVERSION_BASED_UNIT ( 'INCH', #288 ) LENGTH_UNIT ( ) NAMED_UNIT ( #247 ) );
#10 = STYLED_ITEM ( 'NONE', ( #32 ), #200 ) ;
#11 = ADVANCED_FACE ( 'NONE', ( #42 ), #1, .T. ) ;
#12 = DIRECTION ( 'NONE',  ( -0.000000000000000000, -1.000000000000000000, -0.000000000000000000 ) ) ;
#13 = CARTESIAN_POINT ( 'NONE',  ( 0.000000000000000000, 0.000000000000000000, 0.000000000000000000 ) ) ;
#14 = ORIENTED_EDGE ( 'NONE', *, *, #39, .F. ) ;
#15 = CARTESIAN_POINT ( 'NONE',  ( 3.061616997868383018E-17, 0.1762109225472281993, -0.2500000000000000000 ) ) ;
#16 = EDGE_LOOP ( 'NONE', ( #14, #130 ) ) ;
#17 = AXIS2_PLACEMENT_3D ( 'NONE', #249, #12, #137 ) ;
#18 = ADVANCED_FACE ( 'NONE', ( #191 ), #94, .T. ) ;
#19 = DIRECTION ( 'NONE',  ( -1.206031236776656774E-16, 1.000000000000000000, -0.000000000000000000 ) ) ;
#20 = ORIENTED_EDGE ( 'NONE', *, *, #258, .F. ) ;
#21 =( LENGTH_UNIT ( ) NAMED_UNIT ( * ) SI_UNIT ( $, .METRE. ) );
#22 = AXIS2_PLACEMENT_3D ( 'NONE', #157, #181, #156 ) ;
#23 = MECHANICAL_DESIGN_GEOMETRIC_PRESENTATION_REPRESENTATION (  '', ( #10 ), #226 ) ;
#24 = DIRECTION ( 'NONE',  ( -1.206031236776656774E-16, 1.000000000000000000, -0.000000000000000000 ) ) ;
#25 = ORIENTED_EDGE ( 'NONE', *, *, #150, .F. ) ;
#26 = CARTESIAN_POINT ( 'NONE',  ( 0.000000000000000000, 0.000000000000000000, 0.04000000000000000083 ) ) ;
#27 =( LENGTH_UNIT ( ) NAMED_UNIT ( * ) SI_UNIT ( $, .METRE. ) );
#28 = VERTEX_POINT ( 'NONE', #188 ) ;
#29 = AXIS2_PLACEMENT_3D ( 'NONE', #151, #7, #81 ) ;
#30 = DIMENSIONAL_EXPONENTS ( 1.000000000000000000, 0.000000000000000000, 0.000000000000000000, 0.000000000000000000, 0.000000000000000000, 0.000000000000000000, 0.000000000000000000 ) ;
#31 = SURFACE_SIDE_STYLE ('',( #77 ) ) ;
#32 = PRESENTATION_STYLE_ASSIGNMENT (( #83 ) ) ;
#33 = EDGE_CURVE ( 'NONE', #78, #100, #304, .T. ) ;
#34 = DIRECTION ( 'NONE',  ( 9.381338752702743107E-17, 0.6427876096865380307, -0.7660444431189791237 ) ) ;
#35 = COLOUR_RGB ( '',1.000000000000000000, 0.000000000000000000, 0.000000000000000000 ) ;
#36 = AXIS2_PLACEMENT_3D ( 'NONE', #122, #265, #195 ) ;
#37 = DIMENSIONAL_EXPONENTS ( 1.000000000000000000, 0.000000000000000000, 0.000000000000000000, 0.000000000000000000, 0.000000000000000000, 0.000000000000000000, 0.000000000000000000 ) ;
#38 = CARTESIAN_POINT ( 'NONE',  ( 2.793254433903104166E-16, 0.1762109225472281715, 0.000000000000000000 ) ) ;
#39 = EDGE_CURVE ( 'NONE', #100, #78, #120, .T. ) ;
#40 = CARTESIAN_POINT ( 'NONE',  ( 0.000000000000000000, 0.000000000000000000, 0.04000000000000000083 ) ) ;
#41 = PRESENTATION_STYLE_ASSIGNMENT (( #227 ) ) ;
#42 = FACE_OUTER_BOUND ( 'NONE', #69, .T. ) ;
#43 = EDGE_LOOP ( 'NONE', ( #302, #119, #92, #261 ) ) ;
#44 = ORIENTED_EDGE ( 'NONE', *, *, #213, .F. ) ;
#45 = PRODUCT ( '59814', '59814', '', ( #79 ) ) ;
#46 = PRESENTATION_STYLE_ASSIGNMENT (( #260 ) ) ;
#47 = CARTESIAN_POINT ( 'NONE',  ( -6.123233995736772199E-17, 3.000000000000000444, 0.000000000000000000 ) ) ;
#48 = VECTOR ( 'NONE', #34, 39.37007874015748143 ) ;
#49 = DIRECTION ( 'NONE',  ( -0.000000000000000000, -1.000000000000000000, -0.000000000000000000 ) ) ;
#50 = EDGE_LOOP ( 'NONE', ( #170, #290, #219, #173 ) ) ;
#51 = VERTEX_POINT ( 'NONE', #139 ) ;
#52 =( NAMED_UNIT ( * ) SI_UNIT ( $, .STERADIAN. ) SOLID_ANGLE_UNIT ( ) );
#53 = FILL_AREA_STYLE ('',( #101 ) ) ;
#54 =( CONVERSION_BASED_UNIT ( 'INCH', #108 ) LENGTH_UNIT ( ) NAMED_UNIT ( #37 ) );
#55 = CIRCLE ( 'NONE', #214, 0.2500000000000000555 ) ;
#56 = FILL_AREA_STYLE ('',( #294 ) ) ;
#57 =( NAMED_UNIT ( * ) PLANE_ANGLE_UNIT ( ) SI_UNIT ( $, .RADIAN. ) );
#58 =( NAMED_UNIT ( * ) SI_UNIT ( $, .STERADIAN. ) SOLID_ANGLE_UNIT ( ) );
#59 = STYLED_ITEM ( 'NONE', ( #251 ), #84 ) ;
#60 =( GEOMETRIC_REPRESENTATION_CONTEXT ( 3 ) GLOBAL_UNCERTAINTY_ASSIGNED_CONTEXT ( ( #229 ) ) GLOBAL_UNIT_ASSIGNED_CONTEXT ( ( #90, #297, #58 ) ) REPRESENTATION_CONTEXT ( 'NONE', 'WORKASPACE' ) );
#61 = PRESENTATION_STYLE_ASSIGNMENT (( #112 ) ) ;
#62 =( GEOMETRIC_REPRESENTATION_CONTEXT ( 3 ) GLOBAL_UNCERTAINTY_ASSIGNED_CONTEXT ( ( #152 ) ) GLOBAL_UNIT_ASSIGNED_CONTEXT ( ( #3, #74, #259 ) ) REPRESENTATION_CONTEXT ( 'NONE', 'WORKASPACE' ) );
#63 = VERTEX_POINT ( 'NONE', #306 ) ;
#64 = SURFACE_SIDE_STYLE ('',( #254 ) ) ;
#65 = ORIENTED_EDGE ( 'NONE', *, *, #285, .F. ) ;
#66 = LINE ( 'NONE', #237, #145 ) ;
#67 = SURFACE_STYLE_FILL_AREA ( #279 ) ;
#68 = LINE ( 'NONE', #215, #174 ) ;
#69 = EDGE_LOOP ( 'NONE', ( #20, #124, #163, #25 ) ) ;
#70 = CLOSED_SHELL ( 'NONE', ( #246, #203, #200, #250 ) ) ;
#71 = PRESENTATION_LAYER_ASSIGNMENT (  '', '', ( #10 ) ) ;
#72 = PRODUCT_DEFINITION_FORMATION_WITH_SPECIFIED_SOURCE ( 'ANY', '', #45, .NOT_KNOWN. ) ;
#73 = PRODUCT_DEFINITION ( 'UNKNOWN', '', #72, #224 ) ;
#74 =( NAMED_UNIT ( * ) PLANE_ANGLE_UNIT ( ) SI_UNIT ( $, .RADIAN. ) );
#75 = LENGTH_MEASURE_WITH_UNIT ( LENGTH_MEASURE( 0.02539999999999999897 ), #27 );
#76 = STYLED_ITEM ( 'NONE', ( #61 ), #246 ) ;
#77 = SURFACE_STYLE_FILL_AREA ( #56 ) ;
#78 = VERTEX_POINT ( 'NONE', #15 ) ;
#79 = PRODUCT_CONTEXT ( 'NONE', #266, 'mechanical' ) ;
#80 = CARTESIAN_POINT ( 'NONE',  ( 0.000000000000000000, 0.000000000000000000, 0.000000000000000000 ) ) ;
#81 = DIRECTION ( 'NONE',  ( -1.000000000000000000, -1.206031236776656774E-16, 0.000000000000000000 ) ) ;
#82 =( LENGTH_UNIT ( ) NAMED_UNIT ( * ) SI_UNIT ( $, .METRE. ) );
#83 = SURFACE_STYLE_USAGE ( .BOTH. , #218 ) ;
#84 = MANIFOLD_SOLID_BREP ( 'Revolve - Tool Body (Tipped Off)', #134 ) ;
#85 = CIRCLE ( 'NONE', #305, 0.2499999999999997224 ) ;
#86 =( NAMED_UNIT ( * ) SI_UNIT ( $, .STERADIAN. ) SOLID_ANGLE_UNIT ( ) );
#87 = MANIFOLD_SOLID_BREP ( 'Revolve - Cutting Edge', #70 ) ;
#88 = LENGTH_MEASURE_WITH_UNIT ( LENGTH_MEASURE( 0.02539999999999999897 ), #206 );
#89 = CARTESIAN_POINT ( 'NONE',  ( -6.123233995736772199E-17, 3.000000000000000444, 0.000000000000000000 ) ) ;
#90 =( CONVERSION_BASED_UNIT ( 'INCH', #303 ) LENGTH_UNIT ( ) NAMED_UNIT ( #30 ) );
#91 = AXIS2_PLACEMENT_3D ( 'NONE', #47, #121, #93 ) ;
#92 = ORIENTED_EDGE ( 'NONE', *, *, #285, .T. ) ;
#93 = DIRECTION ( 'NONE',  ( -1.000000000000000000, 0.000000000000000000, 0.000000000000000000 ) ) ;
#94 = CYLINDRICAL_SURFACE ( 'NONE', #91, 0.2499999999999998890 ) ;
#95 = EDGE_CURVE ( 'NONE', #6, #63, #289, .T. ) ;
#96 = LENGTH_MEASURE_WITH_UNIT ( LENGTH_MEASURE( 0.02539999999999999897 ), #21 );
#97 = DIRECTION ( 'NONE',  ( -1.000000000000000000, 0.000000000000000000, 0.000000000000000000 ) ) ;
#98 = CONICAL_SURFACE ( 'NONE', #271, 0.04000000000000000083, 0.8726646259971664321 ) ;
#99 = AXIS2_PLACEMENT_3D ( 'NONE', #111, #202, #275 ) ;
#100 = VERTEX_POINT ( 'NONE', #123 ) ;
#101 = FILL_AREA_STYLE_COLOUR ( '', #248 ) ;
#102 = EDGE_CURVE ( 'NONE', #6, #28, #68, .T. ) ;
#103 = MECHANICAL_DESIGN_GEOMETRIC_PRESENTATION_REPRESENTATION (  '', ( #59 ), #128 ) ;
#104 = EDGE_LOOP ( 'NONE', ( #116, #44 ) ) ;
#105 = APPLICATION_PROTOCOL_DEFINITION ( 'draft international standard', 'automotive_design', 1998, #266 ) ;
#106 = DIRECTION ( 'NONE',  ( -1.206031236776656774E-16, 1.000000000000000000, -0.000000000000000000 ) ) ;
#107 = PRESENTATION_LAYER_ASSIGNMENT (  '', '', ( #295 ) ) ;
#108 = LENGTH_MEASURE_WITH_UNIT ( LENGTH_MEASURE( 0.02539999999999999897 ), #132 );
#109 = SURFACE_SIDE_STYLE ('',( #160 ) ) ;
#110 = UNCERTAINTY_MEASURE_WITH_UNIT (LENGTH_MEASURE( 1.000000000000000082E-05 ), #125, 'distance_accuracy_value', 'NONE');
#111 = CARTESIAN_POINT ( 'NONE',  ( 0.000000000000000000, 0.000000000000000000, 0.000000000000000000 ) ) ;
#112 = SURFACE_STYLE_USAGE ( .BOTH. , #109 ) ;
#113 = MECHANICAL_DESIGN_GEOMETRIC_PRESENTATION_REPRESENTATION (  '', ( #76 ), #190 ) ;
#114 = VECTOR ( 'NONE', #280, 39.37007874015748143 ) ;
#115 = FACE_OUTER_BOUND ( 'NONE', #127, .T. ) ;
#116 = ORIENTED_EDGE ( 'NONE', *, *, #95, .F. ) ;
#117 = EDGE_CURVE ( 'NONE', #235, #281, #241, .T. ) ;
#118 = FACE_OUTER_BOUND ( 'NONE', #223, .T. ) ;
#119 = ORIENTED_EDGE ( 'NONE', *, *, #117, .F. ) ;
#120 = CIRCLE ( 'NONE', #204, 0.2500000000000000000 ) ;
#121 = DIRECTION ( 'NONE',  ( -1.206031236776656774E-16, 1.000000000000000000, -0.000000000000000000 ) ) ;
#122 = CARTESIAN_POINT ( 'NONE',  ( 0.000000000000000000, 0.000000000000000000, 0.000000000000000000 ) ) ;
#123 = CARTESIAN_POINT ( 'NONE',  ( 0.000000000000000000, 0.1762109225472281993, 0.2500000000000000000 ) ) ;
#124 = ORIENTED_EDGE ( 'NONE', *, *, #213, .T. ) ;
#125 =( CONVERSION_BASED_UNIT ( 'INCH', #75 ) LENGTH_UNIT ( ) NAMED_UNIT ( #286 ) );
#126 = FACE_OUTER_BOUND ( 'NONE', #148, .T. ) ;
#127 = EDGE_LOOP ( 'NONE', ( #143, #161 ) ) ;
#128 =( GEOMETRIC_REPRESENTATION_CONTEXT ( 3 ) GLOBAL_UNCERTAINTY_ASSIGNED_CONTEXT ( ( #272 ) ) GLOBAL_UNIT_ASSIGNED_CONTEXT ( ( #162, #169, #187 ) ) REPRESENTATION_CONTEXT ( 'NONE', 'WORKASPACE' ) );
#129 = CARTESIAN_POINT ( 'NONE',  ( 0.2500000000000000000, 3.000000000000000444, 0.000000000000000000 ) ) ;
#130 = ORIENTED_EDGE ( 'NONE', *, *, #33, .F. ) ;
#131 = SURFACE_STYLE_USAGE ( .BOTH. , #31 ) ;
#132 =( LENGTH_UNIT ( ) NAMED_UNIT ( * ) SI_UNIT ( $, .METRE. ) );
#133 = UNCERTAINTY_MEASURE_WITH_UNIT (LENGTH_MEASURE( 1.000000000000000082E-05 ), #182, 'distance_accuracy_value', 'NONE');
#134 = CLOSED_SHELL ( 'NONE', ( #18, #176, #11, #185 ) ) ;
#135 =( NAMED_UNIT ( * ) SI_UNIT ( $, .STERADIAN. ) SOLID_ANGLE_UNIT ( ) );
#136 =( GEOMETRIC_REPRESENTATION_CONTEXT ( 3 ) GLOBAL_UNCERTAINTY_ASSIGNED_CONTEXT ( ( #110 ) ) GLOBAL_UNIT_ASSIGNED_CONTEXT ( ( #125, #307, #52 ) ) REPRESENTATION_CONTEXT ( 'NONE', 'WORKASPACE' ) );
#137 = DIRECTION ( 'NONE',  ( 0.000000000000000000, 0.000000000000000000, -1.000000000000000000 ) ) ;
#138 = PRESENTATION_LAYER_ASSIGNMENT (  '', '', ( #154 ) ) ;
#139 = CARTESIAN_POINT ( 'NONE',  ( 0.2500000000000000000, 3.000000000000000444, 3.061616997868382402E-17 ) ) ;
#140 = PLANE ( 'NONE',  #99 ) ;
#141 = DIRECTION ( 'NONE',  ( 0.000000000000000000, 0.000000000000000000, -1.000000000000000000 ) ) ;
#142 = COLOUR_RGB ( '',0.7921568627450980005, 0.8196078431372548767, 0.9333333333333333481 ) ;
#143 = ORIENTED_EDGE ( 'NONE', *, *, #117, .T. ) ;
#144 = DIRECTION ( 'NONE',  ( -0.000000000000000000, -1.000000000000000000, -0.000000000000000000 ) ) ;
#145 = VECTOR ( 'NONE', #287, 39.37007874015748143 ) ;
#146 = EDGE_CURVE ( 'NONE', #281, #78, #211, .T. ) ;
#147 = FACE_OUTER_BOUND ( 'NONE', #104, .T. ) ;
#148 = EDGE_LOOP ( 'NONE', ( #193, #268 ) ) ;
#149 =( NAMED_UNIT ( * ) PLANE_ANGLE_UNIT ( ) SI_UNIT ( $, .RADIAN. ) );
#150 = EDGE_CURVE ( 'NONE', #51, #28, #238, .T. ) ;
#151 = CARTESIAN_POINT ( 'NONE',  ( 2.793254433903104166E-16, 0.1762109225472281993, 0.000000000000000000 ) ) ;
#152 = UNCERTAINTY_MEASURE_WITH_UNIT (LENGTH_MEASURE( 1.000000000000000082E-05 ), #3, 'distance_accuracy_value', 'NONE');
#153 = PRESENTATION_STYLE_ASSIGNMENT (( #131 ) ) ;
#154 = STYLED_ITEM ( 'NONE', ( #41 ), #250 ) ;
#155 = DIRECTION ( 'NONE',  ( -1.206031236776656774E-16, 1.000000000000000000, -0.000000000000000000 ) ) ;
#156 = DIRECTION ( 'NONE',  ( 0.000000000000000000, -0.000000000000000000, 1.000000000000000000 ) ) ;
#157 = CARTESIAN_POINT ( 'NONE',  ( 0.000000000000000000, 0.1762109225472281715, 0.000000000000000000 ) ) ;
#158 = AXIS2_PLACEMENT_3D ( 'NONE', #175, #106, #8 ) ;
#159 = DIRECTION ( 'NONE',  ( 0.000000000000000000, 0.000000000000000000, -1.000000000000000000 ) ) ;
#160 = SURFACE_STYLE_FILL_AREA ( #201 ) ;
#161 = ORIENTED_EDGE ( 'NONE', *, *, #234, .T. ) ;
#162 =( CONVERSION_BASED_UNIT ( 'INCH', #284 ) LENGTH_UNIT ( ) NAMED_UNIT ( #207 ) );
#163 = ORIENTED_EDGE ( 'NONE', *, *, #102, .T. ) ;
#164 = APPLICATION_PROTOCOL_DEFINITION ( 'draft international standard', 'automotive_design', 1998, #278 ) ;
#165 = FILL_AREA_STYLE ('',( #309 ) ) ;
#166 = MECHANICAL_DESIGN_GEOMETRIC_PRESENTATION_REPRESENTATION (  '', ( #295 ), #62 ) ;
#167 = DIRECTION ( 'NONE',  ( -0.000000000000000000, -1.000000000000000000, -0.000000000000000000 ) ) ;
#168 = UNCERTAINTY_MEASURE_WITH_UNIT (LENGTH_MEASURE( 1.000000000000000082E-05 ), #9, 'distance_accuracy_value', 'NONE');
#169 =( NAMED_UNIT ( * ) PLANE_ANGLE_UNIT ( ) SI_UNIT ( $, .RADIAN. ) );
#170 = ORIENTED_EDGE ( 'NONE', *, *, #95, .T. ) ;
#171 = DIRECTION ( 'NONE',  ( -1.000000000000000000, -1.365923996832133088E-16, 0.000000000000000000 ) ) ;
#172 = AXIS2_PLACEMENT_3D ( 'NONE', #212, #144, #159 ) ;
#173 = ORIENTED_EDGE ( 'NONE', *, *, #102, .F. ) ;
#174 = VECTOR ( 'NONE', #4, 39.37007874015748143 ) ;
#175 = CARTESIAN_POINT ( 'NONE',  ( -6.123233995736772199E-17, 3.000000000000000444, 0.000000000000000000 ) ) ;
#176 = ADVANCED_FACE ( 'NONE', ( #147 ), #267, .F. ) ;
#177 = DIRECTION ( 'NONE',  ( 0.000000000000000000, 0.000000000000000000, 1.000000000000000000 ) ) ;
#178 = DIRECTION ( 'NONE',  ( 1.000000000000000000, 1.206031236776656774E-16, 0.000000000000000000 ) ) ;
#179 = SURFACE_STYLE_USAGE ( .BOTH. , #308 ) ;
#180 = COLOUR_RGB ( '',1.000000000000000000, 0.000000000000000000, 0.000000000000000000 ) ;
#181 = DIRECTION ( 'NONE',  ( 0.000000000000000000, 1.000000000000000000, 0.000000000000000000 ) ) ;
#182 =( CONVERSION_BASED_UNIT ( 'INCH', #88 ) LENGTH_UNIT ( ) NAMED_UNIT ( #292 ) );
#183 = ORIENTED_EDGE ( 'NONE', *, *, #146, .T. ) ;
#184 = FILL_AREA_STYLE_COLOUR ( '', #282 ) ;
#185 = ADVANCED_FACE ( 'NONE', ( #126 ), #197, .F. ) ;
#186 = CARTESIAN_POINT ( 'NONE',  ( 1.775737858763662224E-17, 0.000000000000000000, -0.04000000000000000083 ) ) ;
#187 =( NAMED_UNIT ( * ) SI_UNIT ( $, .STERADIAN. ) SOLID_ANGLE_UNIT ( ) );
#188 = CARTESIAN_POINT ( 'NONE',  ( -0.2500000000000001110, 3.000000000000000444, 0.000000000000000000 ) ) ;
#189 =( LENGTH_UNIT ( ) NAMED_UNIT ( * ) SI_UNIT ( $, .METRE. ) );
#190 =( GEOMETRIC_REPRESENTATION_CONTEXT ( 3 ) GLOBAL_UNCERTAINTY_ASSIGNED_CONTEXT ( ( #133 ) ) GLOBAL_UNIT_ASSIGNED_CONTEXT ( ( #182, #298, #86 ) ) REPRESENTATION_CONTEXT ( 'NONE', 'WORKASPACE' ) );
#191 = FACE_OUTER_BOUND ( 'NONE', #50, .T. ) ;
#192 = DIRECTION ( 'NONE',  ( -1.000000000000000000, 0.000000000000000000, 0.000000000000000000 ) ) ;
#193 = ORIENTED_EDGE ( 'NONE', *, *, #256, .T. ) ;
#194 = AXIS2_PLACEMENT_3D ( 'NONE', #5, #24, #171 ) ;
#195 = DIRECTION ( 'NONE',  ( 1.000000000000000000, 0.000000000000000000, 0.000000000000000000 ) ) ;
#196 = CARTESIAN_POINT ( 'NONE',  ( 4.898587196589413537E-18, 0.000000000000000000, -0.04000000000000000083 ) ) ;
#197 = PLANE ( 'NONE',  #253 ) ;
#198 = SURFACE_STYLE_FILL_AREA ( #53 ) ;
#199 = PRESENTATION_LAYER_ASSIGNMENT (  '', '', ( #264 ) ) ;
#200 = ADVANCED_FACE ( 'NONE', ( #293 ), #210, .T. ) ;
#201 = FILL_AREA_STYLE ('',( #301 ) ) ;
#202 = DIRECTION ( 'NONE',  ( 0.000000000000000000, -1.000000000000000000, -0.000000000000000000 ) ) ;
#203 = ADVANCED_FACE ( 'NONE', ( #269 ), #245, .T. ) ;
#204 = AXIS2_PLACEMENT_3D ( 'NONE', #255, #167, #233 ) ;
#205 = AXIS2_PLACEMENT_3D ( 'NONE', #263, #49, #141 ) ;
#206 =( LENGTH_UNIT ( ) NAMED_UNIT ( * ) SI_UNIT ( $, .METRE. ) );
#207 = DIMENSIONAL_EXPONENTS ( 1.000000000000000000, 0.000000000000000000, 0.000000000000000000, 0.000000000000000000, 0.000000000000000000, 0.000000000000000000, 0.000000000000000000 ) ;
#208 = FILL_AREA_STYLE ('',( #276 ) ) ;
#209 = LINE ( 'NONE', #26, #114 ) ;
#210 = CONICAL_SURFACE ( 'NONE', #274, 0.04000000000000000083, 0.8726646259971664321 ) ;
#211 = LINE ( 'NONE', #196, #48 ) ;
#212 = CARTESIAN_POINT ( 'NONE',  ( 0.000000000000000000, 0.1762109225472281993, 0.000000000000000000 ) ) ;
#213 = EDGE_CURVE ( 'NONE', #63, #6, #85, .T. ) ;
#214 = AXIS2_PLACEMENT_3D ( 'NONE', #216, #277, #192 ) ;
#215 = CARTESIAN_POINT ( 'NONE',  ( -0.2499999999999999722, 3.000000000000000444, 0.000000000000000000 ) ) ;
#216 = CARTESIAN_POINT ( 'NONE',  ( -6.123233995736772199E-17, 3.000000000000000444, 0.000000000000000000 ) ) ;
#217 = ORIENTED_EDGE ( 'NONE', *, *, #234, .F. ) ;
#218 = SURFACE_SIDE_STYLE ('',( #198 ) ) ;
#219 = ORIENTED_EDGE ( 'NONE', *, *, #256, .F. ) ;
#220 =( GEOMETRIC_REPRESENTATION_CONTEXT ( 3 ) GLOBAL_UNCERTAINTY_ASSIGNED_CONTEXT ( ( #168 ) ) GLOBAL_UNIT_ASSIGNED_CONTEXT ( ( #9, #57, #135 ) ) REPRESENTATION_CONTEXT ( 'NONE', 'WORKASPACE' ) );
#221 = ADVANCED_BREP_SHAPE_REPRESENTATION ( '59814', ( #87, #84, #36 ), #136 ) ;
#222 = DIRECTION ( 'NONE',  ( 0.000000000000000000, 1.000000000000000000, 0.000000000000000000 ) ) ;
#223 = EDGE_LOOP ( 'NONE', ( #217, #183, #242, #65 ) ) ;
#224 = PRODUCT_DEFINITION_CONTEXT ( 'detailed design', #278, 'design' ) ;
#225 = AXIS2_PLACEMENT_3D ( 'NONE', #89, #19, #97 ) ;
#226 =( GEOMETRIC_REPRESENTATION_CONTEXT ( 3 ) GLOBAL_UNCERTAINTY_ASSIGNED_CONTEXT ( ( #296 ) ) GLOBAL_UNIT_ASSIGNED_CONTEXT ( ( #54, #149, #273 ) ) REPRESENTATION_CONTEXT ( 'NONE', 'WORKASPACE' ) );
#227 = SURFACE_STYLE_USAGE ( .BOTH. , #64 ) ;
#228 = DIMENSIONAL_EXPONENTS ( 1.000000000000000000, 0.000000000000000000, 0.000000000000000000, 0.000000000000000000, 0.000000000000000000, 0.000000000000000000, 0.000000000000000000 ) ;
#229 = UNCERTAINTY_MEASURE_WITH_UNIT (LENGTH_MEASURE( 1.000000000000000082E-05 ), #90, 'distance_accuracy_value', 'NONE');
#230 = COLOUR_RGB ( '',1.000000000000000000, 0.000000000000000000, 0.000000000000000000 ) ;
#231 = DIRECTION ( 'NONE',  ( 0.000000000000000000, 0.000000000000000000, 1.000000000000000000 ) ) ;
#232 =( LENGTH_UNIT ( ) NAMED_UNIT ( * ) SI_UNIT ( $, .METRE. ) );
#233 = DIRECTION ( 'NONE',  ( 0.000000000000000000, 0.000000000000000000, -1.000000000000000000 ) ) ;
#234 = EDGE_CURVE ( 'NONE', #281, #235, #257, .T. ) ;
#235 = VERTEX_POINT ( 'NONE', #40 ) ;
#236 = PRESENTATION_LAYER_ASSIGNMENT (  '', '', ( #59 ) ) ;
#237 = CARTESIAN_POINT ( 'NONE',  ( 0.2499999999999998335, 3.000000000000000444, 3.061616997868381785E-17 ) ) ;
#238 = CIRCLE ( 'NONE', #158, 0.2500000000000000555 ) ;
#239 = CARTESIAN_POINT ( 'NONE',  ( -0.2499999999999994449, 0.1762109225472281437, 0.000000000000000000 ) ) ;
#240 = SURFACE_SIDE_STYLE ('',( #262 ) ) ;
#241 = CIRCLE ( 'NONE', #205, 0.04000000000000000083 ) ;
#242 = ORIENTED_EDGE ( 'NONE', *, *, #33, .T. ) ;
#243 = DIRECTION ( 'NONE',  ( 1.206031236776656774E-16, -1.000000000000000000, 0.000000000000000000 ) ) ;
#244 = PRESENTATION_LAYER_ASSIGNMENT (  '', '', ( #76 ) ) ;
#245 = PLANE ( 'NONE',  #22 ) ;
#246 = ADVANCED_FACE ( 'NONE', ( #118 ), #98, .T. ) ;
#247 = DIMENSIONAL_EXPONENTS ( 1.000000000000000000, 0.000000000000000000, 0.000000000000000000, 0.000000000000000000, 0.000000000000000000, 0.000000000000000000, 0.000000000000000000 ) ;
#248 = COLOUR_RGB ( '',1.000000000000000000, 0.000000000000000000, 0.000000000000000000 ) ;
#249 = CARTESIAN_POINT ( 'NONE',  ( 0.000000000000000000, 0.000000000000000000, 0.000000000000000000 ) ) ;
#250 = ADVANCED_FACE ( 'NONE', ( #115 ), #140, .T. ) ;
#251 = PRESENTATION_STYLE_ASSIGNMENT (( #179 ) ) ;
#252 = DIRECTION ( 'NONE',  ( 0.000000000000000000, 1.000000000000000000, 0.000000000000000000 ) ) ;
#253 = AXIS2_PLACEMENT_3D ( 'NONE', #129, #243, #178 ) ;
#254 = SURFACE_STYLE_FILL_AREA ( #208 ) ;
#255 = CARTESIAN_POINT ( 'NONE',  ( 0.000000000000000000, 0.1762109225472281993, 0.000000000000000000 ) ) ;
#256 = EDGE_CURVE ( 'NONE', #28, #51, #55, .T. ) ;
#257 = CIRCLE ( 'NONE', #17, 0.04000000000000000083 ) ;
#258 = EDGE_CURVE ( 'NONE', #63, #51, #66, .T. ) ;
#259 =( NAMED_UNIT ( * ) SI_UNIT ( $, .STERADIAN. ) SOLID_ANGLE_UNIT ( ) );
#260 = SURFACE_STYLE_USAGE ( .BOTH. , #240 ) ;
#261 = ORIENTED_EDGE ( 'NONE', *, *, #39, .T. ) ;
#262 = SURFACE_STYLE_FILL_AREA ( #165 ) ;
#263 = CARTESIAN_POINT ( 'NONE',  ( 0.000000000000000000, 0.000000000000000000, 0.000000000000000000 ) ) ;
#264 = STYLED_ITEM ( 'NONE', ( #153 ), #203 ) ;
#265 = DIRECTION ( 'NONE',  ( 0.000000000000000000, 0.000000000000000000, 1.000000000000000000 ) ) ;
#266 = APPLICATION_CONTEXT ( 'automotive_design' ) ;
#267 = PLANE ( 'NONE',  #29 ) ;
#268 = ORIENTED_EDGE ( 'NONE', *, *, #150, .T. ) ;
#269 = FACE_OUTER_BOUND ( 'NONE', #16, .T. ) ;
#270 = SHAPE_DEFINITION_REPRESENTATION ( #283, #221 ) ;
#271 = AXIS2_PLACEMENT_3D ( 'NONE', #13, #252, #231 ) ;
#272 = UNCERTAINTY_MEASURE_WITH_UNIT (LENGTH_MEASURE( 1.000000000000000082E-05 ), #162, 'distance_accuracy_value', 'NONE');
#273 =( NAMED_UNIT ( * ) SI_UNIT ( $, .STERADIAN. ) SOLID_ANGLE_UNIT ( ) );
#274 = AXIS2_PLACEMENT_3D ( 'NONE', #80, #222, #177 ) ;
#275 = DIRECTION ( 'NONE',  ( 0.000000000000000000, 0.000000000000000000, -1.000000000000000000 ) ) ;
#276 = FILL_AREA_STYLE_COLOUR ( '', #230 ) ;
#277 = DIRECTION ( 'NONE',  ( -1.206031236776656774E-16, 1.000000000000000000, -0.000000000000000000 ) ) ;
#278 = APPLICATION_CONTEXT ( 'automotive_design' ) ;
#279 = FILL_AREA_STYLE ('',( #184 ) ) ;
#280 = DIRECTION ( 'NONE',  ( 0.000000000000000000, 0.6427876096865380307, 0.7660444431189791237 ) ) ;
#281 = VERTEX_POINT ( 'NONE', #186 ) ;
#282 = COLOUR_RGB ( '',0.7921568627450980005, 0.8196078431372548767, 0.9333333333333333481 ) ;
#283 = PRODUCT_DEFINITION_SHAPE ( 'NONE', 'NONE',  #73 ) ;
#284 = LENGTH_MEASURE_WITH_UNIT ( LENGTH_MEASURE( 0.02539999999999999897 ), #189 );
#285 = EDGE_CURVE ( 'NONE', #235, #100, #209, .T. ) ;
#286 = DIMENSIONAL_EXPONENTS ( 1.000000000000000000, 0.000000000000000000, 0.000000000000000000, 0.000000000000000000, 0.000000000000000000, 0.000000000000000000, 0.000000000000000000 ) ;
#287 = DIRECTION ( 'NONE',  ( -1.206031236776656774E-16, 1.000000000000000000, -0.000000000000000000 ) ) ;
#288 = LENGTH_MEASURE_WITH_UNIT ( LENGTH_MEASURE( 0.02539999999999999897 ), #82 );
#289 = CIRCLE ( 'NONE', #194, 0.2499999999999997224 ) ;
#290 = ORIENTED_EDGE ( 'NONE', *, *, #258, .T. ) ;
#291 = PRODUCT_RELATED_PRODUCT_CATEGORY ( 'part', '', ( #45 ) ) ;
#292 = DIMENSIONAL_EXPONENTS ( 1.000000000000000000, 0.000000000000000000, 0.000000000000000000, 0.000000000000000000, 0.000000000000000000, 0.000000000000000000, 0.000000000000000000 ) ;
#293 = FACE_OUTER_BOUND ( 'NONE', #43, .T. ) ;
#294 = FILL_AREA_STYLE_COLOUR ( '', #180 ) ;
#295 = STYLED_ITEM ( 'NONE', ( #46 ), #87 ) ;
#296 = UNCERTAINTY_MEASURE_WITH_UNIT (LENGTH_MEASURE( 1.000000000000000082E-05 ), #54, 'distance_accuracy_value', 'NONE');
#297 =( NAMED_UNIT ( * ) PLANE_ANGLE_UNIT ( ) SI_UNIT ( $, .RADIAN. ) );
#298 =( NAMED_UNIT ( * ) PLANE_ANGLE_UNIT ( ) SI_UNIT ( $, .RADIAN. ) );
#299 = MECHANICAL_DESIGN_GEOMETRIC_PRESENTATION_REPRESENTATION (  '', ( #264 ), #220 ) ;
#300 = DIRECTION ( 'NONE',  ( -1.000000000000000000, -1.365923996832133088E-16, 0.000000000000000000 ) ) ;
#301 = FILL_AREA_STYLE_COLOUR ( '', #35 ) ;
#302 = ORIENTED_EDGE ( 'NONE', *, *, #146, .F. ) ;
#303 = LENGTH_MEASURE_WITH_UNIT ( LENGTH_MEASURE( 0.02539999999999999897 ), #232 );
#304 = CIRCLE ( 'NONE', #172, 0.2500000000000000000 ) ;
#305 = AXIS2_PLACEMENT_3D ( 'NONE', #38, #155, #300 ) ;
#306 = CARTESIAN_POINT ( 'NONE',  ( 0.2500000000000000000, 0.1762109225472281993, 3.061616997868382402E-17 ) ) ;
#307 =( NAMED_UNIT ( * ) PLANE_ANGLE_UNIT ( ) SI_UNIT ( $, .RADIAN. ) );
#308 = SURFACE_SIDE_STYLE ('',( #67 ) ) ;
#309 = FILL_AREA_STYLE_COLOUR ( '', #142 ) ;
ENDSEC;
END-ISO-10303-21;
