ISO-10303-21;
HEADER;
FILE_DESCRIPTION (( 'STEP AP214' ),
    '1' );
FILE_NAME ('Micro_BMSM-006-2.STEP',
    '2021-09-03T15:30:22',
    ( '' ),
    ( '' ),
    'SwSTEP 2.0',
    'SolidWorks 2020',
    '' );
FILE_SCHEMA (( 'AUTOMOTIVE_DESIGN' ));
ENDSEC;

DATA;
#1 = AXIS2_PLACEMENT_3D ( 'NONE', #113, #37, #93 ) ;
#2 = CARTESIAN_POINT ( 'NONE',  ( 0.04405499999999973326, 5.395181473643630390E-18, 1.496062999999999921 ) ) ;
#3 = ORIENTED_EDGE ( 'NONE', *, *, #166, .T. ) ;
#4 = CARTESIAN_POINT ( 'NONE',  ( 3.715995035443763833E-17, 0.0000000000000000000, 0.3034340217955890373 ) ) ;
#5 = ADVANCED_FACE ( 'NONE', ( #117 ), #324, .T. ) ;
#6 = LINE ( 'NONE', #307, #59 ) ;
#7 = CARTESIAN_POINT ( 'NONE',  ( -0.01179918899999999812, 1.444983904138466284E-18, 0.03543299999999999922 ) ) ;
#8 = CIRCLE ( 'NONE', #242, 0.01179918900000000333 ) ;
#9 = PRODUCT_DEFINITION ( 'UNKNOWN', '', #151, #238 ) ;
#10 = VERTEX_POINT ( 'NONE', #247 ) ;
#11 = DIRECTION ( 'NONE',  ( 0.0000000000000000000, 0.0000000000000000000, 1.000000000000000000 ) ) ;
#12 = PRESENTATION_STYLE_ASSIGNMENT (( #136 ) ) ;
#13 = VERTEX_POINT ( 'NONE', #27 ) ;
#14 = FILL_AREA_STYLE ('',( #231 ) ) ;
#15 = DIRECTION ( 'NONE',  ( -1.224646799147353207E-16, -0.0000000000000000000, -1.000000000000000000 ) ) ;
#16 = CARTESIAN_POINT ( 'NONE',  ( 0.04405499999999973326, 6.313666573004162521E-18, 1.496062999999999921 ) ) ;
#17 = DIRECTION ( 'NONE',  ( -1.000000000000000000, 0.0000000000000000000, 0.0000000000000000000 ) ) ;
#18 = DIRECTION ( 'NONE',  ( -1.000000000000000000, 0.0000000000000000000, 1.808816050874517884E-16 ) ) ;
#19 = CARTESIAN_POINT ( 'NONE',  ( 0.01179918900000000506, 1.444983904138466284E-18, 0.01179918899999999812 ) ) ;
#20 =( NAMED_UNIT ( * ) SI_UNIT ( $, .STERADIAN. ) SOLID_ANGLE_UNIT ( ) );
#21 = CARTESIAN_POINT ( 'NONE',  ( 0.05905500000000004496, 7.232151672364700045E-18, 0.3034340217955890373 ) ) ;
#22 = DIRECTION ( 'NONE',  ( -1.000000000000000000, 0.0000000000000000000, 0.0000000000000000000 ) ) ;
#23 = PRODUCT_CONTEXT ( 'NONE', #195, 'mechanical' ) ;
#24 = VERTEX_POINT ( 'NONE', #187 ) ;
#25 = AXIS2_PLACEMENT_3D ( 'NONE', #4, #108, #228 ) ;
#26 = STYLED_ITEM ( 'NONE', ( #12 ), #267 ) ;
#27 = CARTESIAN_POINT ( 'NONE',  ( -0.01179918899999999986, 0.0000000000000000000, 0.01179918900000000333 ) ) ;
#28 = CARTESIAN_POINT ( 'NONE',  ( 0.0000000000000000000, 0.0000000000000000000, 1.496062999999999921 ) ) ;
#29 = ADVANCED_FACE ( 'NONE', ( #159 ), #202, .T. ) ;
#30 = EDGE_LOOP ( 'NONE', ( #58, #101, #56, #75 ) ) ;
#31 = LINE ( 'NONE', #229, #320 ) ;
#32 = ORIENTED_EDGE ( 'NONE', *, *, #55, .F. ) ;
#33 = VERTEX_POINT ( 'NONE', #21 ) ;
#34 = CARTESIAN_POINT ( 'NONE',  ( 0.0000000000000000000, 0.0000000000000000000, 1.481062999999999574 ) ) ;
#35 = CONICAL_SURFACE ( 'NONE', #241, 0.04405499999999973326, 0.7853981633974491672 ) ;
#36 =( GEOMETRIC_REPRESENTATION_CONTEXT ( 3 ) GLOBAL_UNCERTAINTY_ASSIGNED_CONTEXT ( ( #137 ) ) GLOBAL_UNIT_ASSIGNED_CONTEXT ( ( #135, #283, #182 ) ) REPRESENTATION_CONTEXT ( 'NONE', 'WORKASPACE' ) );
#37 = DIRECTION ( 'NONE',  ( 1.224646799147353207E-16, 0.0000000000000000000, 1.000000000000000000 ) ) ;
#38 = SURFACE_SIDE_STYLE ('',( #160 ) ) ;
#39 = CARTESIAN_POINT ( 'NONE',  ( 0.0000000000000000000, 0.0000000000000000000, 1.496062999999999921 ) ) ;
#40 = CYLINDRICAL_SURFACE ( 'NONE', #313, 0.01179918900000000333 ) ;
#41 = ORIENTED_EDGE ( 'NONE', *, *, #316, .T. ) ;
#42 = COLOUR_RGB ( '',0.7921568627450980005, 0.8196078431372548767, 0.9333333333333333481 ) ;
#43 = FACE_OUTER_BOUND ( 'NONE', #30, .T. ) ;
#44 = LENGTH_MEASURE_WITH_UNIT ( LENGTH_MEASURE( 0.02539999999999999897 ), #90 );
#45 =( CONVERSION_BASED_UNIT ( 'INCH', #261 ) LENGTH_UNIT ( ) NAMED_UNIT ( #99 ) );
#46 = ORIENTED_EDGE ( 'NONE', *, *, #277, .T. ) ;
#47 = FACE_OUTER_BOUND ( 'NONE', #127, .T. ) ;
#48 = EDGE_CURVE ( 'NONE', #299, #33, #6, .T. ) ;
#49 = CARTESIAN_POINT ( 'NONE',  ( 4.339291003418816329E-18, 0.0000000000000000000, 0.03543299999999999922 ) ) ;
#50 = VERTEX_POINT ( 'NONE', #260 ) ;
#51 = DIRECTION ( 'NONE',  ( -1.000000000000000000, 0.0000000000000000000, 0.0000000000000000000 ) ) ;
#52 = CARTESIAN_POINT ( 'NONE',  ( 0.0000000000000000000, 0.0000000000000000000, 1.496062999999999921 ) ) ;
#53 = CIRCLE ( 'NONE', #144, 0.01179918900000000333 ) ;
#54 = DIRECTION ( 'NONE',  ( -0.0000000000000000000, -0.0000000000000000000, -1.000000000000000000 ) ) ;
#55 = EDGE_CURVE ( 'NONE', #10, #50, #104, .T. ) ;
#56 = ORIENTED_EDGE ( 'NONE', *, *, #72, .T. ) ;
#57 = ORIENTED_EDGE ( 'NONE', *, *, #323, .F. ) ;
#58 = ORIENTED_EDGE ( 'NONE', *, *, #232, .F. ) ;
#59 = VECTOR ( 'NONE', #89, 39.37007874015748143 ) ;
#60 = ORIENTED_EDGE ( 'NONE', *, *, #48, .F. ) ;
#61 = DIRECTION ( 'NONE',  ( 1.000000000000000000, 0.0000000000000000000, 0.0000000000000000000 ) ) ;
#62 = ORIENTED_EDGE ( 'NONE', *, *, #295, .F. ) ;
#63 = DIRECTION ( 'NONE',  ( -1.224646799147353207E-16, -0.0000000000000000000, -1.000000000000000000 ) ) ;
#64 = ORIENTED_EDGE ( 'NONE', *, *, #278, .T. ) ;
#65 = ORIENTED_EDGE ( 'NONE', *, *, #146, .F. ) ;
#66 = FILL_AREA_STYLE ('',( #280 ) ) ;
#67 = AXIS2_PLACEMENT_3D ( 'NONE', #236, #164, #18 ) ;
#68 = APPLICATION_PROTOCOL_DEFINITION ( 'draft international standard', 'automotive_design', 1998, #195 ) ;
#69 =( NAMED_UNIT ( * ) SI_UNIT ( $, .STERADIAN. ) SOLID_ANGLE_UNIT ( ) );
#70 = APPLICATION_CONTEXT ( 'automotive_design' ) ;
#71 = EDGE_CURVE ( 'NONE', #50, #130, #143, .T. ) ;
#72 = EDGE_CURVE ( 'NONE', #50, #33, #266, .T. ) ;
#73 = DIRECTION ( 'NONE',  ( -1.000000000000000000, 0.0000000000000000000, 1.224646799147353207E-16 ) ) ;
#74 = LENGTH_MEASURE_WITH_UNIT ( LENGTH_MEASURE( 0.02539999999999999897 ), #96 );
#75 = ORIENTED_EDGE ( 'NONE', *, *, #218, .T. ) ;
#76 = EDGE_LOOP ( 'NONE', ( #132, #3, #248, #275 ) ) ;
#77 = VECTOR ( 'NONE', #203, 39.37007874015747433 ) ;
#78 = FACE_OUTER_BOUND ( 'NONE', #124, .T. ) ;
#79 = AXIS2_PLACEMENT_3D ( 'NONE', #213, #210, #311 ) ;
#80 = EDGE_CURVE ( 'NONE', #141, #106, #292, .T. ) ;
#81 = VERTEX_POINT ( 'NONE', #94 ) ;
#82 = DIRECTION ( 'NONE',  ( 1.000000000000000000, 0.0000000000000000000, 0.0000000000000000000 ) ) ;
#83 = DIRECTION ( 'NONE',  ( 0.0000000000000000000, 0.0000000000000000000, -1.000000000000000000 ) ) ;
#84 = ORIENTED_EDGE ( 'NONE', *, *, #277, .F. ) ;
#85 = PRESENTATION_LAYER_ASSIGNMENT (  '', '', ( #26 ) ) ;
#86 = LINE ( 'NONE', #7, #77 ) ;
#87 = DIRECTION ( 'NONE',  ( 1.000000000000000000, 0.0000000000000000000, 0.0000000000000000000 ) ) ;
#88 = DIRECTION ( 'NONE',  ( -0.0000000000000000000, -0.0000000000000000000, -1.000000000000000000 ) ) ;
#89 = DIRECTION ( 'NONE',  ( -0.0000000000000000000, -0.0000000000000000000, -1.000000000000000000 ) ) ;
#90 =( LENGTH_UNIT ( ) NAMED_UNIT ( * ) SI_UNIT ( $, .METRE. ) );
#91 = STYLED_ITEM ( 'NONE', ( #184 ), #175 ) ;
#92 = SURFACE_STYLE_USAGE ( .BOTH. , #309 ) ;
#93 = DIRECTION ( 'NONE',  ( 1.000000000000000000, 0.0000000000000000000, 0.0000000000000000000 ) ) ;
#94 = CARTESIAN_POINT ( 'NONE',  ( -0.05905500000000000332, 0.0000000000000000000, 1.481062999999999574 ) ) ;
#95 = PRESENTATION_LAYER_ASSIGNMENT (  '', '', ( #91 ) ) ;
#96 =( LENGTH_UNIT ( ) NAMED_UNIT ( * ) SI_UNIT ( $, .METRE. ) );
#97 = DIRECTION ( 'NONE',  ( -1.000000000000000000, 0.0000000000000000000, 0.0000000000000000000 ) ) ;
#98 = CARTESIAN_POINT ( 'NONE',  ( -0.04405499999999973326, 0.0000000000000000000, 1.496062999999999921 ) ) ;
#99 = DIMENSIONAL_EXPONENTS ( 1.000000000000000000, 0.0000000000000000000, 0.0000000000000000000, 0.0000000000000000000, 0.0000000000000000000, 0.0000000000000000000, 0.0000000000000000000 ) ;
#100 = DIRECTION ( 'NONE',  ( 0.0000000000000000000, 0.0000000000000000000, -1.000000000000000000 ) ) ;
#101 = ORIENTED_EDGE ( 'NONE', *, *, #316, .F. ) ;
#102 = DIRECTION ( 'NONE',  ( -1.000000000000000000, 0.0000000000000000000, 1.224646799147353207E-16 ) ) ;
#103 = ORIENTED_EDGE ( 'NONE', *, *, #48, .T. ) ;
#104 = CIRCLE ( 'NONE', #287, 0.01179918900000000333 ) ;
#105 = MECHANICAL_DESIGN_GEOMETRIC_PRESENTATION_REPRESENTATION (  '', ( #91 ), #321 ) ;
#106 = VERTEX_POINT ( 'NONE', #98 ) ;
#107 = CYLINDRICAL_SURFACE ( 'NONE', #226, 0.05905500000000000332 ) ;
#108 = DIRECTION ( 'NONE',  ( -1.224646799147353207E-16, -0.0000000000000000000, -1.000000000000000000 ) ) ;
#109 = CARTESIAN_POINT ( 'NONE',  ( 3.715995035443763833E-17, 0.0000000000000000000, 0.3034340217955890373 ) ) ;
#110 = CARTESIAN_POINT ( 'NONE',  ( 1.444983904138466092E-18, 0.0000000000000000000, 0.01179918899999999986 ) ) ;
#111 = EDGE_CURVE ( 'NONE', #13, #130, #53, .T. ) ;
#112 = ADVANCED_FACE ( 'NONE', ( #315 ), #35, .T. ) ;
#113 = CARTESIAN_POINT ( 'NONE',  ( 4.339291003418816329E-18, 0.0000000000000000000, 0.03543299999999999922 ) ) ;
#114 = CIRCLE ( 'NONE', #233, 0.01179918899999999986 ) ;
#115 = DIRECTION ( 'NONE',  ( 1.000000000000000000, 0.0000000000000000000, 0.0000000000000000000 ) ) ;
#116 = DIRECTION ( 'NONE',  ( 1.224646799147353207E-16, 1.000000000000000000, -0.0000000000000000000 ) ) ;
#117 = FACE_OUTER_BOUND ( 'NONE', #199, .T. ) ;
#118 = DIRECTION ( 'NONE',  ( 0.1736481776669314137, 0.0000000000000000000, 0.9848077530122077983 ) ) ;
#119 = DIRECTION ( 'NONE',  ( 1.000000000000000000, 0.0000000000000000000, 0.0000000000000000000 ) ) ;
#120 = DIRECTION ( 'NONE',  ( 0.0000000000000000000, 0.0000000000000000000, 1.000000000000000000 ) ) ;
#121 = ADVANCED_FACE ( 'NONE', ( #47 ), #235, .T. ) ;
#122 = AXIS2_PLACEMENT_3D ( 'NONE', #212, #286, #288 ) ;
#123 = CARTESIAN_POINT ( 'NONE',  ( 0.0000000000000000000, 0.0000000000000000000, 0.0000000000000000000 ) ) ;
#124 = EDGE_LOOP ( 'NONE', ( #32, #129, #220, #179 ) ) ;
#125 = AXIS2_PLACEMENT_3D ( 'NONE', #52, #171, #51 ) ;
#126 = ORIENTED_EDGE ( 'NONE', *, *, #218, .F. ) ;
#127 = EDGE_LOOP ( 'NONE', ( #206, #41, #250, #157 ) ) ;
#128 = DIRECTION ( 'NONE',  ( -0.7071067811865482389, 0.0000000000000000000, -0.7071067811865469066 ) ) ;
#129 = ORIENTED_EDGE ( 'NONE', *, *, #232, .T. ) ;
#130 = VERTEX_POINT ( 'NONE', #19 ) ;
#131 = FACE_OUTER_BOUND ( 'NONE', #246, .T. ) ;
#132 = ORIENTED_EDGE ( 'NONE', *, *, #80, .F. ) ;
#133 = CONICAL_SURFACE ( 'NONE', #174, 0.01179918900000000333, 0.1745329251994339192 ) ;
#134 = CIRCLE ( 'NONE', #254, 0.05905500000000000332 ) ;
#135 =( CONVERSION_BASED_UNIT ( 'INCH', #74 ) LENGTH_UNIT ( ) NAMED_UNIT ( #312 ) );
#136 = SURFACE_STYLE_USAGE ( .BOTH. , #38 ) ;
#137 = UNCERTAINTY_MEASURE_WITH_UNIT (LENGTH_MEASURE( 1.000000000000000082E-05 ), #135, 'distance_accuracy_value', 'NONE');
#138 = DIRECTION ( 'NONE',  ( 0.7071067811865482389, 8.659560562354941486E-17, -0.7071067811865469066 ) ) ;
#139 = FACE_OUTER_BOUND ( 'NONE', #198, .T. ) ;
#140 = DIRECTION ( 'NONE',  ( -1.224646799147353207E-16, -0.0000000000000000000, -1.000000000000000000 ) ) ;
#141 = VERTEX_POINT ( 'NONE', #16 ) ;
#142 = VECTOR ( 'NONE', #138, 39.37007874015748143 ) ;
#143 = LINE ( 'NONE', #263, #196 ) ;
#144 = AXIS2_PLACEMENT_3D ( 'NONE', #186, #190, #243 ) ;
#145 = MECHANICAL_DESIGN_GEOMETRIC_PRESENTATION_REPRESENTATION (  '', ( #26 ), #208 ) ;
#146 = EDGE_CURVE ( 'NONE', #24, #13, #114, .T. ) ;
#147 = EDGE_CURVE ( 'NONE', #10, #13, #262, .T. ) ;
#148 = AXIS2_PLACEMENT_3D ( 'NONE', #123, #120, #82 ) ;
#149 = ADVANCED_FACE ( 'NONE', ( #156 ), #107, .T. ) ;
#150 = ORIENTED_EDGE ( 'NONE', *, *, #207, .T. ) ;
#151 = PRODUCT_DEFINITION_FORMATION_WITH_SPECIFIED_SOURCE ( 'ANY', '', #318, .NOT_KNOWN. ) ;
#152 = ORIENTED_EDGE ( 'NONE', *, *, #293, .T. ) ;
#153 = ADVANCED_FACE ( 'NONE', ( #78 ), #133, .T. ) ;
#154 = FACE_OUTER_BOUND ( 'NONE', #279, .T. ) ;
#155 = ORIENTED_EDGE ( 'NONE', *, *, #147, .F. ) ;
#156 = FACE_OUTER_BOUND ( 'NONE', #272, .T. ) ;
#157 = ORIENTED_EDGE ( 'NONE', *, *, #111, .T. ) ;
#158 = COLOUR_RGB ( '',0.7921568627450980005, 0.8196078431372548767, 0.9333333333333333481 ) ;
#159 = FACE_OUTER_BOUND ( 'NONE', #161, .T. ) ;
#160 = SURFACE_STYLE_FILL_AREA ( #66 ) ;
#161 = EDGE_LOOP ( 'NONE', ( #64, #103, #57, #276 ) ) ;
#162 = CARTESIAN_POINT ( 'NONE',  ( 0.0000000000000000000, 0.0000000000000000000, 1.496062999999999921 ) ) ;
#163 =( LENGTH_UNIT ( ) NAMED_UNIT ( * ) SI_UNIT ( $, .METRE. ) );
#164 = DIRECTION ( 'NONE',  ( 1.224646799147353207E-16, 0.0000000000000000000, 1.000000000000000000 ) ) ;
#165 = DIRECTION ( 'NONE',  ( -1.224646799147353207E-16, -0.0000000000000000000, -1.000000000000000000 ) ) ;
#166 = EDGE_CURVE ( 'NONE', #141, #299, #270, .T. ) ;
#167 = DIRECTION ( 'NONE',  ( -1.000000000000000000, 1.224646799147353454E-16, 0.0000000000000000000 ) ) ;
#168 = APPLICATION_PROTOCOL_DEFINITION ( 'draft international standard', 'automotive_design', 1998, #70 ) ;
#169 = CIRCLE ( 'NONE', #281, 0.05905500000000000332 ) ;
#170 = AXIS2_PLACEMENT_3D ( 'NONE', #110, #284, #87 ) ;
#171 = DIRECTION ( 'NONE',  ( -0.0000000000000000000, -0.0000000000000000000, -1.000000000000000000 ) ) ;
#172 = DIRECTION ( 'NONE',  ( 1.000000000000000000, 0.0000000000000000000, 0.0000000000000000000 ) ) ;
#173 = CARTESIAN_POINT ( 'NONE',  ( 1.444983904138466092E-18, 0.0000000000000000000, 0.01179918899999999986 ) ) ;
#174 = AXIS2_PLACEMENT_3D ( 'NONE', #296, #325, #172 ) ;
#175 = ADVANCED_BREP_SHAPE_REPRESENTATION ( 'Micro_BMSM-006-2', ( #267, #148 ), #36 ) ;
#176 = ORIENTED_EDGE ( 'NONE', *, *, #295, .T. ) ;
#177 = ADVANCED_FACE ( 'NONE', ( #154 ), #181, .T. ) ;
#178 = UNCERTAINTY_MEASURE_WITH_UNIT (LENGTH_MEASURE( 1.000000000000000082E-05 ), #285, 'distance_accuracy_value', 'NONE');
#179 = ORIENTED_EDGE ( 'NONE', *, *, #72, .F. ) ;
#180 = ORIENTED_EDGE ( 'NONE', *, *, #268, .F. ) ;
#181 = SPHERICAL_SURFACE ( 'NONE', #269, 0.01179918899999999986 ) ;
#182 =( NAMED_UNIT ( * ) SI_UNIT ( $, .STERADIAN. ) SOLID_ANGLE_UNIT ( ) );
#183 = CIRCLE ( 'NONE', #25, 0.05905500000000000332 ) ;
#184 = PRESENTATION_STYLE_ASSIGNMENT (( #92 ) ) ;
#185 = DIRECTION ( 'NONE',  ( -1.224646799147353207E-16, -0.0000000000000000000, -1.000000000000000000 ) ) ;
#186 = CARTESIAN_POINT ( 'NONE',  ( 1.444983904138466092E-18, 0.0000000000000000000, 0.01179918899999999986 ) ) ;
#187 = CARTESIAN_POINT ( 'NONE',  ( 2.167475856207699523E-18, 0.0000000000000000000, 0.0000000000000000000 ) ) ;
#188 =( NAMED_UNIT ( * ) PLANE_ANGLE_UNIT ( ) SI_UNIT ( $, .RADIAN. ) );
#189 = CARTESIAN_POINT ( 'NONE',  ( -0.05905500000000000332, 0.0000000000000000000, 1.496062999999999921 ) ) ;
#190 = DIRECTION ( 'NONE',  ( 1.224646799147353207E-16, 0.0000000000000000000, 1.000000000000000000 ) ) ;
#191 = AXIS2_PLACEMENT_3D ( 'NONE', #211, #100, #22 ) ;
#192 = LINE ( 'NONE', #189, #227 ) ;
#193 = DIRECTION ( 'NONE',  ( -1.224646799147353207E-16, -0.0000000000000000000, -1.000000000000000000 ) ) ;
#194 = VECTOR ( 'NONE', #118, 39.37007874015748143 ) ;
#195 = APPLICATION_CONTEXT ( 'automotive_design' ) ;
#196 = VECTOR ( 'NONE', #165, 39.37007874015748143 ) ;
#197 = CIRCLE ( 'NONE', #314, 0.01179918899999999986 ) ;
#198 = EDGE_LOOP ( 'NONE', ( #46, #223 ) ) ;
#199 = EDGE_LOOP ( 'NONE', ( #200, #84, #306, #271 ) ) ;
#200 = ORIENTED_EDGE ( 'NONE', *, *, #166, .F. ) ;
#201 = CARTESIAN_POINT ( 'NONE',  ( -0.01179918900000000333, 0.0000000000000000000, 1.444983904138466284E-18 ) ) ;
#202 = CYLINDRICAL_SURFACE ( 'NONE', #125, 0.05905500000000000332 ) ;
#203 = DIRECTION ( 'NONE',  ( -0.1736481776669312194, 2.126576849575783625E-17, 0.9848077530122080203 ) ) ;
#204 = VERTEX_POINT ( 'NONE', #257 ) ;
#205 = SPHERICAL_SURFACE ( 'NONE', #170, 0.01179918899999999986 ) ;
#206 = ORIENTED_EDGE ( 'NONE', *, *, #71, .F. ) ;
#207 = EDGE_CURVE ( 'NONE', #299, #81, #169, .T. ) ;
#208 =( GEOMETRIC_REPRESENTATION_CONTEXT ( 3 ) GLOBAL_UNCERTAINTY_ASSIGNED_CONTEXT ( ( #178 ) ) GLOBAL_UNIT_ASSIGNED_CONTEXT ( ( #285, #188, #69 ) ) REPRESENTATION_CONTEXT ( 'NONE', 'WORKASPACE' ) );
#209 = SURFACE_STYLE_FILL_AREA ( #14 ) ;
#210 = DIRECTION ( 'NONE',  ( 0.0000000000000000000, 0.0000000000000000000, 1.000000000000000000 ) ) ;
#211 = CARTESIAN_POINT ( 'NONE',  ( 0.0000000000000000000, 0.0000000000000000000, 1.496062999999999921 ) ) ;
#212 = CARTESIAN_POINT ( 'NONE',  ( 0.0000000000000000000, 0.0000000000000000000, 1.481062999999999574 ) ) ;
#213 = CARTESIAN_POINT ( 'NONE',  ( 0.0000000000000000000, 0.0000000000000000000, 1.496062999999999921 ) ) ;
#214 = PLANE ( 'NONE',  #300 ) ;
#215 = CARTESIAN_POINT ( 'NONE',  ( 1.444983904138466092E-18, 0.0000000000000000000, 0.01179918899999999986 ) ) ;
#216 = CLOSED_SHELL ( 'NONE', ( #244, #230, #153, #112, #29, #149, #302, #5, #298, #121, #177 ) ) ;
#217 = EDGE_CURVE ( 'NONE', #106, #81, #31, .T. ) ;
#218 = EDGE_CURVE ( 'NONE', #33, #204, #183, .T. ) ;
#219 = CONICAL_SURFACE ( 'NONE', #1, 0.01179918900000000333, 0.1745329251994339192 ) ;
#220 = ORIENTED_EDGE ( 'NONE', *, *, #323, .T. ) ;
#221 = SHAPE_DEFINITION_REPRESENTATION ( #265, #175 ) ;
#222 = ORIENTED_EDGE ( 'NONE', *, *, #268, .T. ) ;
#223 = ORIENTED_EDGE ( 'NONE', *, *, #80, .T. ) ;
#224 = ORIENTED_EDGE ( 'NONE', *, *, #55, .T. ) ;
#225 = CARTESIAN_POINT ( 'NONE',  ( 0.0000000000000000000, 0.0000000000000000000, 0.0000000000000000000 ) ) ;
#226 = AXIS2_PLACEMENT_3D ( 'NONE', #28, #54, #294 ) ;
#227 = VECTOR ( 'NONE', #88, 39.37007874015748143 ) ;
#228 = DIRECTION ( 'NONE',  ( 1.000000000000000000, 0.0000000000000000000, 0.0000000000000000000 ) ) ;
#229 = CARTESIAN_POINT ( 'NONE',  ( -0.04405499999999973326, 0.0000000000000000000, 1.496062999999999921 ) ) ;
#230 = ADVANCED_FACE ( 'NONE', ( #131 ), #40, .T. ) ;
#231 = FILL_AREA_STYLE_COLOUR ( '', #158 ) ;
#232 = EDGE_CURVE ( 'NONE', #10, #204, #86, .T. ) ;
#233 = AXIS2_PLACEMENT_3D ( 'NONE', #215, #116, #167 ) ;
#234 = DIRECTION ( 'NONE',  ( 0.0000000000000000000, 0.0000000000000000000, 1.000000000000000000 ) ) ;
#235 = CYLINDRICAL_SURFACE ( 'NONE', #273, 0.01179918900000000333 ) ;
#236 = CARTESIAN_POINT ( 'NONE',  ( 1.444983904138466092E-18, 0.0000000000000000000, 0.01179918899999999986 ) ) ;
#237 = CARTESIAN_POINT ( 'NONE',  ( 0.01179918900000000680, 0.0000000000000000000, 0.03543299999999999922 ) ) ;
#238 = PRODUCT_DEFINITION_CONTEXT ( 'detailed design', #70, 'design' ) ;
#239 = DIRECTION ( 'NONE',  ( 0.0000000000000000000, 0.0000000000000000000, -1.000000000000000000 ) ) ;
#240 = DIRECTION ( 'NONE',  ( -1.000000000000000000, 0.0000000000000000000, 0.0000000000000000000 ) ) ;
#241 = AXIS2_PLACEMENT_3D ( 'NONE', #319, #290, #97 ) ;
#242 = AXIS2_PLACEMENT_3D ( 'NONE', #255, #15, #17 ) ;
#243 = DIRECTION ( 'NONE',  ( -1.000000000000000000, 0.0000000000000000000, 1.808816050874517884E-16 ) ) ;
#244 = ADVANCED_FACE ( 'NONE', ( #303 ), #205, .T. ) ;
#245 = CIRCLE ( 'NONE', #67, 0.01179918900000000333 ) ;
#246 = EDGE_LOOP ( 'NONE', ( #224, #249, #176, #155 ) ) ;
#247 = CARTESIAN_POINT ( 'NONE',  ( -0.01179918899999999812, 4.338567788251580372E-18, 0.03543299999999999922 ) ) ;
#248 = ORIENTED_EDGE ( 'NONE', *, *, #278, .F. ) ;
#249 = ORIENTED_EDGE ( 'NONE', *, *, #71, .T. ) ;
#250 = ORIENTED_EDGE ( 'NONE', *, *, #147, .T. ) ;
#251 = CARTESIAN_POINT ( 'NONE',  ( 1.444983904138466092E-18, 0.0000000000000000000, 0.01179918899999999986 ) ) ;
#252 = PRODUCT_RELATED_PRODUCT_CATEGORY ( 'part', '', ( #318 ) ) ;
#253 = DIRECTION ( 'NONE',  ( 0.0000000000000000000, -1.000000000000000000, 0.0000000000000000000 ) ) ;
#254 = AXIS2_PLACEMENT_3D ( 'NONE', #109, #185, #115 ) ;
#255 = CARTESIAN_POINT ( 'NONE',  ( 4.339291003418816329E-18, 0.0000000000000000000, 0.03543299999999999922 ) ) ;
#256 = UNCERTAINTY_MEASURE_WITH_UNIT (LENGTH_MEASURE( 1.000000000000000082E-05 ), #45, 'distance_accuracy_value', 'NONE');
#257 = CARTESIAN_POINT ( 'NONE',  ( -0.05905499999999996863, 0.0000000000000000000, 0.3034340217955890373 ) ) ;
#258 = CARTESIAN_POINT ( 'NONE',  ( 0.05905500000000000332, 7.232151672364695422E-18, 1.481062999999999574 ) ) ;
#259 = AXIS2_PLACEMENT_3D ( 'NONE', #162, #234, #119 ) ;
#260 = CARTESIAN_POINT ( 'NONE',  ( 0.01179918900000000680, 0.0000000000000000000, 0.03543299999999999922 ) ) ;
#261 = LENGTH_MEASURE_WITH_UNIT ( LENGTH_MEASURE( 0.02539999999999999897 ), #163 );
#262 = LINE ( 'NONE', #201, #308 ) ;
#263 = CARTESIAN_POINT ( 'NONE',  ( 0.01179918900000000333, 1.444983904138466284E-18, -1.444983904138466284E-18 ) ) ;
#264 = DIMENSIONAL_EXPONENTS ( 1.000000000000000000, 0.0000000000000000000, 0.0000000000000000000, 0.0000000000000000000, 0.0000000000000000000, 0.0000000000000000000, 0.0000000000000000000 ) ;
#265 = PRODUCT_DEFINITION_SHAPE ( 'NONE', 'NONE',  #9 ) ;
#266 = LINE ( 'NONE', #237, #194 ) ;
#267 = MANIFOLD_SOLID_BREP ( 'Fillet1', #216 ) ;
#268 = EDGE_CURVE ( 'NONE', #24, #130, #197, .T. ) ;
#269 = AXIS2_PLACEMENT_3D ( 'NONE', #251, #297, #61 ) ;
#270 = LINE ( 'NONE', #2, #142 ) ;
#271 = ORIENTED_EDGE ( 'NONE', *, *, #207, .F. ) ;
#272 = EDGE_LOOP ( 'NONE', ( #60, #150, #152, #126 ) ) ;
#273 = AXIS2_PLACEMENT_3D ( 'NONE', #291, #140, #73 ) ;
#274 = ORIENTED_EDGE ( 'NONE', *, *, #111, .F. ) ;
#275 = ORIENTED_EDGE ( 'NONE', *, *, #217, .F. ) ;
#276 = ORIENTED_EDGE ( 'NONE', *, *, #293, .F. ) ;
#277 = EDGE_CURVE ( 'NONE', #106, #141, #282, .T. ) ;
#278 = EDGE_CURVE ( 'NONE', #81, #299, #289, .T. ) ;
#279 = EDGE_LOOP ( 'NONE', ( #65, #222, #274 ) ) ;
#280 = FILL_AREA_STYLE_COLOUR ( '', #42 ) ;
#281 = AXIS2_PLACEMENT_3D ( 'NONE', #34, #83, #304 ) ;
#282 = CIRCLE ( 'NONE', #259, 0.04405499999999973326 ) ;
#283 =( NAMED_UNIT ( * ) PLANE_ANGLE_UNIT ( ) SI_UNIT ( $, .RADIAN. ) );
#284 = DIRECTION ( 'NONE',  ( 0.0000000000000000000, 1.000000000000000000, 0.0000000000000000000 ) ) ;
#285 =( CONVERSION_BASED_UNIT ( 'INCH', #44 ) LENGTH_UNIT ( ) NAMED_UNIT ( #264 ) );
#286 = DIRECTION ( 'NONE',  ( 0.0000000000000000000, 0.0000000000000000000, -1.000000000000000000 ) ) ;
#287 = AXIS2_PLACEMENT_3D ( 'NONE', #49, #193, #240 ) ;
#288 = DIRECTION ( 'NONE',  ( 1.000000000000000000, 0.0000000000000000000, 0.0000000000000000000 ) ) ;
#289 = CIRCLE ( 'NONE', #122, 0.05905500000000000332 ) ;
#290 = DIRECTION ( 'NONE',  ( 0.0000000000000000000, 0.0000000000000000000, -1.000000000000000000 ) ) ;
#291 = CARTESIAN_POINT ( 'NONE',  ( 0.0000000000000000000, 0.0000000000000000000, 0.0000000000000000000 ) ) ;
#292 = CIRCLE ( 'NONE', #79, 0.04405499999999973326 ) ;
#293 = EDGE_CURVE ( 'NONE', #81, #204, #192, .T. ) ;
#294 = DIRECTION ( 'NONE',  ( -1.000000000000000000, 0.0000000000000000000, 0.0000000000000000000 ) ) ;
#295 = EDGE_CURVE ( 'NONE', #130, #13, #245, .T. ) ;
#296 = CARTESIAN_POINT ( 'NONE',  ( 4.339291003418816329E-18, 0.0000000000000000000, 0.03543299999999999922 ) ) ;
#297 = DIRECTION ( 'NONE',  ( 0.0000000000000000000, 1.000000000000000000, 0.0000000000000000000 ) ) ;
#298 = ADVANCED_FACE ( 'NONE', ( #43 ), #219, .T. ) ;
#299 = VERTEX_POINT ( 'NONE', #258 ) ;
#300 = AXIS2_PLACEMENT_3D ( 'NONE', #39, #11, #310 ) ;
#301 = DIRECTION ( 'NONE',  ( -1.224646799147353207E-16, -0.0000000000000000000, -1.000000000000000000 ) ) ;
#302 = ADVANCED_FACE ( 'NONE', ( #139 ), #214, .T. ) ;
#303 = FACE_OUTER_BOUND ( 'NONE', #305, .T. ) ;
#304 = DIRECTION ( 'NONE',  ( 1.000000000000000000, 0.0000000000000000000, 0.0000000000000000000 ) ) ;
#305 = EDGE_LOOP ( 'NONE', ( #180, #317, #62 ) ) ;
#306 = ORIENTED_EDGE ( 'NONE', *, *, #217, .T. ) ;
#307 = CARTESIAN_POINT ( 'NONE',  ( 0.05905500000000000332, 7.232151672364695422E-18, 1.496062999999999921 ) ) ;
#308 = VECTOR ( 'NONE', #301, 39.37007874015748143 ) ;
#309 = SURFACE_SIDE_STYLE ('',( #209 ) ) ;
#310 = DIRECTION ( 'NONE',  ( 1.000000000000000000, 0.0000000000000000000, -0.0000000000000000000 ) ) ;
#311 = DIRECTION ( 'NONE',  ( 1.000000000000000000, 0.0000000000000000000, 0.0000000000000000000 ) ) ;
#312 = DIMENSIONAL_EXPONENTS ( 1.000000000000000000, 0.0000000000000000000, 0.0000000000000000000, 0.0000000000000000000, 0.0000000000000000000, 0.0000000000000000000, 0.0000000000000000000 ) ;
#313 = AXIS2_PLACEMENT_3D ( 'NONE', #225, #63, #102 ) ;
#314 = AXIS2_PLACEMENT_3D ( 'NONE', #173, #253, #239 ) ;
#315 = FACE_OUTER_BOUND ( 'NONE', #76, .T. ) ;
#316 = EDGE_CURVE ( 'NONE', #50, #10, #8, .T. ) ;
#317 = ORIENTED_EDGE ( 'NONE', *, *, #146, .T. ) ;
#318 = PRODUCT ( 'Micro_BMSM-006-2', 'Micro_BMSM-006-2', '', ( #23 ) ) ;
#319 = CARTESIAN_POINT ( 'NONE',  ( 0.0000000000000000000, 0.0000000000000000000, 1.496062999999999921 ) ) ;
#320 = VECTOR ( 'NONE', #128, 39.37007874015748143 ) ;
#321 =( GEOMETRIC_REPRESENTATION_CONTEXT ( 3 ) GLOBAL_UNCERTAINTY_ASSIGNED_CONTEXT ( ( #256 ) ) GLOBAL_UNIT_ASSIGNED_CONTEXT ( ( #45, #322, #20 ) ) REPRESENTATION_CONTEXT ( 'NONE', 'WORKASPACE' ) );
#322 =( NAMED_UNIT ( * ) PLANE_ANGLE_UNIT ( ) SI_UNIT ( $, .RADIAN. ) );
#323 = EDGE_CURVE ( 'NONE', #204, #33, #134, .T. ) ;
#324 = CONICAL_SURFACE ( 'NONE', #191, 0.04405499999999973326, 0.7853981633974491672 ) ;
#325 = DIRECTION ( 'NONE',  ( 1.224646799147353207E-16, 0.0000000000000000000, 1.000000000000000000 ) ) ;
ENDSEC;
END-ISO-10303-21;
