ISO-10303-21;
HEADER;
FILE_DESCRIPTION (( 'STEP AP214' ),
    '1' );
FILE_NAME ('Micro_SFLM-060-60.STEP',
    '2021-09-02T05:51:12',
    ( '' ),
    ( '' ),
    'SwSTEP 2.0',
    'SolidWorks 2020',
    '' );
FILE_SCHEMA (( 'AUTOMOTIVE_DESIGN' ));
ENDSEC;

DATA;
#1 = AXIS2_PLACEMENT_3D ( 'NONE', #43, #262, #264 ) ;
#2 = EDGE_CURVE ( 'NONE', #220, #175, #149, .T. ) ;
#3 = DIRECTION ( 'NONE',  ( -1.000000000000000000, 0.0000000000000000000, 0.0000000000000000000 ) ) ;
#4 = EDGE_LOOP ( 'NONE', ( #282, #147, #278, #256 ) ) ;
#5 = VECTOR ( 'NONE', #111, 39.37007874015748143 ) ;
#6 = DIRECTION ( 'NONE',  ( 0.0000000000000000000, 0.0000000000000000000, -1.000000000000000000 ) ) ;
#7 = CARTESIAN_POINT ( 'NONE',  ( 1.769594913022618037E-33, 0.0000000000000000000, 1.444983904138465938E-17 ) ) ;
#8 = EDGE_CURVE ( 'NONE', #267, #178, #265, .T. ) ;
#9 = CARTESIAN_POINT ( 'NONE',  ( 0.1179918899999999882, 1.444983904138465938E-17, 0.0000000000000000000 ) ) ;
#10 = ORIENTED_EDGE ( 'NONE', *, *, #31, .T. ) ;
#11 = SURFACE_SIDE_STYLE ('',( #109 ) ) ;
#12 = AXIS2_PLACEMENT_3D ( 'NONE', #50, #206, #156 ) ;
#13 = LINE ( 'NONE', #82, #166 ) ;
#14 = EDGE_LOOP ( 'NONE', ( #46, #90, #138, #164 ) ) ;
#15 = CYLINDRICAL_SURFACE ( 'NONE', #261, 0.1574804999999999955 ) ;
#16 = EDGE_LOOP ( 'NONE', ( #18, #122, #252, #182 ) ) ;
#17 = LINE ( 'NONE', #37, #5 ) ;
#18 = ORIENTED_EDGE ( 'NONE', *, *, #8, .F. ) ;
#19 = CARTESIAN_POINT ( 'NONE',  ( 0.0000000000000000000, 0.0000000000000000000, 3.740156999999999954 ) ) ;
#20 = ADVANCED_FACE ( 'NONE', ( #108 ), #194, .T. ) ;
#21 = DIRECTION ( 'NONE',  ( 0.0000000000000000000, 0.0000000000000000000, 1.000000000000000000 ) ) ;
#22 = LENGTH_MEASURE_WITH_UNIT ( LENGTH_MEASURE( 0.02539999999999999897 ), #72 );
#23 =( LENGTH_UNIT ( ) NAMED_UNIT ( * ) SI_UNIT ( $, .METRE. ) );
#24 = CIRCLE ( 'NONE', #176, 0.1179918899999999882 ) ;
#25 =( CONVERSION_BASED_UNIT ( 'INCH', #92 ) LENGTH_UNIT ( ) NAMED_UNIT ( #208 ) );
#26 =( NAMED_UNIT ( * ) SI_UNIT ( $, .STERADIAN. ) SOLID_ANGLE_UNIT ( ) );
#27 = ADVANCED_FACE ( 'NONE', ( #134 ), #212, .T. ) ;
#28 = UNCERTAINTY_MEASURE_WITH_UNIT (LENGTH_MEASURE( 1.000000000000000082E-05 ), #158, 'distance_accuracy_value', 'NONE');
#29 = CIRCLE ( 'NONE', #116, 0.1574804999999999955 ) ;
#30 = ORIENTED_EDGE ( 'NONE', *, *, #103, .T. ) ;
#31 = EDGE_CURVE ( 'NONE', #178, #56, #292, .T. ) ;
#32 = ORIENTED_EDGE ( 'NONE', *, *, #100, .F. ) ;
#33 = PRESENTATION_LAYER_ASSIGNMENT (  '', '', ( #141 ) ) ;
#34 = ADVANCED_BREP_SHAPE_REPRESENTATION ( 'Micro_SFLM-060-60', ( #87, #200 ), #42 ) ;
#35 = LINE ( 'NONE', #192, #255 ) ;
#36 = ADVANCED_FACE ( 'NONE', ( #225 ), #293, .T. ) ;
#37 = CARTESIAN_POINT ( 'NONE',  ( -0.1574804999999999955, 0.0000000000000000000, 3.740156999999999954 ) ) ;
#38 = ORIENTED_EDGE ( 'NONE', *, *, #123, .F. ) ;
#39 = CARTESIAN_POINT ( 'NONE',  ( -0.1179918899999999882, 0.0000000000000000000, 1.444983904138465938E-17 ) ) ;
#40 = ORIENTED_EDGE ( 'NONE', *, *, #263, .F. ) ;
#41 = AXIS2_PLACEMENT_3D ( 'NONE', #7, #66, #89 ) ;
#42 =( GEOMETRIC_REPRESENTATION_CONTEXT ( 3 ) GLOBAL_UNCERTAINTY_ASSIGNED_CONTEXT ( ( #210 ) ) GLOBAL_UNIT_ASSIGNED_CONTEXT ( ( #118, #135, #231 ) ) REPRESENTATION_CONTEXT ( 'NONE', 'WORKASPACE' ) );
#43 = CARTESIAN_POINT ( 'NONE',  ( 9.642893389422242582E-17, 0.0000000000000000000, 0.7874019999999999353 ) ) ;
#44 = ORIENTED_EDGE ( 'NONE', *, *, #254, .F. ) ;
#45 = CARTESIAN_POINT ( 'NONE',  ( 0.1179918900000000992, 0.0000000000000000000, 0.7874019999999999353 ) ) ;
#46 = ORIENTED_EDGE ( 'NONE', *, *, #173, .F. ) ;
#47 = CIRCLE ( 'NONE', #96, 0.1424804999999998989 ) ;
#48 = PRODUCT_DEFINITION_FORMATION_WITH_SPECIFIED_SOURCE ( 'ANY', '', #277, .NOT_KNOWN. ) ;
#49 = PRODUCT_RELATED_PRODUCT_CATEGORY ( 'part', '', ( #277 ) ) ;
#50 = CARTESIAN_POINT ( 'NONE',  ( 0.0000000000000000000, 0.0000000000000000000, 3.725156999999999829 ) ) ;
#51 = ORIENTED_EDGE ( 'NONE', *, *, #165, .T. ) ;
#52 = EDGE_CURVE ( 'NONE', #140, #161, #29, .T. ) ;
#53 = AXIS2_PLACEMENT_3D ( 'NONE', #279, #79, #244 ) ;
#54 = ORIENTED_EDGE ( 'NONE', *, *, #270, .T. ) ;
#55 = CIRCLE ( 'NONE', #41, 0.1179918899999999882 ) ;
#56 = VERTEX_POINT ( 'NONE', #179 ) ;
#57 = EDGE_CURVE ( 'NONE', #267, #289, #47, .T. ) ;
#58 = DIRECTION ( 'NONE',  ( 1.000000000000000000, 0.0000000000000000000, 0.0000000000000000000 ) ) ;
#59 = CIRCLE ( 'NONE', #53, 0.1574804999999999955 ) ;
#60 = LINE ( 'NONE', #63, #283 ) ;
#61 = ORIENTED_EDGE ( 'NONE', *, *, #2, .T. ) ;
#62 = FILL_AREA_STYLE_COLOUR ( '', #81 ) ;
#63 = CARTESIAN_POINT ( 'NONE',  ( 0.1179918900000000992, 0.0000000000000000000, 0.7874019999999999353 ) ) ;
#64 = CARTESIAN_POINT ( 'NONE',  ( 0.1424804999999998989, 1.744882882659143297E-17, 3.740156999999999954 ) ) ;
#65 = ADVANCED_FACE ( 'NONE', ( #204 ), #260, .T. ) ;
#66 = DIRECTION ( 'NONE',  ( -1.224646799147353207E-16, -0.0000000000000000000, -1.000000000000000000 ) ) ;
#67 = CARTESIAN_POINT ( 'NONE',  ( 0.0000000000000000000, 0.0000000000000000000, 0.0000000000000000000 ) ) ;
#68 = DIRECTION ( 'NONE',  ( -1.000000000000000000, 0.0000000000000000000, 0.0000000000000000000 ) ) ;
#69 = ORIENTED_EDGE ( 'NONE', *, *, #8, .T. ) ;
#70 = DIRECTION ( 'NONE',  ( -0.1736481776669311639, 2.126576849575783008E-17, 0.9848077530122080203 ) ) ;
#71 = CARTESIAN_POINT ( 'NONE',  ( 0.0000000000000000000, 0.0000000000000000000, 3.740156999999999954 ) ) ;
#72 =( LENGTH_UNIT ( ) NAMED_UNIT ( * ) SI_UNIT ( $, .METRE. ) );
#73 = AXIS2_PLACEMENT_3D ( 'NONE', #71, #93, #157 ) ;
#74 = DIRECTION ( 'NONE',  ( -1.000000000000000000, 0.0000000000000000000, 1.224646799147353454E-16 ) ) ;
#75 = DIRECTION ( 'NONE',  ( -1.000000000000000000, 0.0000000000000000000, 1.224646799147353454E-16 ) ) ;
#76 = EDGE_LOOP ( 'NONE', ( #61, #198, #224, #40 ) ) ;
#77 = CIRCLE ( 'NONE', #249, 0.1179918899999999882 ) ;
#78 =( GEOMETRIC_REPRESENTATION_CONTEXT ( 3 ) GLOBAL_UNCERTAINTY_ASSIGNED_CONTEXT ( ( #257 ) ) GLOBAL_UNIT_ASSIGNED_CONTEXT ( ( #25, #95, #299 ) ) REPRESENTATION_CONTEXT ( 'NONE', 'WORKASPACE' ) );
#79 = DIRECTION ( 'NONE',  ( 0.0000000000000000000, 0.0000000000000000000, -1.000000000000000000 ) ) ;
#80 = CARTESIAN_POINT ( 'NONE',  ( -0.1574804999999998567, 0.0000000000000000000, 1.011353035974972725 ) ) ;
#81 = COLOUR_RGB ( '',0.7921568627450980005, 0.8196078431372548767, 0.9333333333333333481 ) ;
#82 = CARTESIAN_POINT ( 'NONE',  ( -0.1424804999999998989, 0.0000000000000000000, 3.740156999999999954 ) ) ;
#83 = DIRECTION ( 'NONE',  ( -1.224646799147353207E-16, -0.0000000000000000000, -1.000000000000000000 ) ) ;
#84 = DIRECTION ( 'NONE',  ( 1.000000000000000000, 0.0000000000000000000, -0.0000000000000000000 ) ) ;
#85 = EDGE_LOOP ( 'NONE', ( #269, #69, #32, #102 ) ) ;
#86 = DIRECTION ( 'NONE',  ( -1.000000000000000000, 0.0000000000000000000, 0.0000000000000000000 ) ) ;
#87 = MANIFOLD_SOLID_BREP ( 'Cut-Revolve1', #195 ) ;
#88 = MECHANICAL_DESIGN_GEOMETRIC_PRESENTATION_REPRESENTATION (  '', ( #141 ), #209 ) ;
#89 = DIRECTION ( 'NONE',  ( -1.000000000000000000, 0.0000000000000000000, 1.224646799147353454E-16 ) ) ;
#90 = ORIENTED_EDGE ( 'NONE', *, *, #123, .T. ) ;
#91 = ADVANCED_FACE ( 'NONE', ( #184 ), #139, .T. ) ;
#92 = LENGTH_MEASURE_WITH_UNIT ( LENGTH_MEASURE( 0.02539999999999999897 ), #23 );
#93 = DIRECTION ( 'NONE',  ( 0.0000000000000000000, 0.0000000000000000000, -1.000000000000000000 ) ) ;
#94 = AXIS2_PLACEMENT_3D ( 'NONE', #298, #247, #58 ) ;
#95 =( NAMED_UNIT ( * ) PLANE_ANGLE_UNIT ( ) SI_UNIT ( $, .RADIAN. ) );
#96 = AXIS2_PLACEMENT_3D ( 'NONE', #160, #136, #119 ) ;
#97 = ORIENTED_EDGE ( 'NONE', *, *, #52, .F. ) ;
#98 = CARTESIAN_POINT ( 'NONE',  ( 0.0000000000000000000, 0.0000000000000000000, 0.0000000000000000000 ) ) ;
#99 = STYLED_ITEM ( 'NONE', ( #274 ), #34 ) ;
#100 = EDGE_CURVE ( 'NONE', #56, #178, #59, .T. ) ;
#101 = CARTESIAN_POINT ( 'NONE',  ( 0.1574804999999999955, 1.928579902531247412E-17, 3.725156999999999829 ) ) ;
#102 = ORIENTED_EDGE ( 'NONE', *, *, #186, .F. ) ;
#103 = EDGE_CURVE ( 'NONE', #289, #267, #227, .T. ) ;
#104 = DIRECTION ( 'NONE',  ( -1.224646799147353207E-16, -0.0000000000000000000, -1.000000000000000000 ) ) ;
#105 = EDGE_LOOP ( 'NONE', ( #154, #38, #51, #242 ) ) ;
#106 = AXIS2_PLACEMENT_3D ( 'NONE', #146, #6, #3 ) ;
#107 = DIRECTION ( 'NONE',  ( -1.000000000000000000, 0.0000000000000000000, 1.224646799147353454E-16 ) ) ;
#108 = FACE_OUTER_BOUND ( 'NONE', #76, .T. ) ;
#109 = SURFACE_STYLE_FILL_AREA ( #126 ) ;
#110 = DIRECTION ( 'NONE',  ( 0.1736481776669313581, 0.0000000000000000000, 0.9848077530122077983 ) ) ;
#111 = DIRECTION ( 'NONE',  ( -0.0000000000000000000, -0.0000000000000000000, -1.000000000000000000 ) ) ;
#112 = EDGE_LOOP ( 'NONE', ( #54, #128 ) ) ;
#113 = DIRECTION ( 'NONE',  ( -1.000000000000000000, 0.0000000000000000000, 0.0000000000000000000 ) ) ;
#114 = ADVANCED_FACE ( 'NONE', ( #216 ), #266, .T. ) ;
#115 = AXIS2_PLACEMENT_3D ( 'NONE', #190, #83, #170 ) ;
#116 = AXIS2_PLACEMENT_3D ( 'NONE', #117, #201, #296 ) ;
#117 = CARTESIAN_POINT ( 'NONE',  ( 1.238550258314708458E-16, 0.0000000000000000000, 1.011353035974972725 ) ) ;
#118 =( CONVERSION_BASED_UNIT ( 'INCH', #22 ) LENGTH_UNIT ( ) NAMED_UNIT ( #215 ) );
#119 = DIRECTION ( 'NONE',  ( 1.000000000000000000, 0.0000000000000000000, 0.0000000000000000000 ) ) ;
#120 = CONICAL_SURFACE ( 'NONE', #1, 0.1179918899999999882, 0.1745329251994338637 ) ;
#121 = PRODUCT_DEFINITION_CONTEXT ( 'detailed design', #183, 'design' ) ;
#122 = ORIENTED_EDGE ( 'NONE', *, *, #103, .F. ) ;
#123 = EDGE_CURVE ( 'NONE', #175, #220, #24, .T. ) ;
#124 = CARTESIAN_POINT ( 'NONE',  ( -0.1179918899999998910, 1.686781903334856521E-17, 0.7874019999999999353 ) ) ;
#125 = DIRECTION ( 'NONE',  ( 0.0000000000000000000, 0.0000000000000000000, 1.000000000000000000 ) ) ;
#126 = FILL_AREA_STYLE ('',( #62 ) ) ;
#127 = CARTESIAN_POINT ( 'NONE',  ( 0.1424804999999998989, 1.836731392595195200E-17, 3.740156999999999954 ) ) ;
#128 = ORIENTED_EDGE ( 'NONE', *, *, #290, .T. ) ;
#129 = AXIS2_PLACEMENT_3D ( 'NONE', #67, #295, #74 ) ;
#130 = PLANE ( 'NONE',  #235 ) ;
#131 = PLANE ( 'NONE',  #191 ) ;
#132 = APPLICATION_PROTOCOL_DEFINITION ( 'draft international standard', 'automotive_design', 1998, #183 ) ;
#133 = SURFACE_STYLE_USAGE ( .BOTH. , #253 ) ;
#134 = FACE_OUTER_BOUND ( 'NONE', #16, .T. ) ;
#135 =( NAMED_UNIT ( * ) PLANE_ANGLE_UNIT ( ) SI_UNIT ( $, .RADIAN. ) );
#136 = DIRECTION ( 'NONE',  ( 0.0000000000000000000, 0.0000000000000000000, 1.000000000000000000 ) ) ;
#137 = DIRECTION ( 'NONE',  ( 1.000000000000000000, 0.0000000000000000000, 0.0000000000000000000 ) ) ;
#138 = ORIENTED_EDGE ( 'NONE', *, *, #263, .T. ) ;
#139 = CONICAL_SURFACE ( 'NONE', #106, 0.1424804999999998989, 0.7853981633974608245 ) ;
#140 = VERTEX_POINT ( 'NONE', #268 ) ;
#141 = STYLED_ITEM ( 'NONE', ( #285 ), #87 ) ;
#142 = EDGE_CURVE ( 'NONE', #178, #140, #35, .T. ) ;
#143 = SURFACE_STYLE_USAGE ( .BOTH. , #11 ) ;
#144 = COLOUR_RGB ( '',0.7921568627450980005, 0.8196078431372548767, 0.9333333333333333481 ) ;
#145 = CARTESIAN_POINT ( 'NONE',  ( 0.1179918899999999882, 1.444983904138465938E-17, -1.444983904138465938E-17 ) ) ;
#146 = CARTESIAN_POINT ( 'NONE',  ( 0.0000000000000000000, 0.0000000000000000000, 3.740156999999999954 ) ) ;
#147 = ORIENTED_EDGE ( 'NONE', *, *, #214, .T. ) ;
#148 = ADVANCED_FACE ( 'NONE', ( #167 ), #15, .T. ) ;
#149 = CIRCLE ( 'NONE', #115, 0.1179918899999999882 ) ;
#150 = CARTESIAN_POINT ( 'NONE',  ( 0.0000000000000000000, 0.0000000000000000000, 3.740156999999999954 ) ) ;
#151 = DIRECTION ( 'NONE',  ( 0.7071067811865563435, 8.659560562355041327E-17, -0.7071067811865386910 ) ) ;
#152 = DIRECTION ( 'NONE',  ( -1.224646799147353207E-16, -0.0000000000000000000, -1.000000000000000000 ) ) ;
#153 = DIRECTION ( 'NONE',  ( -0.0000000000000000000, -0.0000000000000000000, -1.000000000000000000 ) ) ;
#154 = ORIENTED_EDGE ( 'NONE', *, *, #214, .F. ) ;
#155 = DIRECTION ( 'NONE',  ( 1.000000000000000000, 0.0000000000000000000, -0.0000000000000000000 ) ) ;
#156 = DIRECTION ( 'NONE',  ( 1.000000000000000000, 0.0000000000000000000, 0.0000000000000000000 ) ) ;
#157 = DIRECTION ( 'NONE',  ( -1.000000000000000000, 0.0000000000000000000, 0.0000000000000000000 ) ) ;
#158 =( CONVERSION_BASED_UNIT ( 'INCH', #203 ) LENGTH_UNIT ( ) NAMED_UNIT ( #185 ) );
#159 = FILL_AREA_STYLE ('',( #228 ) ) ;
#160 = CARTESIAN_POINT ( 'NONE',  ( 0.0000000000000000000, 0.0000000000000000000, 3.740156999999999954 ) ) ;
#161 = VERTEX_POINT ( 'NONE', #80 ) ;
#162 =( NAMED_UNIT ( * ) PLANE_ANGLE_UNIT ( ) SI_UNIT ( $, .RADIAN. ) );
#163 = ADVANCED_FACE ( 'NONE', ( #189 ), #120, .T. ) ;
#164 = ORIENTED_EDGE ( 'NONE', *, *, #290, .F. ) ;
#165 = EDGE_CURVE ( 'NONE', #175, #140, #60, .T. ) ;
#166 = VECTOR ( 'NONE', #241, 39.37007874015748143 ) ;
#167 = FACE_OUTER_BOUND ( 'NONE', #172, .T. ) ;
#168 = ORIENTED_EDGE ( 'NONE', *, *, #100, .T. ) ;
#169 = CARTESIAN_POINT ( 'NONE',  ( 0.0000000000000000000, 0.0000000000000000000, 3.740156999999999954 ) ) ;
#170 = DIRECTION ( 'NONE',  ( -1.000000000000000000, 0.0000000000000000000, 0.0000000000000000000 ) ) ;
#171 = LINE ( 'NONE', #39, #180 ) ;
#172 = EDGE_LOOP ( 'NONE', ( #218, #10, #236, #97 ) ) ;
#173 = EDGE_CURVE ( 'NONE', #175, #246, #187, .T. ) ;
#174 = FACE_OUTER_BOUND ( 'NONE', #258, .T. ) ;
#175 = VERTEX_POINT ( 'NONE', #45 ) ;
#176 = AXIS2_PLACEMENT_3D ( 'NONE', #281, #288, #86 ) ;
#177 = CARTESIAN_POINT ( 'NONE',  ( -0.1179918899999999882, 0.0000000000000000000, 2.889967808276931875E-17 ) ) ;
#178 = VERTEX_POINT ( 'NONE', #101 ) ;
#179 = CARTESIAN_POINT ( 'NONE',  ( -0.1574804999999999955, 0.0000000000000000000, 3.725156999999999829 ) ) ;
#180 = VECTOR ( 'NONE', #104, 39.37007874015748143 ) ;
#181 = SURFACE_STYLE_FILL_AREA ( #159 ) ;
#182 = ORIENTED_EDGE ( 'NONE', *, *, #31, .F. ) ;
#183 = APPLICATION_CONTEXT ( 'automotive_design' ) ;
#184 = FACE_OUTER_BOUND ( 'NONE', #85, .T. ) ;
#185 = DIMENSIONAL_EXPONENTS ( 1.000000000000000000, 0.0000000000000000000, 0.0000000000000000000, 0.0000000000000000000, 0.0000000000000000000, 0.0000000000000000000, 0.0000000000000000000 ) ;
#186 = EDGE_CURVE ( 'NONE', #289, #56, #13, .T. ) ;
#187 = LINE ( 'NONE', #145, #199 ) ;
#188 = ORIENTED_EDGE ( 'NONE', *, *, #243, .F. ) ;
#189 = FACE_OUTER_BOUND ( 'NONE', #105, .T. ) ;
#190 = CARTESIAN_POINT ( 'NONE',  ( 9.642893389422242582E-17, 0.0000000000000000000, 0.7874019999999999353 ) ) ;
#191 = AXIS2_PLACEMENT_3D ( 'NONE', #222, #125, #155 ) ;
#192 = CARTESIAN_POINT ( 'NONE',  ( 0.1574804999999999955, 1.928579902531247412E-17, 3.740156999999999954 ) ) ;
#193 = ADVANCED_FACE ( 'NONE', ( #174 ), #130, .T. ) ;
#194 = CYLINDRICAL_SURFACE ( 'NONE', #129, 0.1179918899999999882 ) ;
#195 = CLOSED_SHELL ( 'NONE', ( #20, #65, #91, #36, #148, #193, #27, #163, #114, #202 ) ) ;
#196 = DIRECTION ( 'NONE',  ( 0.0000000000000000000, 0.0000000000000000000, 1.000000000000000000 ) ) ;
#197 = DIRECTION ( 'NONE',  ( -1.224646799147353207E-16, -0.0000000000000000000, -1.000000000000000000 ) ) ;
#198 = ORIENTED_EDGE ( 'NONE', *, *, #173, .T. ) ;
#199 = VECTOR ( 'NONE', #284, 39.37007874015748143 ) ;
#200 = AXIS2_PLACEMENT_3D ( 'NONE', #98, #21, #137 ) ;
#201 = DIRECTION ( 'NONE',  ( -1.224646799147353207E-16, -0.0000000000000000000, -1.000000000000000000 ) ) ;
#202 = ADVANCED_FACE ( 'NONE', ( #271 ), #131, .F. ) ;
#203 = LENGTH_MEASURE_WITH_UNIT ( LENGTH_MEASURE( 0.02539999999999999897 ), #237 );
#204 = FACE_OUTER_BOUND ( 'NONE', #4, .T. ) ;
#205 = CIRCLE ( 'NONE', #273, 0.1574804999999999955 ) ;
#206 = DIRECTION ( 'NONE',  ( 0.0000000000000000000, 0.0000000000000000000, -1.000000000000000000 ) ) ;
#207 = PRODUCT_CONTEXT ( 'NONE', #213, 'mechanical' ) ;
#208 = DIMENSIONAL_EXPONENTS ( 1.000000000000000000, 0.0000000000000000000, 0.0000000000000000000, 0.0000000000000000000, 0.0000000000000000000, 0.0000000000000000000, 0.0000000000000000000 ) ;
#209 =( GEOMETRIC_REPRESENTATION_CONTEXT ( 3 ) GLOBAL_UNCERTAINTY_ASSIGNED_CONTEXT ( ( #28 ) ) GLOBAL_UNIT_ASSIGNED_CONTEXT ( ( #158, #162, #26 ) ) REPRESENTATION_CONTEXT ( 'NONE', 'WORKASPACE' ) );
#210 = UNCERTAINTY_MEASURE_WITH_UNIT (LENGTH_MEASURE( 1.000000000000000082E-05 ), #118, 'distance_accuracy_value', 'NONE');
#211 = PRESENTATION_LAYER_ASSIGNMENT (  '', '', ( #99 ) ) ;
#212 = CONICAL_SURFACE ( 'NONE', #73, 0.1424804999999998989, 0.7853981633974608245 ) ;
#213 = APPLICATION_CONTEXT ( 'automotive_design' ) ;
#214 = EDGE_CURVE ( 'NONE', #220, #161, #245, .T. ) ;
#215 = DIMENSIONAL_EXPONENTS ( 1.000000000000000000, 0.0000000000000000000, 0.0000000000000000000, 0.0000000000000000000, 0.0000000000000000000, 0.0000000000000000000, 0.0000000000000000000 ) ;
#216 = FACE_OUTER_BOUND ( 'NONE', #14, .T. ) ;
#217 = CARTESIAN_POINT ( 'NONE',  ( 0.0000000000000000000, 0.0000000000000000000, 0.0000000000000000000 ) ) ;
#218 = ORIENTED_EDGE ( 'NONE', *, *, #142, .F. ) ;
#219 = CARTESIAN_POINT ( 'NONE',  ( 1.238550258314708458E-16, 0.0000000000000000000, 1.011353035974972725 ) ) ;
#220 = VERTEX_POINT ( 'NONE', #124 ) ;
#221 = VECTOR ( 'NONE', #151, 39.37007874015748143 ) ;
#222 = CARTESIAN_POINT ( 'NONE',  ( 0.0000000000000000000, 0.0000000000000000000, 0.0000000000000000000 ) ) ;
#223 = CARTESIAN_POINT ( 'NONE',  ( -0.1179918899999998910, 1.444983904138465938E-17, 0.7874019999999999353 ) ) ;
#224 = ORIENTED_EDGE ( 'NONE', *, *, #270, .F. ) ;
#225 = FACE_OUTER_BOUND ( 'NONE', #232, .T. ) ;
#226 = SHAPE_DEFINITION_REPRESENTATION ( #230, #34 ) ;
#227 = CIRCLE ( 'NONE', #297, 0.1424804999999998989 ) ;
#228 = FILL_AREA_STYLE_COLOUR ( '', #144 ) ;
#229 = DIRECTION ( 'NONE',  ( -0.0000000000000000000, -0.0000000000000000000, -1.000000000000000000 ) ) ;
#230 = PRODUCT_DEFINITION_SHAPE ( 'NONE', 'NONE',  #276 ) ;
#231 =( NAMED_UNIT ( * ) SI_UNIT ( $, .STERADIAN. ) SOLID_ANGLE_UNIT ( ) );
#232 = EDGE_LOOP ( 'NONE', ( #168, #234, #44, #188 ) ) ;
#233 = APPLICATION_PROTOCOL_DEFINITION ( 'draft international standard', 'automotive_design', 1998, #213 ) ;
#234 = ORIENTED_EDGE ( 'NONE', *, *, #142, .T. ) ;
#235 = AXIS2_PLACEMENT_3D ( 'NONE', #150, #251, #84 ) ;
#236 = ORIENTED_EDGE ( 'NONE', *, *, #243, .T. ) ;
#237 =( LENGTH_UNIT ( ) NAMED_UNIT ( * ) SI_UNIT ( $, .METRE. ) );
#238 = AXIS2_PLACEMENT_3D ( 'NONE', #19, #229, #113 ) ;
#239 = MECHANICAL_DESIGN_GEOMETRIC_PRESENTATION_REPRESENTATION (  '', ( #99 ), #78 ) ;
#240 = CARTESIAN_POINT ( 'NONE',  ( 0.0000000000000000000, 0.0000000000000000000, 3.740156999999999954 ) ) ;
#241 = DIRECTION ( 'NONE',  ( -0.7071067811865563435, 0.0000000000000000000, -0.7071067811865386910 ) ) ;
#242 = ORIENTED_EDGE ( 'NONE', *, *, #52, .T. ) ;
#243 = EDGE_CURVE ( 'NONE', #56, #161, #17, .T. ) ;
#244 = DIRECTION ( 'NONE',  ( 1.000000000000000000, 0.0000000000000000000, 0.0000000000000000000 ) ) ;
#245 = LINE ( 'NONE', #223, #280 ) ;
#246 = VERTEX_POINT ( 'NONE', #9 ) ;
#247 = DIRECTION ( 'NONE',  ( 1.224646799147353207E-16, 0.0000000000000000000, 1.000000000000000000 ) ) ;
#248 = DIRECTION ( 'NONE',  ( -0.0000000000000000000, -0.0000000000000000000, -1.000000000000000000 ) ) ;
#249 = AXIS2_PLACEMENT_3D ( 'NONE', #275, #294, #75 ) ;
#250 = ORIENTED_EDGE ( 'NONE', *, *, #57, .T. ) ;
#251 = DIRECTION ( 'NONE',  ( 0.0000000000000000000, 0.0000000000000000000, 1.000000000000000000 ) ) ;
#252 = ORIENTED_EDGE ( 'NONE', *, *, #186, .T. ) ;
#253 = SURFACE_SIDE_STYLE ('',( #181 ) ) ;
#254 = EDGE_CURVE ( 'NONE', #161, #140, #205, .T. ) ;
#255 = VECTOR ( 'NONE', #248, 39.37007874015748143 ) ;
#256 = ORIENTED_EDGE ( 'NONE', *, *, #165, .F. ) ;
#257 = UNCERTAINTY_MEASURE_WITH_UNIT (LENGTH_MEASURE( 1.000000000000000082E-05 ), #25, 'distance_accuracy_value', 'NONE');
#258 = EDGE_LOOP ( 'NONE', ( #30, #250 ) ) ;
#259 = AXIS2_PLACEMENT_3D ( 'NONE', #217, #152, #107 ) ;
#260 = CONICAL_SURFACE ( 'NONE', #94, 0.1179918899999999882, 0.1745329251994338637 ) ;
#261 = AXIS2_PLACEMENT_3D ( 'NONE', #169, #153, #68 ) ;
#262 = DIRECTION ( 'NONE',  ( 1.224646799147353207E-16, 0.0000000000000000000, 1.000000000000000000 ) ) ;
#263 = EDGE_CURVE ( 'NONE', #220, #287, #171, .T. ) ;
#264 = DIRECTION ( 'NONE',  ( 1.000000000000000000, 0.0000000000000000000, 0.0000000000000000000 ) ) ;
#265 = LINE ( 'NONE', #64, #221 ) ;
#266 = CYLINDRICAL_SURFACE ( 'NONE', #259, 0.1179918899999999882 ) ;
#267 = VERTEX_POINT ( 'NONE', #127 ) ;
#268 = CARTESIAN_POINT ( 'NONE',  ( 0.1574805000000001343, 1.928579902531249261E-17, 1.011353035974972725 ) ) ;
#269 = ORIENTED_EDGE ( 'NONE', *, *, #57, .F. ) ;
#270 = EDGE_CURVE ( 'NONE', #287, #246, #55, .T. ) ;
#271 = FACE_OUTER_BOUND ( 'NONE', #112, .T. ) ;
#272 = CARTESIAN_POINT ( 'NONE',  ( -0.1424804999999998989, 0.0000000000000000000, 3.740156999999999954 ) ) ;
#273 = AXIS2_PLACEMENT_3D ( 'NONE', #219, #197, #291 ) ;
#274 = PRESENTATION_STYLE_ASSIGNMENT (( #133 ) ) ;
#275 = CARTESIAN_POINT ( 'NONE',  ( 1.769594913022618037E-33, 0.0000000000000000000, 1.444983904138465938E-17 ) ) ;
#276 = PRODUCT_DEFINITION ( 'UNKNOWN', '', #48, #121 ) ;
#277 = PRODUCT ( 'Micro_SFLM-060-60', 'Micro_SFLM-060-60', '', ( #207 ) ) ;
#278 = ORIENTED_EDGE ( 'NONE', *, *, #254, .T. ) ;
#279 = CARTESIAN_POINT ( 'NONE',  ( 0.0000000000000000000, 0.0000000000000000000, 3.725156999999999829 ) ) ;
#280 = VECTOR ( 'NONE', #70, 39.37007874015747433 ) ;
#281 = CARTESIAN_POINT ( 'NONE',  ( 9.642893389422242582E-17, 0.0000000000000000000, 0.7874019999999999353 ) ) ;
#282 = ORIENTED_EDGE ( 'NONE', *, *, #2, .F. ) ;
#283 = VECTOR ( 'NONE', #110, 39.37007874015748143 ) ;
#284 = DIRECTION ( 'NONE',  ( -1.224646799147353207E-16, -0.0000000000000000000, -1.000000000000000000 ) ) ;
#285 = PRESENTATION_STYLE_ASSIGNMENT (( #143 ) ) ;
#286 = DIRECTION ( 'NONE',  ( 1.000000000000000000, 0.0000000000000000000, 0.0000000000000000000 ) ) ;
#287 = VERTEX_POINT ( 'NONE', #177 ) ;
#288 = DIRECTION ( 'NONE',  ( -1.224646799147353207E-16, -0.0000000000000000000, -1.000000000000000000 ) ) ;
#289 = VERTEX_POINT ( 'NONE', #272 ) ;
#290 = EDGE_CURVE ( 'NONE', #246, #287, #77, .T. ) ;
#291 = DIRECTION ( 'NONE',  ( 1.000000000000000000, 0.0000000000000000000, 0.0000000000000000000 ) ) ;
#292 = CIRCLE ( 'NONE', #12, 0.1574804999999999955 ) ;
#293 = CYLINDRICAL_SURFACE ( 'NONE', #238, 0.1574804999999999955 ) ;
#294 = DIRECTION ( 'NONE',  ( -1.224646799147353207E-16, -0.0000000000000000000, -1.000000000000000000 ) ) ;
#295 = DIRECTION ( 'NONE',  ( -1.224646799147353207E-16, -0.0000000000000000000, -1.000000000000000000 ) ) ;
#296 = DIRECTION ( 'NONE',  ( 1.000000000000000000, 0.0000000000000000000, 0.0000000000000000000 ) ) ;
#297 = AXIS2_PLACEMENT_3D ( 'NONE', #240, #196, #286 ) ;
#298 = CARTESIAN_POINT ( 'NONE',  ( 9.642893389422242582E-17, 0.0000000000000000000, 0.7874019999999999353 ) ) ;
#299 =( NAMED_UNIT ( * ) SI_UNIT ( $, .STERADIAN. ) SOLID_ANGLE_UNIT ( ) );
ENDSEC;
END-ISO-10303-21;
