ISO-10303-21;
HEADER;
FILE_DESCRIPTION (( 'STEP AP214' ),
    '1' );
FILE_NAME ('84603.STEP',
    '2023-07-12T13:10:33',
    ( '' ),
    ( '' ),
    'SwSTEP 2.0',
    'SolidWorks 2023',
    '' );
FILE_SCHEMA (( 'AUTOMOTIVE_DESIGN' ));
ENDSEC;

DATA;
#1 = DIRECTION ( 'NONE',  ( -1.468600448673977089E-16, 1.000000000000000000, -0.000000000000000000 ) ) ;
#2 = DIRECTION ( 'NONE',  ( -1.468600448673977089E-16, 1.000000000000000000, -0.000000000000000000 ) ) ;
#3 = FILL_AREA_STYLE_COLOUR ( '', #128 ) ;
#4 = ORIENTED_EDGE ( 'NONE', *, *, #269, .F. ) ;
#5 = COLOUR_RGB ( '',0.7921568627450980005, 0.8196078431372548767, 0.9333333333333333481 ) ;
#6 = DIRECTION ( 'NONE',  ( -1.000000000000000000, -1.821231995776178437E-16, 0.000000000000000000 ) ) ;
#7 = LINE ( 'NONE', #205, #279 ) ;
#8 = LINE ( 'NONE', #204, #212 ) ;
#9 = AXIS2_PLACEMENT_3D ( 'NONE', #179, #35, #40 ) ;
#10 = PRODUCT_DEFINITION_SHAPE ( 'NONE', 'NONE',  #148 ) ;
#11 = AXIS2_PLACEMENT_3D ( 'NONE', #287, #263, #216 ) ;
#12 = EDGE_CURVE ( 'NONE', #193, #95, #33, .T. ) ;
#13 =( NAMED_UNIT ( * ) PLANE_ANGLE_UNIT ( ) SI_UNIT ( $, .RADIAN. ) );
#14 = DIRECTION ( 'NONE',  ( -1.468600448673977089E-16, 1.000000000000000000, -0.000000000000000000 ) ) ;
#15 = DIRECTION ( 'NONE',  ( 1.350672323656716052E-33, -1.000000000000000000, -0.000000000000000000 ) ) ;
#16 =( CONVERSION_BASED_UNIT ( 'INCH', #294 ) LENGTH_UNIT ( ) NAMED_UNIT ( #159 ) );
#17 =( NAMED_UNIT ( * ) SI_UNIT ( $, .STERADIAN. ) SOLID_ANGLE_UNIT ( ) );
#18 = SURFACE_SIDE_STYLE ('',( #137 ) ) ;
#19 = DIRECTION ( 'NONE',  ( -1.468600448673977089E-16, 1.000000000000000000, -0.000000000000000000 ) ) ;
#20 = ADVANCED_FACE ( 'NONE', ( #284 ), #255, .F. ) ;
#21 = CIRCLE ( 'NONE', #221, 0.03500000000000000333 ) ;
#22 = DIMENSIONAL_EXPONENTS ( 1.000000000000000000, 0.000000000000000000, 0.000000000000000000, 0.000000000000000000, 0.000000000000000000, 0.000000000000000000, 0.000000000000000000 ) ;
#23 = ORIENTED_EDGE ( 'NONE', *, *, #188, .F. ) ;
#24 =( GEOMETRIC_REPRESENTATION_CONTEXT ( 3 ) GLOBAL_UNCERTAINTY_ASSIGNED_CONTEXT ( ( #89 ) ) GLOBAL_UNIT_ASSIGNED_CONTEXT ( ( #85, #272, #303 ) ) REPRESENTATION_CONTEXT ( 'NONE', 'WORKASPACE' ) );
#25 = EDGE_CURVE ( 'NONE', #222, #168, #270, .T. ) ;
#26 = CARTESIAN_POINT ( 'NONE',  ( 0.000000000000000000, 0.000000000000000000, 0.000000000000000000 ) ) ;
#27 = ORIENTED_EDGE ( 'NONE', *, *, #122, .T. ) ;
#28 = CARTESIAN_POINT ( 'NONE',  ( 2.801539409366032200E-16, 0.1754311821012033423, 0.000000000000000000 ) ) ;
#29 = ADVANCED_FACE ( 'NONE', ( #178 ), #266, .T. ) ;
#30 = EDGE_LOOP ( 'NONE', ( #120, #195, #291, #57 ) ) ;
#31 =( NAMED_UNIT ( * ) PLANE_ANGLE_UNIT ( ) SI_UNIT ( $, .RADIAN. ) );
#32 =( GEOMETRIC_REPRESENTATION_CONTEXT ( 3 ) GLOBAL_UNCERTAINTY_ASSIGNED_CONTEXT ( ( #47 ) ) GLOBAL_UNIT_ASSIGNED_CONTEXT ( ( #304, #299, #108 ) ) REPRESENTATION_CONTEXT ( 'NONE', 'WORKASPACE' ) );
#33 = LINE ( 'NONE', #130, #103 ) ;
#34 = DIRECTION ( 'NONE',  ( 1.350672323656716223E-33, -1.000000000000000000, -0.000000000000000000 ) ) ;
#35 = DIRECTION ( 'NONE',  ( 1.350672323656716223E-33, -1.000000000000000000, -0.000000000000000000 ) ) ;
#36 =( CONVERSION_BASED_UNIT ( 'INCH', #245 ) LENGTH_UNIT ( ) NAMED_UNIT ( #280 ) );
#37 = CARTESIAN_POINT ( 'NONE',  ( -0.1874999999999994449, 0.1754311821012033423, 0.000000000000000000 ) ) ;
#38 = CIRCLE ( 'NONE', #143, 0.1874999999999999722 ) ;
#39 = SURFACE_STYLE_FILL_AREA ( #300 ) ;
#40 = DIRECTION ( 'NONE',  ( 1.000000000000000000, 1.350672323656716223E-33, 0.000000000000000000 ) ) ;
#41 = CARTESIAN_POINT ( 'NONE',  ( -6.123233995736764803E-17, 2.500000000000000000, 0.000000000000000000 ) ) ;
#42 = SURFACE_STYLE_USAGE ( .BOTH. , #18 ) ;
#43 = CIRCLE ( 'NONE', #213, 0.1874999999999996947 ) ;
#44 = SURFACE_STYLE_USAGE ( .BOTH. , #140 ) ;
#45 =( CONVERSION_BASED_UNIT ( 'INCH', #133 ) LENGTH_UNIT ( ) NAMED_UNIT ( #86 ) );
#46 = VERTEX_POINT ( 'NONE', #225 ) ;
#47 = UNCERTAINTY_MEASURE_WITH_UNIT (LENGTH_MEASURE( 1.000000000000000082E-05 ), #304, 'distance_accuracy_value', 'NONE');
#48 = SURFACE_SIDE_STYLE ('',( #292 ) ) ;
#49 = PRESENTATION_LAYER_ASSIGNMENT (  '', '', ( #164 ) ) ;
#50 = CARTESIAN_POINT ( 'NONE',  ( 0.1874999999999999722, 2.500000000000000000, 0.000000000000000000 ) ) ;
#51 = STYLED_ITEM ( 'NONE', ( #135 ), #117 ) ;
#52 = SURFACE_SIDE_STYLE ('',( #58 ) ) ;
#53 = ORIENTED_EDGE ( 'NONE', *, *, #306, .F. ) ;
#54 = FILL_AREA_STYLE ('',( #198 ) ) ;
#55 = ORIENTED_EDGE ( 'NONE', *, *, #25, .F. ) ;
#56 = CARTESIAN_POINT ( 'NONE',  ( -0.1874999999999999722, 0.1754311821012033423, 0.000000000000000000 ) ) ;
#57 = ORIENTED_EDGE ( 'NONE', *, *, #122, .F. ) ;
#58 = SURFACE_STYLE_FILL_AREA ( #54 ) ;
#59 = STYLED_ITEM ( 'NONE', ( #160 ), #163 ) ;
#60 = STYLED_ITEM ( 'NONE', ( #226 ), #281 ) ;
#61 = CARTESIAN_POINT ( 'NONE',  ( 3.192552520311408418E-68, -2.363676566399253530E-35, 0.000000000000000000 ) ) ;
#62 = LINE ( 'NONE', #157, #302 ) ;
#63 = DIRECTION ( 'NONE',  ( -1.350672323656716223E-33, 1.000000000000000000, 0.000000000000000000 ) ) ;
#64 = FILL_AREA_STYLE ('',( #211 ) ) ;
#65 = DIMENSIONAL_EXPONENTS ( 1.000000000000000000, 0.000000000000000000, 0.000000000000000000, 0.000000000000000000, 0.000000000000000000, 0.000000000000000000, 0.000000000000000000 ) ;
#66 = CIRCLE ( 'NONE', #139, 0.1874999999999999722 ) ;
#67 = PRODUCT_DEFINITION_FORMATION_WITH_SPECIFIED_SOURCE ( 'ANY', '', #243, .NOT_KNOWN. ) ;
#68 =( NAMED_UNIT ( * ) PLANE_ANGLE_UNIT ( ) SI_UNIT ( $, .RADIAN. ) );
#69 = DIMENSIONAL_EXPONENTS ( 1.000000000000000000, 0.000000000000000000, 0.000000000000000000, 0.000000000000000000, 0.000000000000000000, 0.000000000000000000, 0.000000000000000000 ) ;
#70 = PRODUCT_RELATED_PRODUCT_CATEGORY ( 'part', '', ( #243 ) ) ;
#71 = CARTESIAN_POINT ( 'NONE',  ( -0.03500000000000000333, -9.454706265597014120E-35, 0.000000000000000000 ) ) ;
#72 = MECHANICAL_DESIGN_GEOMETRIC_PRESENTATION_REPRESENTATION (  '', ( #164 ), #207 ) ;
#73 = ORIENTED_EDGE ( 'NONE', *, *, #308, .F. ) ;
#74 = CIRCLE ( 'NONE', #192, 0.1875000000000000555 ) ;
#75 = SURFACE_STYLE_USAGE ( .BOTH. , #52 ) ;
#76 = APPLICATION_CONTEXT ( 'automotive_design' ) ;
#77 = EDGE_LOOP ( 'NONE', ( #238, #27 ) ) ;
#78 = CARTESIAN_POINT ( 'NONE',  ( -6.123233995736766036E-17, 2.500000000000000000, 0.000000000000000000 ) ) ;
#79 = ORIENTED_EDGE ( 'NONE', *, *, #269, .T. ) ;
#80 = FILL_AREA_STYLE_COLOUR ( '', #5 ) ;
#81 = PRESENTATION_LAYER_ASSIGNMENT (  '', '', ( #244 ) ) ;
#82 = EDGE_CURVE ( 'NONE', #222, #219, #62, .T. ) ;
#83 = DIRECTION ( 'NONE',  ( -1.000000000000000000, 0.000000000000000000, 0.000000000000000000 ) ) ;
#84 = PRODUCT_CONTEXT ( 'NONE', #76, 'mechanical' ) ;
#85 =( CONVERSION_BASED_UNIT ( 'INCH', #229 ) LENGTH_UNIT ( ) NAMED_UNIT ( #65 ) );
#86 = DIMENSIONAL_EXPONENTS ( 1.000000000000000000, 0.000000000000000000, 0.000000000000000000, 0.000000000000000000, 0.000000000000000000, 0.000000000000000000, 0.000000000000000000 ) ;
#87 =( NAMED_UNIT ( * ) PLANE_ANGLE_UNIT ( ) SI_UNIT ( $, .RADIAN. ) );
#88 = CARTESIAN_POINT ( 'NONE',  ( -6.123233995736766036E-17, 2.500000000000000000, 0.000000000000000000 ) ) ;
#89 = UNCERTAINTY_MEASURE_WITH_UNIT (LENGTH_MEASURE( 1.000000000000000082E-05 ), #85, 'distance_accuracy_value', 'NONE');
#90 = DIRECTION ( 'NONE',  ( -1.000000000000000000, 0.000000000000000000, 0.000000000000000000 ) ) ;
#91 = MECHANICAL_DESIGN_GEOMETRIC_PRESENTATION_REPRESENTATION (  '', ( #244 ), #104 ) ;
#92 = AXIS2_PLACEMENT_3D ( 'NONE', #275, #239, #145 ) ;
#93 = ORIENTED_EDGE ( 'NONE', *, *, #231, .T. ) ;
#94 = CARTESIAN_POINT ( 'NONE',  ( 0.1874999999999999722, 0.1754311821012034256, 2.296212748401286801E-17 ) ) ;
#95 = VERTEX_POINT ( 'NONE', #247 ) ;
#96 = PRESENTATION_LAYER_ASSIGNMENT (  '', '', ( #60 ) ) ;
#97 = CARTESIAN_POINT ( 'NONE',  ( -2.369500423704768587E-34, 0.1754311821012033423, 0.000000000000000000 ) ) ;
#98 = EDGE_LOOP ( 'NONE', ( #166, #79 ) ) ;
#99 = FACE_OUTER_BOUND ( 'NONE', #30, .T. ) ;
#100 = SURFACE_SIDE_STYLE ('',( #39 ) ) ;
#101 = DIRECTION ( 'NONE',  ( 1.000000000000000000, 1.350672323656716052E-33, 0.000000000000000000 ) ) ;
#102 = DIRECTION ( 'NONE',  ( -1.468600448673977089E-16, 1.000000000000000000, -0.000000000000000000 ) ) ;
#103 = VECTOR ( 'NONE', #1, 39.37007874015748143 ) ;
#104 =( GEOMETRIC_REPRESENTATION_CONTEXT ( 3 ) GLOBAL_UNCERTAINTY_ASSIGNED_CONTEXT ( ( #309 ) ) GLOBAL_UNIT_ASSIGNED_CONTEXT ( ( #16, #87, #265 ) ) REPRESENTATION_CONTEXT ( 'NONE', 'WORKASPACE' ) );
#105 = AXIS2_PLACEMENT_3D ( 'NONE', #298, #156, #83 ) ;
#106 = PRESENTATION_STYLE_ASSIGNMENT (( #293 ) ) ;
#107 = EDGE_CURVE ( 'NONE', #168, #46, #8, .T. ) ;
#108 =( NAMED_UNIT ( * ) SI_UNIT ( $, .STERADIAN. ) SOLID_ANGLE_UNIT ( ) );
#109 = DIRECTION ( 'NONE',  ( 1.000000000000000000, 1.468600448673977089E-16, 0.000000000000000000 ) ) ;
#110 =( LENGTH_UNIT ( ) NAMED_UNIT ( * ) SI_UNIT ( $, .METRE. ) );
#111 = STYLED_ITEM ( 'NONE', ( #142 ), #182 ) ;
#112 =( GEOMETRIC_REPRESENTATION_CONTEXT ( 3 ) GLOBAL_UNCERTAINTY_ASSIGNED_CONTEXT ( ( #121 ) ) GLOBAL_UNIT_ASSIGNED_CONTEXT ( ( #45, #68, #190 ) ) REPRESENTATION_CONTEXT ( 'NONE', 'WORKASPACE' ) );
#113 =( CONVERSION_BASED_UNIT ( 'INCH', #162 ) LENGTH_UNIT ( ) NAMED_UNIT ( #69 ) );
#114 =( LENGTH_UNIT ( ) NAMED_UNIT ( * ) SI_UNIT ( $, .METRE. ) );
#115 = COLOUR_RGB ( '',0.7921568627450980005, 0.8196078431372548767, 0.9333333333333333481 ) ;
#116 = UNCERTAINTY_MEASURE_WITH_UNIT (LENGTH_MEASURE( 1.000000000000000082E-05 ), #129, 'distance_accuracy_value', 'NONE');
#117 = MANIFOLD_SOLID_BREP ( 'Revolve - Tool Body (Tipped Off)', #206 ) ;
#118 = APPLICATION_PROTOCOL_DEFINITION ( 'draft international standard', 'automotive_design', 1998, #76 ) ;
#119 = MECHANICAL_DESIGN_GEOMETRIC_PRESENTATION_REPRESENTATION (  '', ( #59 ), #170 ) ;
#120 = ORIENTED_EDGE ( 'NONE', *, *, #12, .F. ) ;
#121 = UNCERTAINTY_MEASURE_WITH_UNIT (LENGTH_MEASURE( 1.000000000000000082E-05 ), #45, 'distance_accuracy_value', 'NONE');
#122 = EDGE_CURVE ( 'NONE', #95, #123, #74, .T. ) ;
#123 = VERTEX_POINT ( 'NONE', #184 ) ;
#124 = LENGTH_MEASURE_WITH_UNIT ( LENGTH_MEASURE( 0.02539999999999999897 ), #172 );
#125 = APPLICATION_PROTOCOL_DEFINITION ( 'draft international standard', 'automotive_design', 1998, #252 ) ;
#126 = ORIENTED_EDGE ( 'NONE', *, *, #251, .F. ) ;
#127 = DIRECTION ( 'NONE',  ( -1.468600448673977089E-16, 1.000000000000000000, 0.000000000000000000 ) ) ;
#128 = COLOUR_RGB ( '',1.000000000000000000, 0.000000000000000000, 0.000000000000000000 ) ;
#129 =( CONVERSION_BASED_UNIT ( 'INCH', #124 ) LENGTH_UNIT ( ) NAMED_UNIT ( #189 ) );
#130 = CARTESIAN_POINT ( 'NONE',  ( 0.1874999999999998057, 2.500000000000000000, 2.296212748401285877E-17 ) ) ;
#131 =( NAMED_UNIT ( * ) PLANE_ANGLE_UNIT ( ) SI_UNIT ( $, .RADIAN. ) );
#132 = DIRECTION ( 'NONE',  ( 1.000000000000000000, 1.350672323656716223E-33, 0.000000000000000000 ) ) ;
#133 = LENGTH_MEASURE_WITH_UNIT ( LENGTH_MEASURE( 0.02539999999999999897 ), #267 );
#134 = CONICAL_SURFACE ( 'NONE', #92, 0.03500000000000000333, 0.7155849933176767763 ) ;
#135 = PRESENTATION_STYLE_ASSIGNMENT (( #176 ) ) ;
#136 = DIRECTION ( 'NONE',  ( 0.6560590289905084971, 0.7547095802227710148, 8.034405899049468590E-17 ) ) ;
#137 = SURFACE_STYLE_FILL_AREA ( #248 ) ;
#138 = SURFACE_STYLE_FILL_AREA ( #227 ) ;
#139 = AXIS2_PLACEMENT_3D ( 'NONE', #97, #34, #261 ) ;
#140 = SURFACE_SIDE_STYLE ('',( #234 ) ) ;
#141 = ORIENTED_EDGE ( 'NONE', *, *, #82, .F. ) ;
#142 = PRESENTATION_STYLE_ASSIGNMENT (( #236 ) ) ;
#143 = AXIS2_PLACEMENT_3D ( 'NONE', #169, #154, #232 ) ;
#144 = EDGE_LOOP ( 'NONE', ( #253, #286, #73, #126 ) ) ;
#145 = DIRECTION ( 'NONE',  ( -1.000000000000000000, -1.350672323656716223E-33, 0.000000000000000000 ) ) ;
#146 = ADVANCED_FACE ( 'NONE', ( #305 ), #210, .T. ) ;
#147 = ORIENTED_EDGE ( 'NONE', *, *, #174, .F. ) ;
#148 = PRODUCT_DEFINITION ( 'UNKNOWN', '', #67, #191 ) ;
#149 = EDGE_LOOP ( 'NONE', ( #175, #147 ) ) ;
#150 = PLANE ( 'NONE',  #295 ) ;
#151 =( LENGTH_UNIT ( ) NAMED_UNIT ( * ) SI_UNIT ( $, .METRE. ) );
#152 = DIRECTION ( 'NONE',  ( 1.000000000000000000, 0.000000000000000000, 0.000000000000000000 ) ) ;
#153 = SURFACE_SIDE_STYLE ('',( #138 ) ) ;
#154 = DIRECTION ( 'NONE',  ( 1.350672323656716223E-33, -1.000000000000000000, -0.000000000000000000 ) ) ;
#155 = DIRECTION ( 'NONE',  ( -1.468600448673977089E-16, 1.000000000000000000, -0.000000000000000000 ) ) ;
#156 = DIRECTION ( 'NONE',  ( -1.468600448673977089E-16, 1.000000000000000000, -0.000000000000000000 ) ) ;
#157 = CARTESIAN_POINT ( 'NONE',  ( -0.03500000000000000333, -9.454706265597014120E-35, 0.000000000000000000 ) ) ;
#158 = FILL_AREA_STYLE_COLOUR ( '', #196 ) ;
#159 = DIMENSIONAL_EXPONENTS ( 1.000000000000000000, 0.000000000000000000, 0.000000000000000000, 0.000000000000000000, 0.000000000000000000, 0.000000000000000000, 0.000000000000000000 ) ;
#160 = PRESENTATION_STYLE_ASSIGNMENT (( #44 ) ) ;
#161 = COLOUR_RGB ( '',1.000000000000000000, 0.000000000000000000, 0.000000000000000000 ) ;
#162 = LENGTH_MEASURE_WITH_UNIT ( LENGTH_MEASURE( 0.02539999999999999897 ), #114 );
#163 = ADVANCED_FACE ( 'NONE', ( #183 ), #134, .T. ) ;
#164 = STYLED_ITEM ( 'NONE', ( #106 ), #29 ) ;
#165 = MECHANICAL_DESIGN_GEOMETRIC_PRESENTATION_REPRESENTATION (  '', ( #51 ), #24 ) ;
#166 = ORIENTED_EDGE ( 'NONE', *, *, #25, .T. ) ;
#167 = CARTESIAN_POINT ( 'NONE',  ( 0.03500000000000000333, 0.000000000000000000, 1.362419564051430200E-17 ) ) ;
#168 = VERTEX_POINT ( 'NONE', #167 ) ;
#169 = CARTESIAN_POINT ( 'NONE',  ( -2.369500423704768587E-34, 0.1754311821012033423, 0.000000000000000000 ) ) ;
#170 =( GEOMETRIC_REPRESENTATION_CONTEXT ( 3 ) GLOBAL_UNCERTAINTY_ASSIGNED_CONTEXT ( ( #276 ) ) GLOBAL_UNIT_ASSIGNED_CONTEXT ( ( #113, #31, #223 ) ) REPRESENTATION_CONTEXT ( 'NONE', 'WORKASPACE' ) );
#171 = AXIS2_PLACEMENT_3D ( 'NONE', #26, #258, #152 ) ;
#172 =( LENGTH_UNIT ( ) NAMED_UNIT ( * ) SI_UNIT ( $, .METRE. ) );
#173 = DIRECTION ( 'NONE',  ( -1.000000000000000000, 0.000000000000000000, 0.000000000000000000 ) ) ;
#174 = EDGE_CURVE ( 'NONE', #46, #219, #66, .T. ) ;
#175 = ORIENTED_EDGE ( 'NONE', *, *, #231, .F. ) ;
#176 = SURFACE_STYLE_USAGE ( .BOTH. , #100 ) ;
#177 =( GEOMETRIC_REPRESENTATION_CONTEXT ( 3 ) GLOBAL_UNCERTAINTY_ASSIGNED_CONTEXT ( ( #116 ) ) GLOBAL_UNIT_ASSIGNED_CONTEXT ( ( #129, #131, #220 ) ) REPRESENTATION_CONTEXT ( 'NONE', 'WORKASPACE' ) );
#178 = FACE_OUTER_BOUND ( 'NONE', #98, .T. ) ;
#179 = CARTESIAN_POINT ( 'NONE',  ( 6.385105040622816835E-68, -4.727353132798507060E-35, 0.000000000000000000 ) ) ;
#180 = DIRECTION ( 'NONE',  ( 1.350672323656716223E-33, -1.000000000000000000, -0.000000000000000000 ) ) ;
#181 = MECHANICAL_DESIGN_GEOMETRIC_PRESENTATION_REPRESENTATION (  '', ( #111 ), #177 ) ;
#182 = ADVANCED_FACE ( 'NONE', ( #254 ), #283, .T. ) ;
#183 = FACE_OUTER_BOUND ( 'NONE', #197, .T. ) ;
#184 = CARTESIAN_POINT ( 'NONE',  ( -0.1875000000000001110, 2.500000000000000000, 0.000000000000000000 ) ) ;
#185 = COLOUR_RGB ( '',1.000000000000000000, 0.000000000000000000, 0.000000000000000000 ) ;
#186 = CIRCLE ( 'NONE', #105, 0.1875000000000000555 ) ;
#187 = ADVANCED_BREP_SHAPE_REPRESENTATION ( '84603', ( #228, #117, #171 ), #112 ) ;
#188 = EDGE_CURVE ( 'NONE', #193, #282, #43, .T. ) ;
#189 = DIMENSIONAL_EXPONENTS ( 1.000000000000000000, 0.000000000000000000, 0.000000000000000000, 0.000000000000000000, 0.000000000000000000, 0.000000000000000000, 0.000000000000000000 ) ;
#190 =( NAMED_UNIT ( * ) SI_UNIT ( $, .STERADIAN. ) SOLID_ANGLE_UNIT ( ) );
#191 = PRODUCT_DEFINITION_CONTEXT ( 'detailed design', #252, 'design' ) ;
#192 = AXIS2_PLACEMENT_3D ( 'NONE', #41, #155, #277 ) ;
#193 = VERTEX_POINT ( 'NONE', #94 ) ;
#194 = CYLINDRICAL_SURFACE ( 'NONE', #257, 0.1874999999999998890 ) ;
#195 = ORIENTED_EDGE ( 'NONE', *, *, #188, .T. ) ;
#196 = COLOUR_RGB ( '',1.000000000000000000, 0.000000000000000000, 0.000000000000000000 ) ;
#197 = EDGE_LOOP ( 'NONE', ( #4, #214, #289, #141 ) ) ;
#198 = FILL_AREA_STYLE_COLOUR ( '', #115 ) ;
#199 = FACE_OUTER_BOUND ( 'NONE', #260, .T. ) ;
#200 = PRESENTATION_LAYER_ASSIGNMENT (  '', '', ( #51 ) ) ;
#201 = DIRECTION ( 'NONE',  ( -1.000000000000000000, -1.821231995776178437E-16, 0.000000000000000000 ) ) ;
#202 = CONICAL_SURFACE ( 'NONE', #208, 0.03500000000000000333, 0.7155849933176767763 ) ;
#203 = DIRECTION ( 'NONE',  ( -1.000000000000000000, -1.350672323656716223E-33, 0.000000000000000000 ) ) ;
#204 = CARTESIAN_POINT ( 'NONE',  ( 0.03500000000000000333, 0.000000000000000000, 4.286263797015735979E-18 ) ) ;
#205 = CARTESIAN_POINT ( 'NONE',  ( -0.1874999999999999445, 2.500000000000000000, 0.000000000000000000 ) ) ;
#206 = CLOSED_SHELL ( 'NONE', ( #146, #209, #217, #20 ) ) ;
#207 =( GEOMETRIC_REPRESENTATION_CONTEXT ( 3 ) GLOBAL_UNCERTAINTY_ASSIGNED_CONTEXT ( ( #297 ) ) GLOBAL_UNIT_ASSIGNED_CONTEXT ( ( #36, #13, #17 ) ) REPRESENTATION_CONTEXT ( 'NONE', 'WORKASPACE' ) );
#208 = AXIS2_PLACEMENT_3D ( 'NONE', #274, #63, #203 ) ;
#209 = ADVANCED_FACE ( 'NONE', ( #290 ), #150, .F. ) ;
#210 = CYLINDRICAL_SURFACE ( 'NONE', #235, 0.1874999999999998890 ) ;
#211 = FILL_AREA_STYLE_COLOUR ( '', #161 ) ;
#212 = VECTOR ( 'NONE', #136, 39.37007874015748854 ) ;
#213 = AXIS2_PLACEMENT_3D ( 'NONE', #237, #2, #6 ) ;
#214 = ORIENTED_EDGE ( 'NONE', *, *, #107, .T. ) ;
#215 = ORIENTED_EDGE ( 'NONE', *, *, #107, .F. ) ;
#216 = DIRECTION ( 'NONE',  ( -1.000000000000000000, -1.350672323656716052E-33, 0.000000000000000000 ) ) ;
#217 = ADVANCED_FACE ( 'NONE', ( #99 ), #194, .T. ) ;
#218 = SHAPE_DEFINITION_REPRESENTATION ( #10, #187 ) ;
#219 = VERTEX_POINT ( 'NONE', #56 ) ;
#220 =( NAMED_UNIT ( * ) SI_UNIT ( $, .STERADIAN. ) SOLID_ANGLE_UNIT ( ) );
#221 = AXIS2_PLACEMENT_3D ( 'NONE', #249, #180, #132 ) ;
#222 = VERTEX_POINT ( 'NONE', #71 ) ;
#223 =( NAMED_UNIT ( * ) SI_UNIT ( $, .STERADIAN. ) SOLID_ANGLE_UNIT ( ) );
#224 = CARTESIAN_POINT ( 'NONE',  ( 2.801539409366032693E-16, 0.1754311821012033978, 0.000000000000000000 ) ) ;
#225 = CARTESIAN_POINT ( 'NONE',  ( 0.1874999999999999722, 0.1754311821012033423, 2.296212748401287109E-17 ) ) ;
#226 = PRESENTATION_STYLE_ASSIGNMENT (( #42 ) ) ;
#227 = FILL_AREA_STYLE ('',( #268 ) ) ;
#228 = MANIFOLD_SOLID_BREP ( 'Revolve - Cutting Edge', #301 ) ;
#229 = LENGTH_MEASURE_WITH_UNIT ( LENGTH_MEASURE( 0.02539999999999999897 ), #151 );
#230 = LENGTH_MEASURE_WITH_UNIT ( LENGTH_MEASURE( 0.02539999999999999897 ), #110 );
#231 = EDGE_CURVE ( 'NONE', #219, #46, #38, .T. ) ;
#232 = DIRECTION ( 'NONE',  ( 1.000000000000000000, 0.000000000000000000, 0.000000000000000000 ) ) ;
#233 =( LENGTH_UNIT ( ) NAMED_UNIT ( * ) SI_UNIT ( $, .METRE. ) );
#234 = SURFACE_STYLE_FILL_AREA ( #64 ) ;
#235 = AXIS2_PLACEMENT_3D ( 'NONE', #88, #19, #90 ) ;
#236 = SURFACE_STYLE_USAGE ( .BOTH. , #48 ) ;
#237 = CARTESIAN_POINT ( 'NONE',  ( 2.801539409366032693E-16, 0.1754311821012033978, 0.000000000000000000 ) ) ;
#238 = ORIENTED_EDGE ( 'NONE', *, *, #308, .T. ) ;
#239 = DIRECTION ( 'NONE',  ( -1.350672323656716223E-33, 1.000000000000000000, 0.000000000000000000 ) ) ;
#240 = PRESENTATION_LAYER_ASSIGNMENT (  '', '', ( #59 ) ) ;
#241 = FILL_AREA_STYLE ('',( #3 ) ) ;
#242 = PRESENTATION_STYLE_ASSIGNMENT (( #75 ) ) ;
#243 = PRODUCT ( '84603', '84603', '', ( #84 ) ) ;
#244 = STYLED_ITEM ( 'NONE', ( #242 ), #228 ) ;
#245 = LENGTH_MEASURE_WITH_UNIT ( LENGTH_MEASURE( 0.02539999999999999897 ), #233 );
#246 =( LENGTH_UNIT ( ) NAMED_UNIT ( * ) SI_UNIT ( $, .METRE. ) );
#247 = CARTESIAN_POINT ( 'NONE',  ( 0.1874999999999999722, 2.500000000000000000, 2.296212748401286801E-17 ) ) ;
#248 = FILL_AREA_STYLE ('',( #158 ) ) ;
#249 = CARTESIAN_POINT ( 'NONE',  ( 6.385105040622816835E-68, -4.727353132798507060E-35, 0.000000000000000000 ) ) ;
#250 = AXIS2_PLACEMENT_3D ( 'NONE', #224, #102, #201 ) ;
#251 = EDGE_CURVE ( 'NONE', #282, #123, #7, .T. ) ;
#252 = APPLICATION_CONTEXT ( 'automotive_design' ) ;
#253 = ORIENTED_EDGE ( 'NONE', *, *, #306, .T. ) ;
#254 = FACE_OUTER_BOUND ( 'NONE', #149, .T. ) ;
#255 = PLANE ( 'NONE',  #278 ) ;
#256 = DIRECTION ( 'NONE',  ( -1.000000000000000000, -1.468600448673977089E-16, 0.000000000000000000 ) ) ;
#257 = AXIS2_PLACEMENT_3D ( 'NONE', #78, #285, #173 ) ;
#258 = DIRECTION ( 'NONE',  ( 0.000000000000000000, 0.000000000000000000, 1.000000000000000000 ) ) ;
#259 = ORIENTED_EDGE ( 'NONE', *, *, #82, .T. ) ;
#260 = EDGE_LOOP ( 'NONE', ( #215, #55, #259, #93 ) ) ;
#261 = DIRECTION ( 'NONE',  ( 1.000000000000000000, 0.000000000000000000, 0.000000000000000000 ) ) ;
#262 = EDGE_LOOP ( 'NONE', ( #53, #23 ) ) ;
#263 = DIRECTION ( 'NONE',  ( -1.350672323656716052E-33, 1.000000000000000000, 0.000000000000000000 ) ) ;
#264 = CIRCLE ( 'NONE', #250, 0.1874999999999996947 ) ;
#265 =( NAMED_UNIT ( * ) SI_UNIT ( $, .STERADIAN. ) SOLID_ANGLE_UNIT ( ) );
#266 = PLANE ( 'NONE',  #307 ) ;
#267 =( LENGTH_UNIT ( ) NAMED_UNIT ( * ) SI_UNIT ( $, .METRE. ) );
#268 = FILL_AREA_STYLE_COLOUR ( '', #185 ) ;
#269 = EDGE_CURVE ( 'NONE', #168, #222, #21, .T. ) ;
#270 = CIRCLE ( 'NONE', #9, 0.03500000000000000333 ) ;
#271 = MECHANICAL_DESIGN_GEOMETRIC_PRESENTATION_REPRESENTATION (  '', ( #60 ), #32 ) ;
#272 =( NAMED_UNIT ( * ) PLANE_ANGLE_UNIT ( ) SI_UNIT ( $, .RADIAN. ) );
#273 = DIRECTION ( 'NONE',  ( -0.6560590289905084971, 0.7547095802227710148, 0.000000000000000000 ) ) ;
#274 = CARTESIAN_POINT ( 'NONE',  ( 6.385105040622816835E-68, -4.727353132798507060E-35, 0.000000000000000000 ) ) ;
#275 = CARTESIAN_POINT ( 'NONE',  ( 6.385105040622816835E-68, -4.727353132798507060E-35, 0.000000000000000000 ) ) ;
#276 = UNCERTAINTY_MEASURE_WITH_UNIT (LENGTH_MEASURE( 1.000000000000000082E-05 ), #113, 'distance_accuracy_value', 'NONE');
#277 = DIRECTION ( 'NONE',  ( -1.000000000000000000, 0.000000000000000000, 0.000000000000000000 ) ) ;
#278 = AXIS2_PLACEMENT_3D ( 'NONE', #50, #296, #109 ) ;
#279 = VECTOR ( 'NONE', #14, 39.37007874015748143 ) ;
#280 = DIMENSIONAL_EXPONENTS ( 1.000000000000000000, 0.000000000000000000, 0.000000000000000000, 0.000000000000000000, 0.000000000000000000, 0.000000000000000000, 0.000000000000000000 ) ;
#281 = ADVANCED_FACE ( 'NONE', ( #199 ), #202, .T. ) ;
#282 = VERTEX_POINT ( 'NONE', #37 ) ;
#283 = PLANE ( 'NONE',  #11 ) ;
#284 = FACE_OUTER_BOUND ( 'NONE', #77, .T. ) ;
#285 = DIRECTION ( 'NONE',  ( -1.468600448673977089E-16, 1.000000000000000000, -0.000000000000000000 ) ) ;
#286 = ORIENTED_EDGE ( 'NONE', *, *, #12, .T. ) ;
#287 = CARTESIAN_POINT ( 'NONE',  ( -2.369500423704768587E-34, 0.1754311821012033423, 0.000000000000000000 ) ) ;
#288 = PRESENTATION_LAYER_ASSIGNMENT (  '', '', ( #111 ) ) ;
#289 = ORIENTED_EDGE ( 'NONE', *, *, #174, .T. ) ;
#290 = FACE_OUTER_BOUND ( 'NONE', #262, .T. ) ;
#291 = ORIENTED_EDGE ( 'NONE', *, *, #251, .T. ) ;
#292 = SURFACE_STYLE_FILL_AREA ( #241 ) ;
#293 = SURFACE_STYLE_USAGE ( .BOTH. , #153 ) ;
#294 = LENGTH_MEASURE_WITH_UNIT ( LENGTH_MEASURE( 0.02539999999999999897 ), #246 );
#295 = AXIS2_PLACEMENT_3D ( 'NONE', #28, #127, #256 ) ;
#296 = DIRECTION ( 'NONE',  ( 1.468600448673977089E-16, -1.000000000000000000, 0.000000000000000000 ) ) ;
#297 = UNCERTAINTY_MEASURE_WITH_UNIT (LENGTH_MEASURE( 1.000000000000000082E-05 ), #36, 'distance_accuracy_value', 'NONE');
#298 = CARTESIAN_POINT ( 'NONE',  ( -6.123233995736764803E-17, 2.500000000000000000, 0.000000000000000000 ) ) ;
#299 =( NAMED_UNIT ( * ) PLANE_ANGLE_UNIT ( ) SI_UNIT ( $, .RADIAN. ) );
#300 = FILL_AREA_STYLE ('',( #80 ) ) ;
#301 = CLOSED_SHELL ( 'NONE', ( #163, #182, #281, #29 ) ) ;
#302 = VECTOR ( 'NONE', #273, 39.37007874015748854 ) ;
#303 =( NAMED_UNIT ( * ) SI_UNIT ( $, .STERADIAN. ) SOLID_ANGLE_UNIT ( ) );
#304 =( CONVERSION_BASED_UNIT ( 'INCH', #230 ) LENGTH_UNIT ( ) NAMED_UNIT ( #22 ) );
#305 = FACE_OUTER_BOUND ( 'NONE', #144, .T. ) ;
#306 = EDGE_CURVE ( 'NONE', #282, #193, #264, .T. ) ;
#307 = AXIS2_PLACEMENT_3D ( 'NONE', #61, #15, #101 ) ;
#308 = EDGE_CURVE ( 'NONE', #123, #95, #186, .T. ) ;
#309 = UNCERTAINTY_MEASURE_WITH_UNIT (LENGTH_MEASURE( 1.000000000000000082E-05 ), #16, 'distance_accuracy_value', 'NONE');
ENDSEC;
END-ISO-10303-21;
