ISO-10303-21;
HEADER;
FILE_DESCRIPTION (( 'STEP AP214' ),
    '1' );
FILE_NAME ('59493.STEP',
    '2023-07-24T15:07:48',
    ( '' ),
    ( '' ),
    'SwSTEP 2.0',
    'SolidWorks 2023',
    '' );
FILE_SCHEMA (( 'AUTOMOTIVE_DESIGN' ));
ENDSEC;

DATA;
#1 = CLOSED_SHELL ( 'NONE', ( #223, #201, #316, #150, #300, #152 ) ) ;
#2 = FILL_AREA_STYLE_COLOUR ( '', #224 ) ;
#3 = PRESENTATION_LAYER_ASSIGNMENT (  '', '', ( #132 ) ) ;
#4 =( LENGTH_UNIT ( ) NAMED_UNIT ( * ) SI_UNIT ( .MILLI., .METRE. ) );
#5 = ADVANCED_FACE ( 'NONE', ( #164 ), #133, .F. ) ;
#6 = PRESENTATION_STYLE_ASSIGNMENT (( #63 ) ) ;
#7 = ORIENTED_EDGE ( 'NONE', *, *, #136, .F. ) ;
#8 = CARTESIAN_POINT ( 'NONE',  ( 0.000000000000000000, 1.000000000000000000, -9.000000000000001776 ) ) ;
#9 = DIRECTION ( 'NONE',  ( -1.000000000000000000, -1.236440607496819135E-16, 0.000000000000000000 ) ) ;
#10 = EDGE_LOOP ( 'NONE', ( #303, #368, #291, #350 ) ) ;
#11 =( NAMED_UNIT ( * ) PLANE_ANGLE_UNIT ( ) SI_UNIT ( $, .RADIAN. ) );
#12 = AXIS2_PLACEMENT_3D ( 'NONE', #194, #171, #252 ) ;
#13 = EDGE_LOOP ( 'NONE', ( #259, #233, #31, #42 ) ) ;
#14 = FILL_AREA_STYLE_COLOUR ( '', #308 ) ;
#15 = DIRECTION ( 'NONE',  ( -0.000000000000000000, -1.000000000000000000, -0.000000000000000000 ) ) ;
#16 = PRESENTATION_STYLE_ASSIGNMENT (( #104 ) ) ;
#17 = EDGE_CURVE ( 'NONE', #118, #284, #51, .T. ) ;
#18 = CARTESIAN_POINT ( 'NONE',  ( -1.347111479062089982E-15, 100.0000000000000000, 0.000000000000000000 ) ) ;
#19 = MECHANICAL_DESIGN_GEOMETRIC_PRESENTATION_REPRESENTATION (  '', ( #340 ), #207 ) ;
#20 = UNCERTAINTY_MEASURE_WITH_UNIT (LENGTH_MEASURE( 1.000000000000000082E-05 ), #121, 'distance_accuracy_value', 'NONE');
#21 = CARTESIAN_POINT ( 'NONE',  ( -1.347111479062090180E-15, 100.0000000000000000, 0.000000000000000000 ) ) ;
#22 = DIRECTION ( 'NONE',  ( 1.000000000000000000, 0.000000000000000000, 0.000000000000000000 ) ) ;
#23 = FILL_AREA_STYLE ('',( #14 ) ) ;
#24 = AXIS2_PLACEMENT_3D ( 'NONE', #241, #222, #48 ) ;
#25 = STYLED_ITEM ( 'NONE', ( #6 ), #153 ) ;
#26 = DIRECTION ( 'NONE',  ( -1.000000000000000000, 0.000000000000000000, 0.000000000000000000 ) ) ;
#27 =( NAMED_UNIT ( * ) SI_UNIT ( $, .STERADIAN. ) SOLID_ANGLE_UNIT ( ) );
#28 = ORIENTED_EDGE ( 'NONE', *, *, #141, .F. ) ;
#29 = FILL_AREA_STYLE_COLOUR ( '', #41 ) ;
#30 = SURFACE_SIDE_STYLE ('',( #176 ) ) ;
#31 = ORIENTED_EDGE ( 'NONE', *, *, #114, .T. ) ;
#32 = FILL_AREA_STYLE ('',( #2 ) ) ;
#33 = SURFACE_STYLE_USAGE ( .BOTH. , #125 ) ;
#34 = CIRCLE ( 'NONE', #304, 10.00000000000000000 ) ;
#35 =( LENGTH_UNIT ( ) NAMED_UNIT ( * ) SI_UNIT ( .MILLI., .METRE. ) );
#36 = MANIFOLD_SOLID_BREP ( 'Revolve - Cutting Edge', #1 ) ;
#37 =( NAMED_UNIT ( * ) SI_UNIT ( $, .STERADIAN. ) SOLID_ANGLE_UNIT ( ) );
#38 = ORIENTED_EDGE ( 'NONE', *, *, #49, .T. ) ;
#39 = STYLED_ITEM ( 'NONE', ( #197 ), #150 ) ;
#40 = AXIS2_PLACEMENT_3D ( 'NONE', #345, #266, #9 ) ;
#41 = COLOUR_RGB ( '',1.000000000000000000, 0.000000000000000000, 0.000000000000000000 ) ;
#42 = ORIENTED_EDGE ( 'NONE', *, *, #90, .F. ) ;
#43 =( NAMED_UNIT ( * ) SI_UNIT ( $, .STERADIAN. ) SOLID_ANGLE_UNIT ( ) );
#44 = MECHANICAL_DESIGN_GEOMETRIC_PRESENTATION_REPRESENTATION (  '', ( #25 ), #174 ) ;
#45 = DIRECTION ( 'NONE',  ( -1.000000000000000000, 0.000000000000000000, 0.000000000000000000 ) ) ;
#46 = DIRECTION ( 'NONE',  ( 0.000000000000000000, 0.000000000000000000, -1.000000000000000000 ) ) ;
#47 = UNCERTAINTY_MEASURE_WITH_UNIT (LENGTH_MEASURE( 1.000000000000000082E-05 ), #299, 'distance_accuracy_value', 'NONE');
#48 = DIRECTION ( 'NONE',  ( 0.000000000000000000, 0.000000000000000000, -1.000000000000000000 ) ) ;
#49 = EDGE_CURVE ( 'NONE', #146, #92, #346, .T. ) ;
#50 = ADVANCED_BREP_SHAPE_REPRESENTATION ( '59493', ( #36, #153, #75 ), #85 ) ;
#51 = CIRCLE ( 'NONE', #358, 10.00000000000000000 ) ;
#52 =( GEOMETRIC_REPRESENTATION_CONTEXT ( 3 ) GLOBAL_UNCERTAINTY_ASSIGNED_CONTEXT ( ( #360 ) ) GLOBAL_UNIT_ASSIGNED_CONTEXT ( ( #4, #230, #94 ) ) REPRESENTATION_CONTEXT ( 'NONE', 'WORKASPACE' ) );
#53 = VECTOR ( 'NONE', #71, 1000.000000000000000 ) ;
#54 = CARTESIAN_POINT ( 'NONE',  ( -9.999999999999987566, 40.00000000000000000, 0.000000000000000000 ) ) ;
#55 = PRESENTATION_STYLE_ASSIGNMENT (( #302 ) ) ;
#56 = CARTESIAN_POINT ( 'NONE',  ( -1.347111479062090180E-15, 100.0000000000000000, 0.000000000000000000 ) ) ;
#57 = EDGE_CURVE ( 'NONE', #315, #342, #268, .T. ) ;
#58 = EDGE_LOOP ( 'NONE', ( #107, #256, #312, #218 ) ) ;
#59 =( GEOMETRIC_REPRESENTATION_CONTEXT ( 3 ) GLOBAL_UNCERTAINTY_ASSIGNED_CONTEXT ( ( #20 ) ) GLOBAL_UNIT_ASSIGNED_CONTEXT ( ( #121, #349, #151 ) ) REPRESENTATION_CONTEXT ( 'NONE', 'WORKASPACE' ) );
#60 = ORIENTED_EDGE ( 'NONE', *, *, #185, .T. ) ;
#61 = EDGE_CURVE ( 'NONE', #284, #70, #191, .T. ) ;
#62 = SURFACE_STYLE_FILL_AREA ( #32 ) ;
#63 = SURFACE_STYLE_USAGE ( .BOTH. , #307 ) ;
#64 =( NAMED_UNIT ( * ) PLANE_ANGLE_UNIT ( ) SI_UNIT ( $, .RADIAN. ) );
#65 = AXIS2_PLACEMENT_3D ( 'NONE', #250, #78, #361 ) ;
#66 = COLOUR_RGB ( '',0.7921568627450980005, 0.8196078431372548767, 0.9333333333333333481 ) ;
#67 = FILL_AREA_STYLE ('',( #341 ) ) ;
#68 = FACE_OUTER_BOUND ( 'NONE', #175, .T. ) ;
#69 = DIRECTION ( 'NONE',  ( 0.000000000000000000, -0.000000000000000000, 1.000000000000000000 ) ) ;
#70 = VERTEX_POINT ( 'NONE', #293 ) ;
#71 = DIRECTION ( 'NONE',  ( -0.000000000000000000, -1.000000000000000000, -0.000000000000000000 ) ) ;
#72 = EDGE_CURVE ( 'NONE', #287, #342, #253, .T. ) ;
#73 = PRESENTATION_LAYER_ASSIGNMENT (  '', '', ( #25 ) ) ;
#74 = CARTESIAN_POINT ( 'NONE',  ( 1.163414459189985682E-15, 0.000000000000000000, 9.000000000000001776 ) ) ;
#75 = AXIS2_PLACEMENT_3D ( 'NONE', #119, #301, #22 ) ;
#76 = FILL_AREA_STYLE ('',( #158 ) ) ;
#77 = FACE_OUTER_BOUND ( 'NONE', #156, .T. ) ;
#78 = DIRECTION ( 'NONE',  ( -1.236440607496819135E-16, 1.000000000000000000, -0.000000000000000000 ) ) ;
#79 = CIRCLE ( 'NONE', #105, 10.00000000000000355 ) ;
#80 = MECHANICAL_DESIGN_GEOMETRIC_PRESENTATION_REPRESENTATION (  '', ( #347 ), #59 ) ;
#81 = MECHANICAL_DESIGN_GEOMETRIC_PRESENTATION_REPRESENTATION (  '', ( #239 ), #52 ) ;
#82 = CARTESIAN_POINT ( 'NONE',  ( 0.000000000000000000, 0.000000000000000000, -9.000000000000001776 ) ) ;
#83 = CARTESIAN_POINT ( 'NONE',  ( 0.000000000000000000, 0.000000000000000000, 0.000000000000000000 ) ) ;
#84 = VECTOR ( 'NONE', #216, 1000.000000000000000 ) ;
#85 =( GEOMETRIC_REPRESENTATION_CONTEXT ( 3 ) GLOBAL_UNCERTAINTY_ASSIGNED_CONTEXT ( ( #221 ) ) GLOBAL_UNIT_ASSIGNED_CONTEXT ( ( #306, #328, #27 ) ) REPRESENTATION_CONTEXT ( 'NONE', 'WORKASPACE' ) );
#86 = DIRECTION ( 'NONE',  ( -0.000000000000000000, -1.000000000000000000, -0.000000000000000000 ) ) ;
#87 = ORIENTED_EDGE ( 'NONE', *, *, #220, .F. ) ;
#88 = DIRECTION ( 'NONE',  ( -1.224646799147353454E-16, 0.000000000000000000, -1.000000000000000000 ) ) ;
#89 = CARTESIAN_POINT ( 'NONE',  ( 0.000000000000000000, 1.000000000000000000, 0.000000000000000000 ) ) ;
#90 = EDGE_CURVE ( 'NONE', #342, #287, #79, .T. ) ;
#91 = STYLED_ITEM ( 'NONE', ( #16 ), #36 ) ;
#92 = VERTEX_POINT ( 'NONE', #82 ) ;
#93 =( GEOMETRIC_REPRESENTATION_CONTEXT ( 3 ) GLOBAL_UNCERTAINTY_ASSIGNED_CONTEXT ( ( #165 ) ) GLOBAL_UNIT_ASSIGNED_CONTEXT ( ( #217, #131, #213 ) ) REPRESENTATION_CONTEXT ( 'NONE', 'WORKASPACE' ) );
#94 =( NAMED_UNIT ( * ) SI_UNIT ( $, .STERADIAN. ) SOLID_ANGLE_UNIT ( ) );
#95 = ORIENTED_EDGE ( 'NONE', *, *, #136, .T. ) ;
#96 = PRESENTATION_STYLE_ASSIGNMENT (( #124 ) ) ;
#97 = PRODUCT ( '59493', '59493', '', ( #338 ) ) ;
#98 = LINE ( 'NONE', #210, #53 ) ;
#99 = ORIENTED_EDGE ( 'NONE', *, *, #49, .F. ) ;
#100 = CIRCLE ( 'NONE', #12, 10.00000000000000178 ) ;
#101 = DIRECTION ( 'NONE',  ( -1.236440607496819135E-16, 1.000000000000000000, -0.000000000000000000 ) ) ;
#102 = DIRECTION ( 'NONE',  ( 1.000000000000000000, 1.236440607496819135E-16, 0.000000000000000000 ) ) ;
#103 = CARTESIAN_POINT ( 'NONE',  ( 0.000000000000000000, 1.000000000000000000, 0.000000000000000000 ) ) ;
#104 = SURFACE_STYLE_USAGE ( .BOTH. , #269 ) ;
#105 = AXIS2_PLACEMENT_3D ( 'NONE', #18, #157, #111 ) ;
#106 = MECHANICAL_DESIGN_GEOMETRIC_PRESENTATION_REPRESENTATION (  '', ( #132 ), #93 ) ;
#107 = ORIENTED_EDGE ( 'NONE', *, *, #220, .T. ) ;
#108 = PRESENTATION_LAYER_ASSIGNMENT (  '', '', ( #239 ) ) ;
#109 = APPLICATION_CONTEXT ( 'automotive_design' ) ;
#110 = APPLICATION_PROTOCOL_DEFINITION ( 'draft international standard', 'automotive_design', 1998, #109 ) ;
#111 = DIRECTION ( 'NONE',  ( -1.000000000000000000, 0.000000000000000000, 0.000000000000000000 ) ) ;
#112 = UNCERTAINTY_MEASURE_WITH_UNIT (LENGTH_MEASURE( 1.000000000000000082E-05 ), #35, 'distance_accuracy_value', 'NONE');
#113 = DIRECTION ( 'NONE',  ( 0.000000000000000000, 0.000000000000000000, -1.000000000000000000 ) ) ;
#114 = EDGE_CURVE ( 'NONE', #279, #287, #162, .T. ) ;
#115 = DIRECTION ( 'NONE',  ( -1.000000000000000000, 0.000000000000000000, 0.000000000000000000 ) ) ;
#116 = AXIS2_PLACEMENT_3D ( 'NONE', #89, #199, #231 ) ;
#117 = AXIS2_PLACEMENT_3D ( 'NONE', #56, #172, #282 ) ;
#118 = VERTEX_POINT ( 'NONE', #294 ) ;
#119 = CARTESIAN_POINT ( 'NONE',  ( 0.000000000000000000, 0.000000000000000000, 0.000000000000000000 ) ) ;
#120 = FILL_AREA_STYLE ('',( #29 ) ) ;
#121 =( LENGTH_UNIT ( ) NAMED_UNIT ( * ) SI_UNIT ( .MILLI., .METRE. ) );
#122 = FILL_AREA_STYLE ('',( #180 ) ) ;
#123 = CARTESIAN_POINT ( 'NONE',  ( 0.000000000000000000, 40.00000000000000000, 0.000000000000000000 ) ) ;
#124 = SURFACE_STYLE_USAGE ( .BOTH. , #343 ) ;
#125 = SURFACE_SIDE_STYLE ('',( #183 ) ) ;
#126 = ORIENTED_EDGE ( 'NONE', *, *, #114, .F. ) ;
#127 = CARTESIAN_POINT ( 'NONE',  ( 0.000000000000000000, 0.000000000000000000, 0.000000000000000000 ) ) ;
#128 = ORIENTED_EDGE ( 'NONE', *, *, #258, .F. ) ;
#129 = DIRECTION ( 'NONE',  ( -0.000000000000000000, -1.000000000000000000, -0.000000000000000000 ) ) ;
#130 = AXIS2_PLACEMENT_3D ( 'NONE', #103, #247, #356 ) ;
#131 =( NAMED_UNIT ( * ) PLANE_ANGLE_UNIT ( ) SI_UNIT ( $, .RADIAN. ) );
#132 = STYLED_ITEM ( 'NONE', ( #290 ), #201 ) ;
#133 = PLANE ( 'NONE',  #280 ) ;
#134 = EDGE_LOOP ( 'NONE', ( #7, #226 ) ) ;
#135 = UNCERTAINTY_MEASURE_WITH_UNIT (LENGTH_MEASURE( 1.000000000000000082E-05 ), #166, 'distance_accuracy_value', 'NONE');
#136 = EDGE_CURVE ( 'NONE', #284, #118, #34, .T. ) ;
#137 = CYLINDRICAL_SURFACE ( 'NONE', #117, 9.999999999999998224 ) ;
#138 = DIRECTION ( 'NONE',  ( 0.000000000000000000, 0.000000000000000000, -1.000000000000000000 ) ) ;
#139 = DIRECTION ( 'NONE',  ( -0.000000000000000000, -1.000000000000000000, -0.000000000000000000 ) ) ;
#140 = FILL_AREA_STYLE ('',( #331 ) ) ;
#141 = EDGE_CURVE ( 'NONE', #315, #279, #189, .T. ) ;
#142 = CARTESIAN_POINT ( 'NONE',  ( 10.00000000000000355, 100.0000000000000000, 1.224646799147353651E-15 ) ) ;
#143 = AXIS2_PLACEMENT_3D ( 'NONE', #123, #235, #69 ) ;
#144 = ORIENTED_EDGE ( 'NONE', *, *, #57, .T. ) ;
#145 = CARTESIAN_POINT ( 'NONE',  ( -10.00000000000000533, 100.0000000000000000, 0.000000000000000000 ) ) ;
#146 = VERTEX_POINT ( 'NONE', #74 ) ;
#147 = VECTOR ( 'NONE', #357, 1000.000000000000000 ) ;
#148 = CIRCLE ( 'NONE', #232, 9.000000000000001776 ) ;
#149 = SURFACE_SIDE_STYLE ('',( #62 ) ) ;
#150 = ADVANCED_FACE ( 'NONE', ( #77 ), #285, .T. ) ;
#151 =( NAMED_UNIT ( * ) SI_UNIT ( $, .STERADIAN. ) SOLID_ANGLE_UNIT ( ) );
#152 = ADVANCED_FACE ( 'NONE', ( #187 ), #263, .T. ) ;
#153 = MANIFOLD_SOLID_BREP ( 'Revolve - Tool Body (Straight Shanked)', #214 ) ;
#154 = MECHANICAL_DESIGN_GEOMETRIC_PRESENTATION_REPRESENTATION (  '', ( #215 ), #195 ) ;
#155 = PRODUCT_DEFINITION_FORMATION_WITH_SPECIFIED_SOURCE ( 'ANY', '', #97, .NOT_KNOWN. ) ;
#156 = EDGE_LOOP ( 'NONE', ( #211, #202, #203, #99 ) ) ;
#157 = DIRECTION ( 'NONE',  ( -1.236440607496819135E-16, 1.000000000000000000, -0.000000000000000000 ) ) ;
#158 = FILL_AREA_STYLE_COLOUR ( '', #249 ) ;
#159 = CARTESIAN_POINT ( 'NONE',  ( 0.000000000000000000, 40.00000000000000000, 0.000000000000000000 ) ) ;
#160 = PRESENTATION_LAYER_ASSIGNMENT (  '', '', ( #39 ) ) ;
#161 = PRESENTATION_LAYER_ASSIGNMENT (  '', '', ( #347 ) ) ;
#162 = LINE ( 'NONE', #248, #147 ) ;
#163 = SURFACE_STYLE_USAGE ( .BOTH. , #292 ) ;
#164 = FACE_OUTER_BOUND ( 'NONE', #184, .T. ) ;
#165 = UNCERTAINTY_MEASURE_WITH_UNIT (LENGTH_MEASURE( 1.000000000000000082E-05 ), #217, 'distance_accuracy_value', 'NONE');
#166 =( LENGTH_UNIT ( ) NAMED_UNIT ( * ) SI_UNIT ( .MILLI., .METRE. ) );
#167 = AXIS2_PLACEMENT_3D ( 'NONE', #127, #212, #288 ) ;
#168 = CIRCLE ( 'NONE', #332, 1.000000000000000888 ) ;
#169 = CARTESIAN_POINT ( 'NONE',  ( 0.000000000000000000, 40.00000000000000000, -10.00000000000000000 ) ) ;
#170 =( NAMED_UNIT ( * ) PLANE_ANGLE_UNIT ( ) SI_UNIT ( $, .RADIAN. ) );
#171 = DIRECTION ( 'NONE',  ( -0.000000000000000000, -1.000000000000000000, -0.000000000000000000 ) ) ;
#172 = DIRECTION ( 'NONE',  ( -1.236440607496819135E-16, 1.000000000000000000, -0.000000000000000000 ) ) ;
#173 =( GEOMETRIC_REPRESENTATION_CONTEXT ( 3 ) GLOBAL_UNCERTAINTY_ASSIGNED_CONTEXT ( ( #324 ) ) GLOBAL_UNIT_ASSIGNED_CONTEXT ( ( #352, #11, #43 ) ) REPRESENTATION_CONTEXT ( 'NONE', 'WORKASPACE' ) );
#174 =( GEOMETRIC_REPRESENTATION_CONTEXT ( 3 ) GLOBAL_UNCERTAINTY_ASSIGNED_CONTEXT ( ( #274 ) ) GLOBAL_UNIT_ASSIGNED_CONTEXT ( ( #178, #209, #37 ) ) REPRESENTATION_CONTEXT ( 'NONE', 'WORKASPACE' ) );
#175 = EDGE_LOOP ( 'NONE', ( #267, #38 ) ) ;
#176 = SURFACE_STYLE_FILL_AREA ( #23 ) ;
#177 = ORIENTED_EDGE ( 'NONE', *, *, #72, .F. ) ;
#178 =( LENGTH_UNIT ( ) NAMED_UNIT ( * ) SI_UNIT ( .MILLI., .METRE. ) );
#179 = PRESENTATION_STYLE_ASSIGNMENT (( #204 ) ) ;
#180 = FILL_AREA_STYLE_COLOUR ( '', #359 ) ;
#181 = PRESENTATION_STYLE_ASSIGNMENT (( #33 ) ) ;
#182 = ORIENTED_EDGE ( 'NONE', *, *, #72, .T. ) ;
#183 = SURFACE_STYLE_FILL_AREA ( #122 ) ;
#184 = EDGE_LOOP ( 'NONE', ( #182, #339 ) ) ;
#185 = EDGE_CURVE ( 'NONE', #118, #354, #98, .T. ) ;
#186 = PRESENTATION_LAYER_ASSIGNMENT (  '', '', ( #340 ) ) ;
#187 = FACE_OUTER_BOUND ( 'NONE', #134, .T. ) ;
#188 = CARTESIAN_POINT ( 'NONE',  ( 10.00000000000000178, 100.0000000000000000, 0.000000000000000000 ) ) ;
#189 = CIRCLE ( 'NONE', #65, 9.999999999999994671 ) ;
#190 = CARTESIAN_POINT ( 'NONE',  ( 0.000000000000000000, 1.000000000000000000, 0.000000000000000000 ) ) ;
#191 = LINE ( 'NONE', #319, #296 ) ;
#192 = FILL_AREA_STYLE ('',( #244 ) ) ;
#193 = ADVANCED_FACE ( 'NONE', ( #236 ), #344, .F. ) ;
#194 = CARTESIAN_POINT ( 'NONE',  ( 0.000000000000000000, 1.000000000000000000, 0.000000000000000000 ) ) ;
#195 =( GEOMETRIC_REPRESENTATION_CONTEXT ( 3 ) GLOBAL_UNCERTAINTY_ASSIGNED_CONTEXT ( ( #112 ) ) GLOBAL_UNIT_ASSIGNED_CONTEXT ( ( #35, #64, #311 ) ) REPRESENTATION_CONTEXT ( 'NONE', 'WORKASPACE' ) );
#196 = FACE_OUTER_BOUND ( 'NONE', #13, .T. ) ;
#197 = PRESENTATION_STYLE_ASSIGNMENT (( #283 ) ) ;
#198 = CARTESIAN_POINT ( 'NONE',  ( 0.000000000000000000, 0.000000000000000000, 0.000000000000000000 ) ) ;
#199 = DIRECTION ( 'NONE',  ( -0.000000000000000000, -1.000000000000000000, -0.000000000000000000 ) ) ;
#200 = AXIS2_PLACEMENT_3D ( 'NONE', #289, #101, #45 ) ;
#201 = ADVANCED_FACE ( 'NONE', ( #205 ), #262, .T. ) ;
#202 = ORIENTED_EDGE ( 'NONE', *, *, #242, .T. ) ;
#203 = ORIENTED_EDGE ( 'NONE', *, *, #320, .T. ) ;
#204 = SURFACE_STYLE_USAGE ( .BOTH. , #149 ) ;
#205 = FACE_OUTER_BOUND ( 'NONE', #58, .T. ) ;
#206 =( GEOMETRIC_REPRESENTATION_CONTEXT ( 3 ) GLOBAL_UNCERTAINTY_ASSIGNED_CONTEXT ( ( #47 ) ) GLOBAL_UNIT_ASSIGNED_CONTEXT ( ( #299, #170, #334 ) ) REPRESENTATION_CONTEXT ( 'NONE', 'WORKASPACE' ) );
#207 =( GEOMETRIC_REPRESENTATION_CONTEXT ( 3 ) GLOBAL_UNCERTAINTY_ASSIGNED_CONTEXT ( ( #135 ) ) GLOBAL_UNIT_ASSIGNED_CONTEXT ( ( #166, #298, #335 ) ) REPRESENTATION_CONTEXT ( 'NONE', 'WORKASPACE' ) );
#208 = DIRECTION ( 'NONE',  ( -0.000000000000000000, -1.000000000000000000, -0.000000000000000000 ) ) ;
#209 =( NAMED_UNIT ( * ) PLANE_ANGLE_UNIT ( ) SI_UNIT ( $, .RADIAN. ) );
#210 = CARTESIAN_POINT ( 'NONE',  ( 1.224646799147353454E-15, 0.000000000000000000, 10.00000000000000178 ) ) ;
#211 = ORIENTED_EDGE ( 'NONE', *, *, #363, .F. ) ;
#212 = DIRECTION ( 'NONE',  ( 0.000000000000000000, -1.000000000000000000, -0.000000000000000000 ) ) ;
#213 =( NAMED_UNIT ( * ) SI_UNIT ( $, .STERADIAN. ) SOLID_ANGLE_UNIT ( ) );
#214 = CLOSED_SHELL ( 'NONE', ( #297, #193, #355, #5 ) ) ;
#215 = STYLED_ITEM ( 'NONE', ( #181 ), #152 ) ;
#216 = DIRECTION ( 'NONE',  ( -1.236440607496819135E-16, 1.000000000000000000, -0.000000000000000000 ) ) ;
#217 =( LENGTH_UNIT ( ) NAMED_UNIT ( * ) SI_UNIT ( .MILLI., .METRE. ) );
#218 = ORIENTED_EDGE ( 'NONE', *, *, #320, .F. ) ;
#219 = FACE_OUTER_BOUND ( 'NONE', #370, .T. ) ;
#220 = EDGE_CURVE ( 'NONE', #70, #354, #330, .T. ) ;
#221 = UNCERTAINTY_MEASURE_WITH_UNIT (LENGTH_MEASURE( 1.000000000000000082E-05 ), #306, 'distance_accuracy_value', 'NONE');
#222 = DIRECTION ( 'NONE',  ( -0.000000000000000000, -1.000000000000000000, -0.000000000000000000 ) ) ;
#223 = ADVANCED_FACE ( 'NONE', ( #219 ), #325, .T. ) ;
#224 = COLOUR_RGB ( '',1.000000000000000000, 0.000000000000000000, 0.000000000000000000 ) ;
#225 = SURFACE_STYLE_FILL_AREA ( #140 ) ;
#226 = ORIENTED_EDGE ( 'NONE', *, *, #17, .F. ) ;
#227 = PRODUCT_DEFINITION ( 'UNKNOWN', '', #155, #265 ) ;
#228 = SHAPE_DEFINITION_REPRESENTATION ( #257, #50 ) ;
#229 = ORIENTED_EDGE ( 'NONE', *, *, #61, .F. ) ;
#230 =( NAMED_UNIT ( * ) PLANE_ANGLE_UNIT ( ) SI_UNIT ( $, .RADIAN. ) );
#231 = DIRECTION ( 'NONE',  ( 0.000000000000000000, 0.000000000000000000, -1.000000000000000000 ) ) ;
#232 = AXIS2_PLACEMENT_3D ( 'NONE', #198, #86, #113 ) ;
#233 = ORIENTED_EDGE ( 'NONE', *, *, #141, .T. ) ;
#234 = DIRECTION ( 'NONE',  ( 0.000000000000000000, 0.000000000000000000, -1.000000000000000000 ) ) ;
#235 = DIRECTION ( 'NONE',  ( 0.000000000000000000, 1.000000000000000000, 0.000000000000000000 ) ) ;
#236 = FACE_OUTER_BOUND ( 'NONE', #337, .T. ) ;
#237 = FACE_OUTER_BOUND ( 'NONE', #10, .T. ) ;
#238 = AXIS2_PLACEMENT_3D ( 'NONE', #83, #139, #251 ) ;
#239 = STYLED_ITEM ( 'NONE', ( #96 ), #316 ) ;
#240 = EDGE_LOOP ( 'NONE', ( #365, #144, #177, #126 ) ) ;
#241 = CARTESIAN_POINT ( 'NONE',  ( 0.000000000000000000, 0.000000000000000000, 0.000000000000000000 ) ) ;
#242 = EDGE_CURVE ( 'NONE', #354, #70, #100, .T. ) ;
#243 = AXIS2_PLACEMENT_3D ( 'NONE', #281, #254, #26 ) ;
#244 = FILL_AREA_STYLE_COLOUR ( '', #329 ) ;
#245 = EDGE_CURVE ( 'NONE', #92, #146, #148, .T. ) ;
#246 = SURFACE_STYLE_FILL_AREA ( #192 ) ;
#247 = DIRECTION ( 'NONE',  ( -0.000000000000000000, -1.000000000000000000, -0.000000000000000000 ) ) ;
#248 = CARTESIAN_POINT ( 'NONE',  ( -10.00000000000000000, 100.0000000000000000, 0.000000000000000000 ) ) ;
#249 = COLOUR_RGB ( '',1.000000000000000000, 0.000000000000000000, 0.000000000000000000 ) ;
#250 = CARTESIAN_POINT ( 'NONE',  ( 6.071532165918824830E-15, 40.00000000000000000, 0.000000000000000000 ) ) ;
#251 = DIRECTION ( 'NONE',  ( 0.000000000000000000, 0.000000000000000000, -1.000000000000000000 ) ) ;
#252 = DIRECTION ( 'NONE',  ( 0.000000000000000000, 0.000000000000000000, -1.000000000000000000 ) ) ;
#253 = CIRCLE ( 'NONE', #200, 10.00000000000000355 ) ;
#254 = DIRECTION ( 'NONE',  ( -1.236440607496819135E-16, 1.000000000000000000, -0.000000000000000000 ) ) ;
#255 = CYLINDRICAL_SURFACE ( 'NONE', #270, 9.999999999999998224 ) ;
#256 = ORIENTED_EDGE ( 'NONE', *, *, #363, .T. ) ;
#257 = PRODUCT_DEFINITION_SHAPE ( 'NONE', 'NONE',  #227 ) ;
#258 = EDGE_CURVE ( 'NONE', #279, #315, #353, .T. ) ;
#259 = ORIENTED_EDGE ( 'NONE', *, *, #57, .F. ) ;
#260 = PRESENTATION_LAYER_ASSIGNMENT (  '', '', ( #91 ) ) ;
#261 = APPLICATION_CONTEXT ( 'automotive_design' ) ;
#262 = TOROIDAL_SURFACE ( 'NONE', #323, 9.000000000000001776, 1.000000000000000444 ) ;
#263 = PLANE ( 'NONE',  #143 ) ;
#264 = PLANE ( 'NONE',  #167 ) ;
#265 = PRODUCT_DEFINITION_CONTEXT ( 'detailed design', #261, 'design' ) ;
#266 = DIRECTION ( 'NONE',  ( -1.236440607496819135E-16, 1.000000000000000000, 0.000000000000000000 ) ) ;
#267 = ORIENTED_EDGE ( 'NONE', *, *, #245, .T. ) ;
#268 = LINE ( 'NONE', #326, #84 ) ;
#269 = SURFACE_SIDE_STYLE ('',( #246 ) ) ;
#270 = AXIS2_PLACEMENT_3D ( 'NONE', #21, #366, #364 ) ;
#271 = CIRCLE ( 'NONE', #309, 1.000000000000000888 ) ;
#272 = SURFACE_STYLE_FILL_AREA ( #76 ) ;
#273 = DIRECTION ( 'NONE',  ( -0.000000000000000000, -1.000000000000000000, -0.000000000000000000 ) ) ;
#274 = UNCERTAINTY_MEASURE_WITH_UNIT (LENGTH_MEASURE( 1.000000000000000082E-05 ), #178, 'distance_accuracy_value', 'NONE');
#275 = DIRECTION ( 'NONE',  ( 0.000000000000000000, 0.000000000000000000, -1.000000000000000000 ) ) ;
#276 = DIRECTION ( 'NONE',  ( -0.000000000000000000, -1.000000000000000000, -0.000000000000000000 ) ) ;
#277 = FACE_OUTER_BOUND ( 'NONE', #240, .T. ) ;
#278 = PRODUCT_RELATED_PRODUCT_CATEGORY ( 'part', '', ( #97 ) ) ;
#279 = VERTEX_POINT ( 'NONE', #54 ) ;
#280 = AXIS2_PLACEMENT_3D ( 'NONE', #188, #321, #102 ) ;
#281 = CARTESIAN_POINT ( 'NONE',  ( 6.071532165918824830E-15, 40.00000000000000000, 0.000000000000000000 ) ) ;
#282 = DIRECTION ( 'NONE',  ( -1.000000000000000000, 0.000000000000000000, 0.000000000000000000 ) ) ;
#283 = SURFACE_STYLE_USAGE ( .BOTH. , #30 ) ;
#284 = VERTEX_POINT ( 'NONE', #169 ) ;
#285 = TOROIDAL_SURFACE ( 'NONE', #116, 9.000000000000001776, 1.000000000000000444 ) ;
#286 = SURFACE_STYLE_FILL_AREA ( #120 ) ;
#287 = VERTEX_POINT ( 'NONE', #145 ) ;
#288 = DIRECTION ( 'NONE',  ( 0.000000000000000000, 0.000000000000000000, -1.000000000000000000 ) ) ;
#289 = CARTESIAN_POINT ( 'NONE',  ( -1.347111479062089982E-15, 100.0000000000000000, 0.000000000000000000 ) ) ;
#290 = PRESENTATION_STYLE_ASSIGNMENT (( #163 ) ) ;
#291 = ORIENTED_EDGE ( 'NONE', *, *, #61, .T. ) ;
#292 = SURFACE_SIDE_STYLE ('',( #272 ) ) ;
#293 = CARTESIAN_POINT ( 'NONE',  ( 0.000000000000000000, 1.000000000000000000, -10.00000000000000178 ) ) ;
#294 = CARTESIAN_POINT ( 'NONE',  ( 1.224646799147353256E-15, 40.00000000000000000, 10.00000000000000000 ) ) ;
#295 = CARTESIAN_POINT ( 'NONE',  ( 1.102182119232617911E-15, 1.000000000000000000, 9.000000000000001776 ) ) ;
#296 = VECTOR ( 'NONE', #129, 1000.000000000000000 ) ;
#297 = ADVANCED_FACE ( 'NONE', ( #277 ), #255, .T. ) ;
#298 =( NAMED_UNIT ( * ) PLANE_ANGLE_UNIT ( ) SI_UNIT ( $, .RADIAN. ) );
#299 =( LENGTH_UNIT ( ) NAMED_UNIT ( * ) SI_UNIT ( .MILLI., .METRE. ) );
#300 = ADVANCED_FACE ( 'NONE', ( #237 ), #369, .T. ) ;
#301 = DIRECTION ( 'NONE',  ( 0.000000000000000000, 0.000000000000000000, 1.000000000000000000 ) ) ;
#302 = SURFACE_STYLE_USAGE ( .BOTH. , #327 ) ;
#303 = ORIENTED_EDGE ( 'NONE', *, *, #185, .F. ) ;
#304 = AXIS2_PLACEMENT_3D ( 'NONE', #318, #276, #138 ) ;
#305 = PRESENTATION_LAYER_ASSIGNMENT (  '', '', ( #215 ) ) ;
#306 =( LENGTH_UNIT ( ) NAMED_UNIT ( * ) SI_UNIT ( .MILLI., .METRE. ) );
#307 = SURFACE_SIDE_STYLE ('',( #314 ) ) ;
#308 = COLOUR_RGB ( '',1.000000000000000000, 0.000000000000000000, 0.000000000000000000 ) ;
#309 = AXIS2_PLACEMENT_3D ( 'NONE', #295, #333, #88 ) ;
#310 = CARTESIAN_POINT ( 'NONE',  ( 10.00000000000000178, 40.00000000000000000, 1.224646799147353651E-15 ) ) ;
#311 =( NAMED_UNIT ( * ) SI_UNIT ( $, .STERADIAN. ) SOLID_ANGLE_UNIT ( ) );
#312 = ORIENTED_EDGE ( 'NONE', *, *, #245, .F. ) ;
#313 = CARTESIAN_POINT ( 'NONE',  ( 0.000000000000000000, 0.000000000000000000, 0.000000000000000000 ) ) ;
#314 = SURFACE_STYLE_FILL_AREA ( #67 ) ;
#315 = VERTEX_POINT ( 'NONE', #310 ) ;
#316 = ADVANCED_FACE ( 'NONE', ( #68 ), #264, .T. ) ;
#317 = COLOUR_RGB ( '',1.000000000000000000, 0.000000000000000000, 0.000000000000000000 ) ;
#318 = CARTESIAN_POINT ( 'NONE',  ( 0.000000000000000000, 40.00000000000000000, 0.000000000000000000 ) ) ;
#319 = CARTESIAN_POINT ( 'NONE',  ( 0.000000000000000000, 0.000000000000000000, -10.00000000000000178 ) ) ;
#320 = EDGE_CURVE ( 'NONE', #70, #92, #168, .T. ) ;
#321 = DIRECTION ( 'NONE',  ( 1.236440607496819135E-16, -1.000000000000000000, 0.000000000000000000 ) ) ;
#322 = MECHANICAL_DESIGN_GEOMETRIC_PRESENTATION_REPRESENTATION (  '', ( #39 ), #206 ) ;
#323 = AXIS2_PLACEMENT_3D ( 'NONE', #190, #15, #275 ) ;
#324 = UNCERTAINTY_MEASURE_WITH_UNIT (LENGTH_MEASURE( 1.000000000000000082E-05 ), #352, 'distance_accuracy_value', 'NONE');
#325 = CYLINDRICAL_SURFACE ( 'NONE', #238, 10.00000000000000178 ) ;
#326 = CARTESIAN_POINT ( 'NONE',  ( 9.999999999999996447, 100.0000000000000000, 1.224646799147353059E-15 ) ) ;
#327 = SURFACE_SIDE_STYLE ('',( #225 ) ) ;
#328 =( NAMED_UNIT ( * ) PLANE_ANGLE_UNIT ( ) SI_UNIT ( $, .RADIAN. ) );
#329 = COLOUR_RGB ( '',0.7921568627450980005, 0.8196078431372548767, 0.9333333333333333481 ) ;
#330 = CIRCLE ( 'NONE', #130, 10.00000000000000178 ) ;
#331 = FILL_AREA_STYLE_COLOUR ( '', #317 ) ;
#332 = AXIS2_PLACEMENT_3D ( 'NONE', #8, #115, #336 ) ;
#333 = DIRECTION ( 'NONE',  ( 1.000000000000000000, 0.000000000000000000, -1.224646799147353207E-16 ) ) ;
#334 =( NAMED_UNIT ( * ) SI_UNIT ( $, .STERADIAN. ) SOLID_ANGLE_UNIT ( ) );
#335 =( NAMED_UNIT ( * ) SI_UNIT ( $, .STERADIAN. ) SOLID_ANGLE_UNIT ( ) );
#336 = DIRECTION ( 'NONE',  ( 0.000000000000000000, 0.000000000000000000, 1.000000000000000000 ) ) ;
#337 = EDGE_LOOP ( 'NONE', ( #128, #28 ) ) ;
#338 = PRODUCT_CONTEXT ( 'NONE', #109, 'mechanical' ) ;
#339 = ORIENTED_EDGE ( 'NONE', *, *, #90, .T. ) ;
#340 = STYLED_ITEM ( 'NONE', ( #55 ), #223 ) ;
#341 = FILL_AREA_STYLE_COLOUR ( '', #66 ) ;
#342 = VERTEX_POINT ( 'NONE', #142 ) ;
#343 = SURFACE_SIDE_STYLE ('',( #286 ) ) ;
#344 = PLANE ( 'NONE',  #40 ) ;
#345 = CARTESIAN_POINT ( 'NONE',  ( 6.071532165918824830E-15, 40.00000000000000000, 0.000000000000000000 ) ) ;
#346 = CIRCLE ( 'NONE', #24, 9.000000000000001776 ) ;
#347 = STYLED_ITEM ( 'NONE', ( #179 ), #300 ) ;
#348 = AXIS2_PLACEMENT_3D ( 'NONE', #313, #208, #234 ) ;
#349 =( NAMED_UNIT ( * ) PLANE_ANGLE_UNIT ( ) SI_UNIT ( $, .RADIAN. ) );
#350 = ORIENTED_EDGE ( 'NONE', *, *, #242, .F. ) ;
#351 = MECHANICAL_DESIGN_GEOMETRIC_PRESENTATION_REPRESENTATION (  '', ( #91 ), #173 ) ;
#352 =( LENGTH_UNIT ( ) NAMED_UNIT ( * ) SI_UNIT ( .MILLI., .METRE. ) );
#353 = CIRCLE ( 'NONE', #243, 9.999999999999994671 ) ;
#354 = VERTEX_POINT ( 'NONE', #362 ) ;
#355 = ADVANCED_FACE ( 'NONE', ( #196 ), #137, .T. ) ;
#356 = DIRECTION ( 'NONE',  ( 0.000000000000000000, 0.000000000000000000, -1.000000000000000000 ) ) ;
#357 = DIRECTION ( 'NONE',  ( -1.236440607496819135E-16, 1.000000000000000000, -0.000000000000000000 ) ) ;
#358 = AXIS2_PLACEMENT_3D ( 'NONE', #159, #273, #46 ) ;
#359 = COLOUR_RGB ( '',1.000000000000000000, 0.000000000000000000, 0.000000000000000000 ) ;
#360 = UNCERTAINTY_MEASURE_WITH_UNIT (LENGTH_MEASURE( 1.000000000000000082E-05 ), #4, 'distance_accuracy_value', 'NONE');
#361 = DIRECTION ( 'NONE',  ( -1.000000000000000000, 0.000000000000000000, 0.000000000000000000 ) ) ;
#362 = CARTESIAN_POINT ( 'NONE',  ( 1.224646799147353256E-15, 1.000000000000000000, 10.00000000000000178 ) ) ;
#363 = EDGE_CURVE ( 'NONE', #354, #146, #271, .T. ) ;
#364 = DIRECTION ( 'NONE',  ( -1.000000000000000000, 0.000000000000000000, 0.000000000000000000 ) ) ;
#365 = ORIENTED_EDGE ( 'NONE', *, *, #258, .T. ) ;
#366 = DIRECTION ( 'NONE',  ( -1.236440607496819135E-16, 1.000000000000000000, -0.000000000000000000 ) ) ;
#367 = APPLICATION_PROTOCOL_DEFINITION ( 'draft international standard', 'automotive_design', 1998, #261 ) ;
#368 = ORIENTED_EDGE ( 'NONE', *, *, #17, .T. ) ;
#369 = CYLINDRICAL_SURFACE ( 'NONE', #348, 10.00000000000000178 ) ;
#370 = EDGE_LOOP ( 'NONE', ( #95, #60, #87, #229 ) ) ;
ENDSEC;
END-ISO-10303-21;
