ISO-10303-21;
HEADER;
FILE_DESCRIPTION (( 'STEP AP214' ),
    '1' );
FILE_NAME ('01150.STEP',
    '2023-06-22T14:20:21',
    ( '' ),
    ( '' ),
    'SwSTEP 2.0',
    'SolidWorks 2023',
    '' );
FILE_SCHEMA (( 'AUTOMOTIVE_DESIGN' ));
ENDSEC;

DATA;
#1 = DIRECTION ( 'NONE',  ( -0.000000000000000000, -1.000000000000000000, -0.000000000000000000 ) ) ;
#2 = EDGE_LOOP ( 'NONE', ( #115, #236 ) ) ;
#3 = AXIS2_PLACEMENT_3D ( 'NONE', #272, #293, #35 ) ;
#4 = AXIS2_PLACEMENT_3D ( 'NONE', #85, #41, #275 ) ;
#5 = DIMENSIONAL_EXPONENTS ( 1.000000000000000000, 0.000000000000000000, 0.000000000000000000, 0.000000000000000000, 0.000000000000000000, 0.000000000000000000, 0.000000000000000000 ) ;
#6 = AXIS2_PLACEMENT_3D ( 'NONE', #73, #117, #193 ) ;
#7 = SURFACE_STYLE_FILL_AREA ( #142 ) ;
#8 = ADVANCED_FACE ( 'NONE', ( #23 ), #144, .T. ) ;
#9 = LINE ( 'NONE', #11, #71 ) ;
#10 = AXIS2_PLACEMENT_3D ( 'NONE', #80, #174, #38 ) ;
#11 = CARTESIAN_POINT ( 'NONE',  ( 0.1250000000000000555, 2.000000000000000000, 1.530808498934191201E-17 ) ) ;
#12 =( LENGTH_UNIT ( ) NAMED_UNIT ( * ) SI_UNIT ( $, .METRE. ) );
#13 = SURFACE_STYLE_USAGE ( .BOTH. , #188 ) ;
#14 = DIRECTION ( 'NONE',  ( -0.000000000000000000, -1.000000000000000000, -0.000000000000000000 ) ) ;
#15 = DIRECTION ( 'NONE',  ( -0.000000000000000000, -1.000000000000000000, -0.000000000000000000 ) ) ;
#16 = PRESENTATION_STYLE_ASSIGNMENT (( #20 ) ) ;
#17 = AXIS2_PLACEMENT_3D ( 'NONE', #48, #282, #277 ) ;
#18 = CARTESIAN_POINT ( 'NONE',  ( -0.1250000000000000278, 0.3749999999999999445, 0.000000000000000000 ) ) ;
#19 = CARTESIAN_POINT ( 'NONE',  ( 0.1250000000000000278, 2.000000000000000000, 1.530808498934191817E-17 ) ) ;
#20 = SURFACE_STYLE_USAGE ( .BOTH. , #135 ) ;
#21 = UNCERTAINTY_MEASURE_WITH_UNIT (LENGTH_MEASURE( 1.000000000000000082E-05 ), #241, 'distance_accuracy_value', 'NONE');
#22 = FACE_OUTER_BOUND ( 'NONE', #2, .T. ) ;
#23 = FACE_OUTER_BOUND ( 'NONE', #50, .T. ) ;
#24 = STYLED_ITEM ( 'NONE', ( #44 ), #198 ) ;
#25 = CARTESIAN_POINT ( 'NONE',  ( 0.000000000000000000, 0.000000000000000000, 0.000000000000000000 ) ) ;
#26 = VERTEX_POINT ( 'NONE', #150 ) ;
#27 = DIRECTION ( 'NONE',  ( -1.000000000000000000, 0.000000000000000000, 0.000000000000000000 ) ) ;
#28 = SURFACE_STYLE_USAGE ( .BOTH. , #95 ) ;
#29 = APPLICATION_PROTOCOL_DEFINITION ( 'draft international standard', 'automotive_design', 1998, #265 ) ;
#30 = VERTEX_POINT ( 'NONE', #242 ) ;
#31 = STYLED_ITEM ( 'NONE', ( #16 ), #200 ) ;
#32 = EDGE_CURVE ( 'NONE', #287, #191, #9, .T. ) ;
#33 =( NAMED_UNIT ( * ) SI_UNIT ( $, .STERADIAN. ) SOLID_ANGLE_UNIT ( ) );
#34 = ORIENTED_EDGE ( 'NONE', *, *, #123, .F. ) ;
#35 = DIRECTION ( 'NONE',  ( 0.000000000000000000, -0.000000000000000000, 1.000000000000000000 ) ) ;
#36 = SURFACE_STYLE_USAGE ( .BOTH. , #82 ) ;
#37 = PRODUCT_DEFINITION_FORMATION_WITH_SPECIFIED_SOURCE ( 'ANY', '', #122, .NOT_KNOWN. ) ;
#38 = DIRECTION ( 'NONE',  ( -1.000000000000000000, 0.000000000000000000, 0.000000000000000000 ) ) ;
#39 =( NAMED_UNIT ( * ) PLANE_ANGLE_UNIT ( ) SI_UNIT ( $, .RADIAN. ) );
#40 = ADVANCED_FACE ( 'NONE', ( #175 ), #104, .T. ) ;
#41 = DIRECTION ( 'NONE',  ( -0.000000000000000000, -1.000000000000000000, -0.000000000000000000 ) ) ;
#42 = AXIS2_PLACEMENT_3D ( 'NONE', #269, #105, #296 ) ;
#43 = FILL_AREA_STYLE_COLOUR ( '', #250 ) ;
#44 = PRESENTATION_STYLE_ASSIGNMENT (( #304 ) ) ;
#45 = CARTESIAN_POINT ( 'NONE',  ( 1.530808498934191509E-17, 0.000000000000000000, 0.1250000000000000000 ) ) ;
#46 = LENGTH_MEASURE_WITH_UNIT ( LENGTH_MEASURE( 0.02539999999999999897 ), #249 );
#47 = VERTEX_POINT ( 'NONE', #131 ) ;
#48 = CARTESIAN_POINT ( 'NONE',  ( 0.000000000000000000, 0.3749999999999999445, 0.000000000000000000 ) ) ;
#49 = APPLICATION_PROTOCOL_DEFINITION ( 'draft international standard', 'automotive_design', 1998, #195 ) ;
#50 = EDGE_LOOP ( 'NONE', ( #199, #101 ) ) ;
#51 = ORIENTED_EDGE ( 'NONE', *, *, #259, .T. ) ;
#52 = MECHANICAL_DESIGN_GEOMETRIC_PRESENTATION_REPRESENTATION (  '', ( #58 ), #169 ) ;
#53 = AXIS2_PLACEMENT_3D ( 'NONE', #141, #303, #132 ) ;
#54 =( CONVERSION_BASED_UNIT ( 'INCH', #56 ) LENGTH_UNIT ( ) NAMED_UNIT ( #179 ) );
#55 = ADVANCED_FACE ( 'NONE', ( #152 ), #154, .T. ) ;
#56 = LENGTH_MEASURE_WITH_UNIT ( LENGTH_MEASURE( 0.02539999999999999897 ), #261 );
#57 = ORIENTED_EDGE ( 'NONE', *, *, #209, .T. ) ;
#58 = STYLED_ITEM ( 'NONE', ( #129 ), #55 ) ;
#59 =( NAMED_UNIT ( * ) SI_UNIT ( $, .STERADIAN. ) SOLID_ANGLE_UNIT ( ) );
#60 = FACE_OUTER_BOUND ( 'NONE', #90, .T. ) ;
#61 = SURFACE_STYLE_FILL_AREA ( #92 ) ;
#62 = PRESENTATION_STYLE_ASSIGNMENT (( #13 ) ) ;
#63 = FILL_AREA_STYLE_COLOUR ( '', #127 ) ;
#64 = AXIS2_PLACEMENT_3D ( 'NONE', #25, #207, #253 ) ;
#65 = STYLED_ITEM ( 'NONE', ( #246 ), #263 ) ;
#66 = EDGE_LOOP ( 'NONE', ( #93, #98, #217, #266 ) ) ;
#67 = DIRECTION ( 'NONE',  ( -1.000000000000000000, 3.768143997376471359E-17, 0.000000000000000000 ) ) ;
#68 = ORIENTED_EDGE ( 'NONE', *, *, #218, .T. ) ;
#69 =( NAMED_UNIT ( * ) PLANE_ANGLE_UNIT ( ) SI_UNIT ( $, .RADIAN. ) );
#70 = EDGE_LOOP ( 'NONE', ( #139, #57, #283, #214 ) ) ;
#71 = VECTOR ( 'NONE', #77, 39.37007874015748143 ) ;
#72 = EDGE_CURVE ( 'NONE', #191, #26, #256, .T. ) ;
#73 = CARTESIAN_POINT ( 'NONE',  ( 0.000000000000000000, 0.000000000000000000, 0.000000000000000000 ) ) ;
#74 = AXIS2_PLACEMENT_3D ( 'NONE', #102, #290, #245 ) ;
#75 = PRESENTATION_LAYER_ASSIGNMENT (  '', '', ( #257 ) ) ;
#76 = ORIENTED_EDGE ( 'NONE', *, *, #259, .F. ) ;
#77 = DIRECTION ( 'NONE',  ( 3.768143997376471359E-17, 1.000000000000000000, -0.000000000000000000 ) ) ;
#78 = VECTOR ( 'NONE', #247, 39.37007874015748143 ) ;
#79 = AXIS2_PLACEMENT_3D ( 'NONE', #130, #83, #88 ) ;
#80 = CARTESIAN_POINT ( 'NONE',  ( 6.123233995736766036E-17, 2.000000000000000000, 0.000000000000000000 ) ) ;
#81 = DIMENSIONAL_EXPONENTS ( 1.000000000000000000, 0.000000000000000000, 0.000000000000000000, 0.000000000000000000, 0.000000000000000000, 0.000000000000000000, 0.000000000000000000 ) ;
#82 = SURFACE_SIDE_STYLE ('',( #243 ) ) ;
#83 = DIRECTION ( 'NONE',  ( 3.768143997376471359E-17, 1.000000000000000000, -0.000000000000000000 ) ) ;
#84 = CARTESIAN_POINT ( 'NONE',  ( -0.1249999999999999167, 2.000000000000000000, 0.000000000000000000 ) ) ;
#85 = CARTESIAN_POINT ( 'NONE',  ( 0.000000000000000000, 0.000000000000000000, 0.000000000000000000 ) ) ;
#86 = UNCERTAINTY_MEASURE_WITH_UNIT (LENGTH_MEASURE( 1.000000000000000082E-05 ), #307, 'distance_accuracy_value', 'NONE');
#87 = FACE_OUTER_BOUND ( 'NONE', #168, .T. ) ;
#88 = DIRECTION ( 'NONE',  ( -1.000000000000000000, 0.000000000000000000, 0.000000000000000000 ) ) ;
#89 =( NAMED_UNIT ( * ) PLANE_ANGLE_UNIT ( ) SI_UNIT ( $, .RADIAN. ) );
#90 = EDGE_LOOP ( 'NONE', ( #34, #309, #68, #76 ) ) ;
#91 = DIRECTION ( 'NONE',  ( -3.768143997376471359E-17, -1.000000000000000000, 0.000000000000000000 ) ) ;
#92 = FILL_AREA_STYLE ('',( #63 ) ) ;
#93 = ORIENTED_EDGE ( 'NONE', *, *, #267, .T. ) ;
#94 = CYLINDRICAL_SURFACE ( 'NONE', #118, 0.1249999999999999861 ) ;
#95 = SURFACE_SIDE_STYLE ('',( #7 ) ) ;
#96 = MECHANICAL_DESIGN_GEOMETRIC_PRESENTATION_REPRESENTATION (  '', ( #113 ), #291 ) ;
#97 =( NAMED_UNIT ( * ) PLANE_ANGLE_UNIT ( ) SI_UNIT ( $, .RADIAN. ) );
#98 = ORIENTED_EDGE ( 'NONE', *, *, #123, .T. ) ;
#99 = MECHANICAL_DESIGN_GEOMETRIC_PRESENTATION_REPRESENTATION (  '', ( #31 ), #185 ) ;
#100 = MECHANICAL_DESIGN_GEOMETRIC_PRESENTATION_REPRESENTATION (  '', ( #257 ), #148 ) ;
#101 = ORIENTED_EDGE ( 'NONE', *, *, #106, .F. ) ;
#102 = CARTESIAN_POINT ( 'NONE',  ( 0.000000000000000000, 0.000000000000000000, 0.000000000000000000 ) ) ;
#103 = PRODUCT_DEFINITION_CONTEXT ( 'detailed design', #265, 'design' ) ;
#104 = CYLINDRICAL_SURFACE ( 'NONE', #42, 0.1249999999999999861 ) ;
#105 = DIRECTION ( 'NONE',  ( 3.768143997376471359E-17, 1.000000000000000000, -0.000000000000000000 ) ) ;
#106 = EDGE_CURVE ( 'NONE', #47, #255, #184, .T. ) ;
#107 = DIRECTION ( 'NONE',  ( 0.000000000000000000, 0.000000000000000000, -1.000000000000000000 ) ) ;
#108 =( CONVERSION_BASED_UNIT ( 'INCH', #46 ) LENGTH_UNIT ( ) NAMED_UNIT ( #239 ) );
#109 = CARTESIAN_POINT ( 'NONE',  ( 0.1250000000000000278, 2.000000000000000000, 0.000000000000000000 ) ) ;
#110 = LENGTH_MEASURE_WITH_UNIT ( LENGTH_MEASURE( 0.02539999999999999897 ), #210 );
#111 = EDGE_CURVE ( 'NONE', #221, #26, #202, .T. ) ;
#112 = FILL_AREA_STYLE ('',( #223 ) ) ;
#113 = STYLED_ITEM ( 'NONE', ( #194 ), #8 ) ;
#114 = UNCERTAINTY_MEASURE_WITH_UNIT (LENGTH_MEASURE( 1.000000000000000082E-05 ), #108, 'distance_accuracy_value', 'NONE');
#115 = ORIENTED_EDGE ( 'NONE', *, *, #244, .T. ) ;
#116 = LINE ( 'NONE', #235, #211 ) ;
#117 = DIRECTION ( 'NONE',  ( 0.000000000000000000, 0.000000000000000000, 1.000000000000000000 ) ) ;
#118 = AXIS2_PLACEMENT_3D ( 'NONE', #205, #227, #231 ) ;
#119 =( LENGTH_UNIT ( ) NAMED_UNIT ( * ) SI_UNIT ( $, .METRE. ) );
#120 = CLOSED_SHELL ( 'NONE', ( #40, #159, #151, #284 ) ) ;
#121 = AXIS2_PLACEMENT_3D ( 'NONE', #301, #15, #155 ) ;
#122 = PRODUCT ( '01150', '01150', '', ( #143 ) ) ;
#123 = EDGE_CURVE ( 'NONE', #47, #285, #274, .T. ) ;
#124 =( NAMED_UNIT ( * ) SI_UNIT ( $, .STERADIAN. ) SOLID_ANGLE_UNIT ( ) );
#125 = DIMENSIONAL_EXPONENTS ( 1.000000000000000000, 0.000000000000000000, 0.000000000000000000, 0.000000000000000000, 0.000000000000000000, 0.000000000000000000, 0.000000000000000000 ) ;
#126 =( NAMED_UNIT ( * ) PLANE_ANGLE_UNIT ( ) SI_UNIT ( $, .RADIAN. ) );
#127 = COLOUR_RGB ( '',1.000000000000000000, 0.000000000000000000, 0.000000000000000000 ) ;
#128 = CIRCLE ( 'NONE', #53, 0.1250000000000000000 ) ;
#129 = PRESENTATION_STYLE_ASSIGNMENT (( #36 ) ) ;
#130 = CARTESIAN_POINT ( 'NONE',  ( 6.123233995736766036E-17, 2.000000000000000000, 0.000000000000000000 ) ) ;
#131 = CARTESIAN_POINT ( 'NONE',  ( 1.530808498934191817E-17, 0.3750000000000000555, 0.1250000000000000278 ) ) ;
#132 = DIRECTION ( 'NONE',  ( 0.000000000000000000, 0.000000000000000000, -1.000000000000000000 ) ) ;
#133 = UNCERTAINTY_MEASURE_WITH_UNIT (LENGTH_MEASURE( 1.000000000000000082E-05 ), #208, 'distance_accuracy_value', 'NONE');
#134 = DIRECTION ( 'NONE',  ( 0.000000000000000000, 0.000000000000000000, -1.000000000000000000 ) ) ;
#135 = SURFACE_SIDE_STYLE ('',( #164 ) ) ;
#136 = LENGTH_MEASURE_WITH_UNIT ( LENGTH_MEASURE( 0.02539999999999999897 ), #280 );
#137 = CARTESIAN_POINT ( 'NONE',  ( 0.1250000000000000278, 0.3749999999999999445, 1.530808498934191817E-17 ) ) ;
#138 =( NAMED_UNIT ( * ) SI_UNIT ( $, .STERADIAN. ) SOLID_ANGLE_UNIT ( ) );
#139 = ORIENTED_EDGE ( 'NONE', *, *, #32, .F. ) ;
#140 = CARTESIAN_POINT ( 'NONE',  ( 0.000000000000000000, 0.3749999999999999445, 0.000000000000000000 ) ) ;
#141 = CARTESIAN_POINT ( 'NONE',  ( 0.000000000000000000, 0.000000000000000000, 0.000000000000000000 ) ) ;
#142 = FILL_AREA_STYLE ('',( #172 ) ) ;
#143 = PRODUCT_CONTEXT ( 'NONE', #195, 'mechanical' ) ;
#144 = PLANE ( 'NONE',  #3 ) ;
#145 = PRESENTATION_LAYER_ASSIGNMENT (  '', '', ( #113 ) ) ;
#146 = ORIENTED_EDGE ( 'NONE', *, *, #166, .F. ) ;
#147 = AXIS2_PLACEMENT_3D ( 'NONE', #162, #276, #67 ) ;
#148 =( GEOMETRIC_REPRESENTATION_CONTEXT ( 3 ) GLOBAL_UNCERTAINTY_ASSIGNED_CONTEXT ( ( #133 ) ) GLOBAL_UNIT_ASSIGNED_CONTEXT ( ( #208, #254, #190 ) ) REPRESENTATION_CONTEXT ( 'NONE', 'WORKASPACE' ) );
#149 =( CONVERSION_BASED_UNIT ( 'INCH', #173 ) LENGTH_UNIT ( ) NAMED_UNIT ( #125 ) );
#150 = CARTESIAN_POINT ( 'NONE',  ( -0.1249999999999998751, 2.000000000000000000, 0.000000000000000000 ) ) ;
#151 = ADVANCED_FACE ( 'NONE', ( #302 ), #94, .T. ) ;
#152 = FACE_OUTER_BOUND ( 'NONE', #232, .T. ) ;
#153 = CIRCLE ( 'NONE', #17, 0.1250000000000000278 ) ;
#154 = PLANE ( 'NONE',  #74 ) ;
#155 = DIRECTION ( 'NONE',  ( 0.000000000000000000, 0.000000000000000000, -1.000000000000000000 ) ) ;
#156 = CARTESIAN_POINT ( 'NONE',  ( 1.530808498934191509E-17, 0.000000000000000000, 0.1250000000000000000 ) ) ;
#157 = DIRECTION ( 'NONE',  ( -0.000000000000000000, -1.000000000000000000, -0.000000000000000000 ) ) ;
#158 =( LENGTH_UNIT ( ) NAMED_UNIT ( * ) SI_UNIT ( $, .METRE. ) );
#159 = ADVANCED_FACE ( 'NONE', ( #87 ), #233, .F. ) ;
#160 = COLOUR_RGB ( '',1.000000000000000000, 0.000000000000000000, 0.000000000000000000 ) ;
#161 = COLOUR_RGB ( '',0.7921568627450980005, 0.8196078431372548767, 0.9333333333333333481 ) ;
#162 = CARTESIAN_POINT ( 'NONE',  ( 8.874318240602707505E-35, 0.3750000000000000555, 0.000000000000000000 ) ) ;
#163 =( NAMED_UNIT ( * ) SI_UNIT ( $, .STERADIAN. ) SOLID_ANGLE_UNIT ( ) );
#164 = SURFACE_STYLE_FILL_AREA ( #183 ) ;
#165 = ORIENTED_EDGE ( 'NONE', *, *, #244, .F. ) ;
#166 = EDGE_CURVE ( 'NONE', #221, #287, #153, .T. ) ;
#167 = CYLINDRICAL_SURFACE ( 'NONE', #121, 0.1250000000000000000 ) ;
#168 = EDGE_LOOP ( 'NONE', ( #146, #234 ) ) ;
#169 =( GEOMETRIC_REPRESENTATION_CONTEXT ( 3 ) GLOBAL_UNCERTAINTY_ASSIGNED_CONTEXT ( ( #176 ) ) GLOBAL_UNIT_ASSIGNED_CONTEXT ( ( #149, #294, #59 ) ) REPRESENTATION_CONTEXT ( 'NONE', 'WORKASPACE' ) );
#170 = MECHANICAL_DESIGN_GEOMETRIC_PRESENTATION_REPRESENTATION (  '', ( #24 ), #177 ) ;
#171 = DIMENSIONAL_EXPONENTS ( 1.000000000000000000, 0.000000000000000000, 0.000000000000000000, 0.000000000000000000, 0.000000000000000000, 0.000000000000000000, 0.000000000000000000 ) ;
#172 = FILL_AREA_STYLE_COLOUR ( '', #268 ) ;
#173 = LENGTH_MEASURE_WITH_UNIT ( LENGTH_MEASURE( 0.02539999999999999897 ), #12 );
#174 = DIRECTION ( 'NONE',  ( 3.768143997376471359E-17, 1.000000000000000000, -0.000000000000000000 ) ) ;
#175 = FACE_OUTER_BOUND ( 'NONE', #213, .T. ) ;
#176 = UNCERTAINTY_MEASURE_WITH_UNIT (LENGTH_MEASURE( 1.000000000000000082E-05 ), #149, 'distance_accuracy_value', 'NONE');
#177 =( GEOMETRIC_REPRESENTATION_CONTEXT ( 3 ) GLOBAL_UNCERTAINTY_ASSIGNED_CONTEXT ( ( #215 ) ) GLOBAL_UNIT_ASSIGNED_CONTEXT ( ( #186, #89, #229 ) ) REPRESENTATION_CONTEXT ( 'NONE', 'WORKASPACE' ) );
#178 = FILL_AREA_STYLE ('',( #43 ) ) ;
#179 = DIMENSIONAL_EXPONENTS ( 1.000000000000000000, 0.000000000000000000, 0.000000000000000000, 0.000000000000000000, 0.000000000000000000, 0.000000000000000000, 0.000000000000000000 ) ;
#180 = DIRECTION ( 'NONE',  ( 3.768143997376471359E-17, 1.000000000000000000, -0.000000000000000000 ) ) ;
#181 = FACE_OUTER_BOUND ( 'NONE', #66, .T. ) ;
#182 = SURFACE_STYLE_USAGE ( .BOTH. , #298 ) ;
#183 = FILL_AREA_STYLE ('',( #308 ) ) ;
#184 = CIRCLE ( 'NONE', #240, 0.1250000000000000278 ) ;
#185 =( GEOMETRIC_REPRESENTATION_CONTEXT ( 3 ) GLOBAL_UNCERTAINTY_ASSIGNED_CONTEXT ( ( #114 ) ) GLOBAL_UNIT_ASSIGNED_CONTEXT ( ( #108, #69, #138 ) ) REPRESENTATION_CONTEXT ( 'NONE', 'WORKASPACE' ) );
#186 =( CONVERSION_BASED_UNIT ( 'INCH', #299 ) LENGTH_UNIT ( ) NAMED_UNIT ( #289 ) );
#187 = PRODUCT_DEFINITION ( 'UNKNOWN', '', #37, #103 ) ;
#188 = SURFACE_SIDE_STYLE ('',( #206 ) ) ;
#189 = ORIENTED_EDGE ( 'NONE', *, *, #220, .T. ) ;
#190 =( NAMED_UNIT ( * ) SI_UNIT ( $, .STERADIAN. ) SOLID_ANGLE_UNIT ( ) );
#191 = VERTEX_POINT ( 'NONE', #19 ) ;
#192 = AXIS2_PLACEMENT_3D ( 'NONE', #252, #157, #134 ) ;
#193 = DIRECTION ( 'NONE',  ( 1.000000000000000000, 0.000000000000000000, 0.000000000000000000 ) ) ;
#194 = PRESENTATION_STYLE_ASSIGNMENT (( #28 ) ) ;
#195 = APPLICATION_CONTEXT ( 'automotive_design' ) ;
#196 = SHAPE_DEFINITION_REPRESENTATION ( #212, #201 ) ;
#197 = COLOUR_RGB ( '',0.7921568627450980005, 0.8196078431372548767, 0.9333333333333333481 ) ;
#198 = ADVANCED_FACE ( 'NONE', ( #181 ), #225, .T. ) ;
#199 = ORIENTED_EDGE ( 'NONE', *, *, #267, .F. ) ;
#200 = MANIFOLD_SOLID_BREP ( 'Revolve - Tool Body (Straight Shanked)', #120 ) ;
#201 = ADVANCED_BREP_SHAPE_REPRESENTATION ( '01150', ( #300, #200, #6 ), #264 ) ;
#202 = LINE ( 'NONE', #84, #219 ) ;
#203 = DIRECTION ( 'NONE',  ( 1.000000000000000000, -3.768143997376471359E-17, 0.000000000000000000 ) ) ;
#204 =( GEOMETRIC_REPRESENTATION_CONTEXT ( 3 ) GLOBAL_UNCERTAINTY_ASSIGNED_CONTEXT ( ( #86 ) ) GLOBAL_UNIT_ASSIGNED_CONTEXT ( ( #307, #39, #163 ) ) REPRESENTATION_CONTEXT ( 'NONE', 'WORKASPACE' ) );
#205 = CARTESIAN_POINT ( 'NONE',  ( 6.123233995736766036E-17, 2.000000000000000000, 0.000000000000000000 ) ) ;
#206 = SURFACE_STYLE_FILL_AREA ( #112 ) ;
#207 = DIRECTION ( 'NONE',  ( -0.000000000000000000, -1.000000000000000000, -0.000000000000000000 ) ) ;
#208 =( CONVERSION_BASED_UNIT ( 'INCH', #110 ) LENGTH_UNIT ( ) NAMED_UNIT ( #171 ) );
#209 = EDGE_CURVE ( 'NONE', #287, #221, #270, .T. ) ;
#210 =( LENGTH_UNIT ( ) NAMED_UNIT ( * ) SI_UNIT ( $, .METRE. ) );
#211 = VECTOR ( 'NONE', #1, 39.37007874015748143 ) ;
#212 = PRODUCT_DEFINITION_SHAPE ( 'NONE', 'NONE',  #187 ) ;
#213 = EDGE_LOOP ( 'NONE', ( #288, #262, #165, #260 ) ) ;
#214 = ORIENTED_EDGE ( 'NONE', *, *, #72, .F. ) ;
#215 = UNCERTAINTY_MEASURE_WITH_UNIT (LENGTH_MEASURE( 1.000000000000000082E-05 ), #186, 'distance_accuracy_value', 'NONE');
#216 = DIRECTION ( 'NONE',  ( 3.768143997376471359E-17, 1.000000000000000000, -0.000000000000000000 ) ) ;
#217 = ORIENTED_EDGE ( 'NONE', *, *, #220, .F. ) ;
#218 = EDGE_CURVE ( 'NONE', #255, #30, #116, .T. ) ;
#219 = VECTOR ( 'NONE', #180, 39.37007874015748143 ) ;
#220 = EDGE_CURVE ( 'NONE', #30, #285, #128, .T. ) ;
#221 = VERTEX_POINT ( 'NONE', #18 ) ;
#222 = MECHANICAL_DESIGN_GEOMETRIC_PRESENTATION_REPRESENTATION (  '', ( #65 ), #204 ) ;
#223 = FILL_AREA_STYLE_COLOUR ( '', #161 ) ;
#224 = CARTESIAN_POINT ( 'NONE',  ( 0.000000000000000000, 0.3750000000000000555, 0.000000000000000000 ) ) ;
#225 = CYLINDRICAL_SURFACE ( 'NONE', #64, 0.1250000000000000000 ) ;
#226 = AXIS2_PLACEMENT_3D ( 'NONE', #140, #216, #27 ) ;
#227 = DIRECTION ( 'NONE',  ( 3.768143997376471359E-17, 1.000000000000000000, -0.000000000000000000 ) ) ;
#228 = UNCERTAINTY_MEASURE_WITH_UNIT (LENGTH_MEASURE( 1.000000000000000082E-05 ), #54, 'distance_accuracy_value', 'NONE');
#229 =( NAMED_UNIT ( * ) SI_UNIT ( $, .STERADIAN. ) SOLID_ANGLE_UNIT ( ) );
#230 = SURFACE_STYLE_FILL_AREA ( #178 ) ;
#231 = DIRECTION ( 'NONE',  ( -1.000000000000000000, 0.000000000000000000, 0.000000000000000000 ) ) ;
#232 = EDGE_LOOP ( 'NONE', ( #189, #51 ) ) ;
#233 = PLANE ( 'NONE',  #147 ) ;
#234 = ORIENTED_EDGE ( 'NONE', *, *, #209, .F. ) ;
#235 = CARTESIAN_POINT ( 'NONE',  ( 0.000000000000000000, 0.000000000000000000, -0.1250000000000000000 ) ) ;
#236 = ORIENTED_EDGE ( 'NONE', *, *, #72, .T. ) ;
#237 = CLOSED_SHELL ( 'NONE', ( #198, #8, #263, #55 ) ) ;
#238 = CIRCLE ( 'NONE', #79, 0.1249999999999999445 ) ;
#239 = DIMENSIONAL_EXPONENTS ( 1.000000000000000000, 0.000000000000000000, 0.000000000000000000, 0.000000000000000000, 0.000000000000000000, 0.000000000000000000, 0.000000000000000000 ) ;
#240 = AXIS2_PLACEMENT_3D ( 'NONE', #224, #14, #107 ) ;
#241 =( CONVERSION_BASED_UNIT ( 'INCH', #281 ) LENGTH_UNIT ( ) NAMED_UNIT ( #81 ) );
#242 = CARTESIAN_POINT ( 'NONE',  ( 0.000000000000000000, 0.000000000000000000, -0.1250000000000000000 ) ) ;
#243 = SURFACE_STYLE_FILL_AREA ( #292 ) ;
#244 = EDGE_CURVE ( 'NONE', #26, #191, #238, .T. ) ;
#245 = DIRECTION ( 'NONE',  ( 0.000000000000000000, 0.000000000000000000, -1.000000000000000000 ) ) ;
#246 = PRESENTATION_STYLE_ASSIGNMENT (( #182 ) ) ;
#247 = DIRECTION ( 'NONE',  ( -0.000000000000000000, -1.000000000000000000, -0.000000000000000000 ) ) ;
#248 = CARTESIAN_POINT ( 'NONE',  ( 0.000000000000000000, 0.3750000000000000555, -0.1250000000000000278 ) ) ;
#249 =( LENGTH_UNIT ( ) NAMED_UNIT ( * ) SI_UNIT ( $, .METRE. ) );
#250 = COLOUR_RGB ( '',1.000000000000000000, 0.000000000000000000, 0.000000000000000000 ) ;
#251 = PRODUCT_RELATED_PRODUCT_CATEGORY ( 'part', '', ( #122 ) ) ;
#252 = CARTESIAN_POINT ( 'NONE',  ( 0.000000000000000000, 0.3750000000000000555, 0.000000000000000000 ) ) ;
#253 = DIRECTION ( 'NONE',  ( 0.000000000000000000, 0.000000000000000000, -1.000000000000000000 ) ) ;
#254 =( NAMED_UNIT ( * ) PLANE_ANGLE_UNIT ( ) SI_UNIT ( $, .RADIAN. ) );
#255 = VERTEX_POINT ( 'NONE', #248 ) ;
#256 = CIRCLE ( 'NONE', #10, 0.1249999999999999445 ) ;
#257 = STYLED_ITEM ( 'NONE', ( #62 ), #300 ) ;
#258 = SURFACE_SIDE_STYLE ('',( #61 ) ) ;
#259 = EDGE_CURVE ( 'NONE', #285, #30, #306, .T. ) ;
#260 = ORIENTED_EDGE ( 'NONE', *, *, #111, .F. ) ;
#261 =( LENGTH_UNIT ( ) NAMED_UNIT ( * ) SI_UNIT ( $, .METRE. ) );
#262 = ORIENTED_EDGE ( 'NONE', *, *, #32, .T. ) ;
#263 = ADVANCED_FACE ( 'NONE', ( #60 ), #167, .T. ) ;
#264 =( GEOMETRIC_REPRESENTATION_CONTEXT ( 3 ) GLOBAL_UNCERTAINTY_ASSIGNED_CONTEXT ( ( #228 ) ) GLOBAL_UNIT_ASSIGNED_CONTEXT ( ( #54, #97, #33 ) ) REPRESENTATION_CONTEXT ( 'NONE', 'WORKASPACE' ) );
#265 = APPLICATION_CONTEXT ( 'automotive_design' ) ;
#266 = ORIENTED_EDGE ( 'NONE', *, *, #218, .F. ) ;
#267 = EDGE_CURVE ( 'NONE', #255, #47, #279, .T. ) ;
#268 = COLOUR_RGB ( '',1.000000000000000000, 0.000000000000000000, 0.000000000000000000 ) ;
#269 = CARTESIAN_POINT ( 'NONE',  ( 6.123233995736766036E-17, 2.000000000000000000, 0.000000000000000000 ) ) ;
#270 = CIRCLE ( 'NONE', #226, 0.1250000000000000278 ) ;
#271 = FILL_AREA_STYLE_COLOUR ( '', #160 ) ;
#272 = CARTESIAN_POINT ( 'NONE',  ( 0.000000000000000000, 0.3750000000000000555, 0.000000000000000000 ) ) ;
#273 = AXIS2_PLACEMENT_3D ( 'NONE', #109, #91, #203 ) ;
#274 = LINE ( 'NONE', #156, #78 ) ;
#275 = DIRECTION ( 'NONE',  ( 0.000000000000000000, 0.000000000000000000, -1.000000000000000000 ) ) ;
#276 = DIRECTION ( 'NONE',  ( 3.768143997376471359E-17, 1.000000000000000000, -0.000000000000000000 ) ) ;
#277 = DIRECTION ( 'NONE',  ( -1.000000000000000000, 0.000000000000000000, 0.000000000000000000 ) ) ;
#278 = PRESENTATION_LAYER_ASSIGNMENT (  '', '', ( #31 ) ) ;
#279 = CIRCLE ( 'NONE', #192, 0.1250000000000000278 ) ;
#280 =( LENGTH_UNIT ( ) NAMED_UNIT ( * ) SI_UNIT ( $, .METRE. ) );
#281 = LENGTH_MEASURE_WITH_UNIT ( LENGTH_MEASURE( 0.02539999999999999897 ), #119 );
#282 = DIRECTION ( 'NONE',  ( 3.768143997376471359E-17, 1.000000000000000000, -0.000000000000000000 ) ) ;
#283 = ORIENTED_EDGE ( 'NONE', *, *, #111, .T. ) ;
#284 = ADVANCED_FACE ( 'NONE', ( #22 ), #295, .F. ) ;
#285 = VERTEX_POINT ( 'NONE', #45 ) ;
#286 = PRESENTATION_LAYER_ASSIGNMENT (  '', '', ( #65 ) ) ;
#287 = VERTEX_POINT ( 'NONE', #137 ) ;
#288 = ORIENTED_EDGE ( 'NONE', *, *, #166, .T. ) ;
#289 = DIMENSIONAL_EXPONENTS ( 1.000000000000000000, 0.000000000000000000, 0.000000000000000000, 0.000000000000000000, 0.000000000000000000, 0.000000000000000000, 0.000000000000000000 ) ;
#290 = DIRECTION ( 'NONE',  ( 0.000000000000000000, -1.000000000000000000, -0.000000000000000000 ) ) ;
#291 =( GEOMETRIC_REPRESENTATION_CONTEXT ( 3 ) GLOBAL_UNCERTAINTY_ASSIGNED_CONTEXT ( ( #21 ) ) GLOBAL_UNIT_ASSIGNED_CONTEXT ( ( #241, #126, #124 ) ) REPRESENTATION_CONTEXT ( 'NONE', 'WORKASPACE' ) );
#292 = FILL_AREA_STYLE ('',( #271 ) ) ;
#293 = DIRECTION ( 'NONE',  ( 0.000000000000000000, 1.000000000000000000, 0.000000000000000000 ) ) ;
#294 =( NAMED_UNIT ( * ) PLANE_ANGLE_UNIT ( ) SI_UNIT ( $, .RADIAN. ) );
#295 = PLANE ( 'NONE',  #273 ) ;
#296 = DIRECTION ( 'NONE',  ( -1.000000000000000000, 0.000000000000000000, 0.000000000000000000 ) ) ;
#297 = PRESENTATION_LAYER_ASSIGNMENT (  '', '', ( #58 ) ) ;
#298 = SURFACE_SIDE_STYLE ('',( #230 ) ) ;
#299 = LENGTH_MEASURE_WITH_UNIT ( LENGTH_MEASURE( 0.02539999999999999897 ), #158 );
#300 = MANIFOLD_SOLID_BREP ( 'Revolve - Cutting Edge', #237 ) ;
#301 = CARTESIAN_POINT ( 'NONE',  ( 0.000000000000000000, 0.000000000000000000, 0.000000000000000000 ) ) ;
#302 = FACE_OUTER_BOUND ( 'NONE', #70, .T. ) ;
#303 = DIRECTION ( 'NONE',  ( -0.000000000000000000, -1.000000000000000000, -0.000000000000000000 ) ) ;
#304 = SURFACE_STYLE_USAGE ( .BOTH. , #258 ) ;
#305 = PRESENTATION_LAYER_ASSIGNMENT (  '', '', ( #24 ) ) ;
#306 = CIRCLE ( 'NONE', #4, 0.1250000000000000000 ) ;
#307 =( CONVERSION_BASED_UNIT ( 'INCH', #136 ) LENGTH_UNIT ( ) NAMED_UNIT ( #5 ) );
#308 = FILL_AREA_STYLE_COLOUR ( '', #197 ) ;
#309 = ORIENTED_EDGE ( 'NONE', *, *, #106, .T. ) ;
ENDSEC;
END-ISO-10303-21;
