ISO-10303-21;
HEADER;
FILE_DESCRIPTION (( 'STEP AP214' ),
    '1' );
FILE_NAME ('83423.STEP',
    '2023-06-30T23:17:20',
    ( '' ),
    ( '' ),
    'SwSTEP 2.0',
    'SolidWorks 2023',
    '' );
FILE_SCHEMA (( 'AUTOMOTIVE_DESIGN' ));
ENDSEC;

DATA;
#1 = SURFACE_STYLE_FILL_AREA ( #140 ) ;
#2 = AXIS2_PLACEMENT_3D ( 'NONE', #310, #309, #306 ) ;
#3 =( NAMED_UNIT ( * ) SI_UNIT ( $, .STERADIAN. ) SOLID_ANGLE_UNIT ( ) );
#4 = DIRECTION ( 'NONE',  ( 1.000000000000000000, 1.225879640726712598E-16, 0.000000000000000000 ) ) ;
#5 = CARTESIAN_POINT ( 'NONE',  ( 0.000000000000000000, 0.000000000000000000, 0.000000000000000000 ) ) ;
#6 =( NAMED_UNIT ( * ) SI_UNIT ( $, .STERADIAN. ) SOLID_ANGLE_UNIT ( ) );
#7 = DIRECTION ( 'NONE',  ( -1.225879640726712598E-16, 1.000000000000000000, 0.000000000000000000 ) ) ;
#8 = CIRCLE ( 'NONE', #228, 0.2499999999999999722 ) ;
#9 = DIRECTION ( 'NONE',  ( -1.000000000000000000, 0.000000000000000000, 0.000000000000000000 ) ) ;
#10 = DIRECTION ( 'NONE',  ( 1.000000000000000000, 0.000000000000000000, 0.000000000000000000 ) ) ;
#11 = PRESENTATION_STYLE_ASSIGNMENT (( #38 ) ) ;
#12 = SURFACE_STYLE_USAGE ( .BOTH. , #354 ) ;
#13 = PLANE ( 'NONE',  #185 ) ;
#14 = DIRECTION ( 'NONE',  ( -1.000000000000000000, 0.000000000000000000, 0.000000000000000000 ) ) ;
#15 = DIRECTION ( 'NONE',  ( 1.224646799147353207E-16, -0.000000000000000000, 1.000000000000000000 ) ) ;
#16 =( GEOMETRIC_REPRESENTATION_CONTEXT ( 3 ) GLOBAL_UNCERTAINTY_ASSIGNED_CONTEXT ( ( #315 ) ) GLOBAL_UNIT_ASSIGNED_CONTEXT ( ( #226, #316, #200 ) ) REPRESENTATION_CONTEXT ( 'NONE', 'WORKASPACE' ) );
#17 = VECTOR ( 'NONE', #241, 39.37007874015748143 ) ;
#18 =( LENGTH_UNIT ( ) NAMED_UNIT ( * ) SI_UNIT ( $, .METRE. ) );
#19 = EDGE_CURVE ( 'NONE', #224, #362, #129, .T. ) ;
#20 = ORIENTED_EDGE ( 'NONE', *, *, #152, .F. ) ;
#21 = ADVANCED_FACE ( 'NONE', ( #142 ), #24, .T. ) ;
#22 = LENGTH_MEASURE_WITH_UNIT ( LENGTH_MEASURE( 0.02539999999999999897 ), #62 );
#23 = FILL_AREA_STYLE_COLOUR ( '', #266 ) ;
#24 = SPHERICAL_SURFACE ( 'NONE', #257, 0.2500000000000000000 ) ;
#25 = PRODUCT ( '83423', '83423', '', ( #119 ) ) ;
#26 = AXIS2_PLACEMENT_3D ( 'NONE', #213, #207, #148 ) ;
#27 = CIRCLE ( 'NONE', #43, 0.2499999999999998335 ) ;
#28 = PRESENTATION_STYLE_ASSIGNMENT (( #348 ) ) ;
#29 = SURFACE_STYLE_USAGE ( .BOTH. , #115 ) ;
#30 = CARTESIAN_POINT ( 'NONE',  ( 2.299140747152265662E-16, 1.625000000000000000, 0.000000000000000000 ) ) ;
#31 = SURFACE_STYLE_USAGE ( .BOTH. , #199 ) ;
#32 =( LENGTH_UNIT ( ) NAMED_UNIT ( * ) SI_UNIT ( $, .METRE. ) );
#33 = AXIS2_PLACEMENT_3D ( 'NONE', #71, #46, #349 ) ;
#34 = UNCERTAINTY_MEASURE_WITH_UNIT (LENGTH_MEASURE( 1.000000000000000082E-05 ), #298, 'distance_accuracy_value', 'NONE');
#35 =( NAMED_UNIT ( * ) SI_UNIT ( $, .STERADIAN. ) SOLID_ANGLE_UNIT ( ) );
#36 = FILL_AREA_STYLE_COLOUR ( '', #258 ) ;
#37 = CARTESIAN_POINT ( 'NONE',  ( 0.000000000000000000, 0.2500000000000000555, 0.000000000000000000 ) ) ;
#38 = SURFACE_STYLE_USAGE ( .BOTH. , #122 ) ;
#39 = EDGE_CURVE ( 'NONE', #342, #201, #190, .T. ) ;
#40 = COLOUR_RGB ( '',1.000000000000000000, 0.000000000000000000, 0.000000000000000000 ) ;
#41 = ADVANCED_FACE ( 'NONE', ( #296 ), #267, .F. ) ;
#42 =( NAMED_UNIT ( * ) SI_UNIT ( $, .STERADIAN. ) SOLID_ANGLE_UNIT ( ) );
#43 = AXIS2_PLACEMENT_3D ( 'NONE', #325, #177, #273 ) ;
#44 = FILL_AREA_STYLE_COLOUR ( '', #337 ) ;
#45 =( NAMED_UNIT ( * ) PLANE_ANGLE_UNIT ( ) SI_UNIT ( $, .RADIAN. ) );
#46 = DIRECTION ( 'NONE',  ( 0.000000000000000000, 0.000000000000000000, -1.000000000000000000 ) ) ;
#47 = DIRECTION ( 'NONE',  ( 1.000000000000000000, 0.000000000000000000, -1.224646799147353207E-16 ) ) ;
#48 = PRESENTATION_LAYER_ASSIGNMENT (  '', '', ( #212 ) ) ;
#49 = CYLINDRICAL_SURFACE ( 'NONE', #64, 0.2499999999999997224 ) ;
#50 = AXIS2_PLACEMENT_3D ( 'NONE', #65, #352, #232 ) ;
#51 = EDGE_LOOP ( 'NONE', ( #173, #67, #113, #160 ) ) ;
#52 = DIRECTION ( 'NONE',  ( -1.225879640726712598E-16, 1.000000000000000000, -0.000000000000000000 ) ) ;
#53 =( NAMED_UNIT ( * ) SI_UNIT ( $, .STERADIAN. ) SOLID_ANGLE_UNIT ( ) );
#54 = ADVANCED_FACE ( 'NONE', ( #178 ), #13, .F. ) ;
#55 = LINE ( 'NONE', #249, #303 ) ;
#56 = AXIS2_PLACEMENT_3D ( 'NONE', #5, #327, #276 ) ;
#57 = ORIENTED_EDGE ( 'NONE', *, *, #168, .T. ) ;
#58 = PRESENTATION_LAYER_ASSIGNMENT (  '', '', ( #69 ) ) ;
#59 =( GEOMETRIC_REPRESENTATION_CONTEXT ( 3 ) GLOBAL_UNCERTAINTY_ASSIGNED_CONTEXT ( ( #225 ) ) GLOBAL_UNIT_ASSIGNED_CONTEXT ( ( #146, #269, #6 ) ) REPRESENTATION_CONTEXT ( 'NONE', 'WORKASPACE' ) );
#60 = ORIENTED_EDGE ( 'NONE', *, *, #19, .F. ) ;
#61 = ADVANCED_BREP_SHAPE_REPRESENTATION ( '83423', ( #364, #240, #78 ), #59 ) ;
#62 =( LENGTH_UNIT ( ) NAMED_UNIT ( * ) SI_UNIT ( $, .METRE. ) );
#63 = DIRECTION ( 'NONE',  ( 1.225879640726712598E-16, -1.000000000000000000, 0.000000000000000000 ) ) ;
#64 = AXIS2_PLACEMENT_3D ( 'NONE', #252, #52, #14 ) ;
#65 = CARTESIAN_POINT ( 'NONE',  ( 0.000000000000000000, 1.625000000000000000, 0.000000000000000000 ) ) ;
#66 = SPHERICAL_SURFACE ( 'NONE', #95, 0.2500000000000000000 ) ;
#67 = ORIENTED_EDGE ( 'NONE', *, *, #93, .T. ) ;
#68 = PRESENTATION_LAYER_ASSIGNMENT (  '', '', ( #203 ) ) ;
#69 = STYLED_ITEM ( 'NONE', ( #157 ), #334 ) ;
#70 = CARTESIAN_POINT ( 'NONE',  ( 3.061616997868381785E-17, 0.000000000000000000, 0.2499999999999998890 ) ) ;
#71 = CARTESIAN_POINT ( 'NONE',  ( -3.061616997868383018E-17, 0.2500000000000000000, 0.000000000000000000 ) ) ;
#72 = ADVANCED_FACE ( 'NONE', ( #183 ), #355, .T. ) ;
#73 = EDGE_CURVE ( 'NONE', #360, #262, #211, .T. ) ;
#74 = DIRECTION ( 'NONE',  ( 0.000000000000000000, 0.000000000000000000, -1.000000000000000000 ) ) ;
#75 = CARTESIAN_POINT ( 'NONE',  ( -6.123233995736766036E-17, 4.000000000000000000, 0.000000000000000000 ) ) ;
#76 = APPLICATION_PROTOCOL_DEFINITION ( 'draft international standard', 'automotive_design', 1998, #221 ) ;
#77 = AXIS2_PLACEMENT_3D ( 'NONE', #282, #336, #280 ) ;
#78 = AXIS2_PLACEMENT_3D ( 'NONE', #151, #275, #10 ) ;
#79 = CARTESIAN_POINT ( 'NONE',  ( -6.123233995736766036E-17, 4.000000000000000000, 0.000000000000000000 ) ) ;
#80 = ORIENTED_EDGE ( 'NONE', *, *, #329, .T. ) ;
#81 = CIRCLE ( 'NONE', #77, 0.2499999999999999722 ) ;
#82 = SURFACE_STYLE_USAGE ( .BOTH. , #335 ) ;
#83 = ORIENTED_EDGE ( 'NONE', *, *, #250, .F. ) ;
#84 = PRESENTATION_STYLE_ASSIGNMENT (( #82 ) ) ;
#85 = MECHANICAL_DESIGN_GEOMETRIC_PRESENTATION_REPRESENTATION (  '', ( #191 ), #278 ) ;
#86 = UNCERTAINTY_MEASURE_WITH_UNIT (LENGTH_MEASURE( 1.000000000000000082E-05 ), #101, 'distance_accuracy_value', 'NONE');
#87 = ORIENTED_EDGE ( 'NONE', *, *, #250, .T. ) ;
#88 =( CONVERSION_BASED_UNIT ( 'INCH', #22 ) LENGTH_UNIT ( ) NAMED_UNIT ( #145 ) );
#89 = ORIENTED_EDGE ( 'NONE', *, *, #215, .T. ) ;
#90 = PRODUCT_DEFINITION_CONTEXT ( 'detailed design', #268, 'design' ) ;
#91 = DIRECTION ( 'NONE',  ( 0.000000000000000000, 0.000000000000000000, 1.000000000000000000 ) ) ;
#92 = ORIENTED_EDGE ( 'NONE', *, *, #152, .T. ) ;
#93 = EDGE_CURVE ( 'NONE', #201, #342, #350, .T. ) ;
#94 = SURFACE_STYLE_FILL_AREA ( #223 ) ;
#95 = AXIS2_PLACEMENT_3D ( 'NONE', #192, #170, #112 ) ;
#96 = DIRECTION ( 'NONE',  ( -1.225879640726712598E-16, 1.000000000000000000, -0.000000000000000000 ) ) ;
#97 = CARTESIAN_POINT ( 'NONE',  ( 0.2499999999999999722, 0.2500000000000000555, 0.000000000000000000 ) ) ;
#98 = CARTESIAN_POINT ( 'NONE',  ( 0.000000000000000000, 0.000000000000000000, -0.2499999999999998890 ) ) ;
#99 = STYLED_ITEM ( 'NONE', ( #135 ), #364 ) ;
#100 = FACE_OUTER_BOUND ( 'NONE', #51, .T. ) ;
#101 =( CONVERSION_BASED_UNIT ( 'INCH', #307 ) LENGTH_UNIT ( ) NAMED_UNIT ( #216 ) );
#102 = DIMENSIONAL_EXPONENTS ( 1.000000000000000000, 0.000000000000000000, 0.000000000000000000, 0.000000000000000000, 0.000000000000000000, 0.000000000000000000, 0.000000000000000000 ) ;
#103 = COLOUR_RGB ( '',1.000000000000000000, 0.000000000000000000, 0.000000000000000000 ) ;
#104 =( NAMED_UNIT ( * ) PLANE_ANGLE_UNIT ( ) SI_UNIT ( $, .RADIAN. ) );
#105 = EDGE_CURVE ( 'NONE', #362, #116, #330, .T. ) ;
#106 = ORIENTED_EDGE ( 'NONE', *, *, #105, .F. ) ;
#107 = FILL_AREA_STYLE_COLOUR ( '', #344 ) ;
#108 = EDGE_LOOP ( 'NONE', ( #373, #80, #366, #134 ) ) ;
#109 = FILL_AREA_STYLE_COLOUR ( '', #357 ) ;
#110 = DIRECTION ( 'NONE',  ( -0.000000000000000000, -1.000000000000000000, -0.000000000000000000 ) ) ;
#111 = ORIENTED_EDGE ( 'NONE', *, *, #293, .T. ) ;
#112 = DIRECTION ( 'NONE',  ( 1.000000000000000000, 0.000000000000000000, 0.000000000000000000 ) ) ;
#113 = ORIENTED_EDGE ( 'NONE', *, *, #127, .T. ) ;
#114 =( GEOMETRIC_REPRESENTATION_CONTEXT ( 3 ) GLOBAL_UNCERTAINTY_ASSIGNED_CONTEXT ( ( #222 ) ) GLOBAL_UNIT_ASSIGNED_CONTEXT ( ( #147, #210, #35 ) ) REPRESENTATION_CONTEXT ( 'NONE', 'WORKASPACE' ) );
#115 = SURFACE_SIDE_STYLE ('',( #1 ) ) ;
#116 = VERTEX_POINT ( 'NONE', #117 ) ;
#117 = CARTESIAN_POINT ( 'NONE',  ( 0.000000000000000000, 0.2500000000000000555, -0.2499999999999999722 ) ) ;
#118 = DIRECTION ( 'NONE',  ( 0.000000000000000000, 0.000000000000000000, -1.000000000000000000 ) ) ;
#119 = PRODUCT_CONTEXT ( 'NONE', #221, 'mechanical' ) ;
#120 = CARTESIAN_POINT ( 'NONE',  ( 2.299140747152265662E-16, 1.625000000000000000, 0.000000000000000000 ) ) ;
#121 =( LENGTH_UNIT ( ) NAMED_UNIT ( * ) SI_UNIT ( $, .METRE. ) );
#122 = SURFACE_SIDE_STYLE ('',( #300 ) ) ;
#123 = CLOSED_SHELL ( 'NONE', ( #334, #72, #371, #372, #21 ) ) ;
#124 = FILL_AREA_STYLE_COLOUR ( '', #103 ) ;
#125 = CARTESIAN_POINT ( 'NONE',  ( -0.2499999999999999722, 4.000000000000000000, 0.000000000000000000 ) ) ;
#126 = ORIENTED_EDGE ( 'NONE', *, *, #73, .T. ) ;
#127 = EDGE_CURVE ( 'NONE', #342, #262, #231, .T. ) ;
#128 =( LENGTH_UNIT ( ) NAMED_UNIT ( * ) SI_UNIT ( $, .METRE. ) );
#129 = CIRCLE ( 'NONE', #233, 0.2499999999999998335 ) ;
#130 = VECTOR ( 'NONE', #182, 39.37007874015748143 ) ;
#131 = DIRECTION ( 'NONE',  ( -1.225879640726712598E-16, 1.000000000000000000, -0.000000000000000000 ) ) ;
#132 = CARTESIAN_POINT ( 'NONE',  ( -3.061616997868383018E-17, 0.2500000000000000000, 0.000000000000000000 ) ) ;
#133 = ORIENTED_EDGE ( 'NONE', *, *, #331, .T. ) ;
#134 = ORIENTED_EDGE ( 'NONE', *, *, #127, .F. ) ;
#135 = PRESENTATION_STYLE_ASSIGNMENT (( #29 ) ) ;
#136 = AXIS2_PLACEMENT_3D ( 'NONE', #79, #96, #9 ) ;
#137 = STYLED_ITEM ( 'NONE', ( #230 ), #372 ) ;
#138 = CARTESIAN_POINT ( 'NONE',  ( 0.2499999999999998335, 4.000000000000000000, 0.000000000000000000 ) ) ;
#139 = PRESENTATION_STYLE_ASSIGNMENT (( #31 ) ) ;
#140 = FILL_AREA_STYLE ('',( #23 ) ) ;
#141 = SURFACE_SIDE_STYLE ('',( #94 ) ) ;
#142 = FACE_OUTER_BOUND ( 'NONE', #174, .T. ) ;
#143 =( GEOMETRIC_REPRESENTATION_CONTEXT ( 3 ) GLOBAL_UNCERTAINTY_ASSIGNED_CONTEXT ( ( #272 ) ) GLOBAL_UNIT_ASSIGNED_CONTEXT ( ( #88, #255, #172 ) ) REPRESENTATION_CONTEXT ( 'NONE', 'WORKASPACE' ) );
#144 =( LENGTH_UNIT ( ) NAMED_UNIT ( * ) SI_UNIT ( $, .METRE. ) );
#145 = DIMENSIONAL_EXPONENTS ( 1.000000000000000000, 0.000000000000000000, 0.000000000000000000, 0.000000000000000000, 0.000000000000000000, 0.000000000000000000, 0.000000000000000000 ) ;
#146 =( CONVERSION_BASED_UNIT ( 'INCH', #208 ) LENGTH_UNIT ( ) NAMED_UNIT ( #102 ) );
#147 =( CONVERSION_BASED_UNIT ( 'INCH', #239 ) LENGTH_UNIT ( ) NAMED_UNIT ( #169 ) );
#148 = DIRECTION ( 'NONE',  ( -1.000000000000000000, 0.000000000000000000, 0.000000000000000000 ) ) ;
#149 = AXIS2_PLACEMENT_3D ( 'NONE', #30, #319, #347 ) ;
#150 = CIRCLE ( 'NONE', #33, 0.2500000000000000000 ) ;
#151 = CARTESIAN_POINT ( 'NONE',  ( 0.000000000000000000, 0.000000000000000000, 0.000000000000000000 ) ) ;
#152 = EDGE_CURVE ( 'NONE', #116, #218, #328, .T. ) ;
#153 = CARTESIAN_POINT ( 'NONE',  ( 0.2499999999999998335, 1.625000000000000000, 3.061616997868381169E-17 ) ) ;
#154 = FACE_OUTER_BOUND ( 'NONE', #368, .T. ) ;
#155 = MECHANICAL_DESIGN_GEOMETRIC_PRESENTATION_REPRESENTATION (  '', ( #203 ), #114 ) ;
#156 = CIRCLE ( 'NONE', #2, 0.2499999999999999722 ) ;
#157 = PRESENTATION_STYLE_ASSIGNMENT (( #214 ) ) ;
#158 = ORIENTED_EDGE ( 'NONE', *, *, #93, .F. ) ;
#159 = SURFACE_SIDE_STYLE ('',( #359 ) ) ;
#160 = ORIENTED_EDGE ( 'NONE', *, *, #73, .F. ) ;
#161 = CARTESIAN_POINT ( 'NONE',  ( -1.530808498934191509E-17, 0.000000000000000000, 0.000000000000000000 ) ) ;
#162 = AXIS2_PLACEMENT_3D ( 'NONE', #75, #131, #332 ) ;
#163 = AXIS2_PLACEMENT_3D ( 'NONE', #202, #324, #74 ) ;
#164 = ORIENTED_EDGE ( 'NONE', *, *, #188, .F. ) ;
#165 = DIRECTION ( 'NONE',  ( -1.225879640726712598E-16, 1.000000000000000000, -0.000000000000000000 ) ) ;
#166 = CARTESIAN_POINT ( 'NONE',  ( 0.000000000000000000, 1.625000000000000000, -0.2499999999999998335 ) ) ;
#167 = CARTESIAN_POINT ( 'NONE',  ( -3.061616997868383018E-17, 0.2500000000000000000, 0.000000000000000000 ) ) ;
#168 = EDGE_CURVE ( 'NONE', #218, #297, #150, .T. ) ;
#169 = DIMENSIONAL_EXPONENTS ( 1.000000000000000000, 0.000000000000000000, 0.000000000000000000, 0.000000000000000000, 0.000000000000000000, 0.000000000000000000, 0.000000000000000000 ) ;
#170 = DIRECTION ( 'NONE',  ( 0.000000000000000000, 0.000000000000000000, 1.000000000000000000 ) ) ;
#171 = ORIENTED_EDGE ( 'NONE', *, *, #331, .F. ) ;
#172 =( NAMED_UNIT ( * ) SI_UNIT ( $, .STERADIAN. ) SOLID_ANGLE_UNIT ( ) );
#173 = ORIENTED_EDGE ( 'NONE', *, *, #329, .F. ) ;
#174 = EDGE_LOOP ( 'NONE', ( #171, #111, #92, #57 ) ) ;
#175 = CIRCLE ( 'NONE', #274, 0.2500000000000000000 ) ;
#176 = SURFACE_STYLE_FILL_AREA ( #235 ) ;
#177 = DIRECTION ( 'NONE',  ( -0.000000000000000000, -1.000000000000000000, -0.000000000000000000 ) ) ;
#178 = FACE_OUTER_BOUND ( 'NONE', #184, .T. ) ;
#179 = MECHANICAL_DESIGN_GEOMETRIC_PRESENTATION_REPRESENTATION (  '', ( #69 ), #369 ) ;
#180 = EDGE_CURVE ( 'NONE', #224, #244, #323, .T. ) ;
#181 = APPLICATION_PROTOCOL_DEFINITION ( 'draft international standard', 'automotive_design', 1998, #268 ) ;
#182 = DIRECTION ( 'NONE',  ( -0.000000000000000000, -1.000000000000000000, -0.000000000000000000 ) ) ;
#183 = FACE_OUTER_BOUND ( 'NONE', #292, .T. ) ;
#184 = EDGE_LOOP ( 'NONE', ( #320, #158 ) ) ;
#185 = AXIS2_PLACEMENT_3D ( 'NONE', #120, #7, #305 ) ;
#186 = MECHANICAL_DESIGN_GEOMETRIC_PRESENTATION_REPRESENTATION (  '', ( #137 ), #339 ) ;
#187 = ORIENTED_EDGE ( 'NONE', *, *, #105, .T. ) ;
#188 = EDGE_CURVE ( 'NONE', #362, #224, #27, .T. ) ;
#189 = LENGTH_MEASURE_WITH_UNIT ( LENGTH_MEASURE( 0.02539999999999999897 ), #18 );
#190 = CIRCLE ( 'NONE', #149, 0.2499999999999995837 ) ;
#191 = STYLED_ITEM ( 'NONE', ( #139 ), #371 ) ;
#192 = CARTESIAN_POINT ( 'NONE',  ( -3.061616997868383018E-17, 0.2500000000000000000, 0.000000000000000000 ) ) ;
#193 =( LENGTH_UNIT ( ) NAMED_UNIT ( * ) SI_UNIT ( $, .METRE. ) );
#194 = LENGTH_MEASURE_WITH_UNIT ( LENGTH_MEASURE( 0.02539999999999999897 ), #32 );
#195 = DIMENSIONAL_EXPONENTS ( 1.000000000000000000, 0.000000000000000000, 0.000000000000000000, 0.000000000000000000, 0.000000000000000000, 0.000000000000000000, 0.000000000000000000 ) ;
#196 = CLOSED_SHELL ( 'NONE', ( #343, #54, #281, #41 ) ) ;
#197 = AXIS2_PLACEMENT_3D ( 'NONE', #287, #165, #263 ) ;
#198 = DIRECTION ( 'NONE',  ( 1.000000000000000000, 0.000000000000000000, 0.000000000000000000 ) ) ;
#199 = SURFACE_SIDE_STYLE ('',( #265 ) ) ;
#200 =( NAMED_UNIT ( * ) SI_UNIT ( $, .STERADIAN. ) SOLID_ANGLE_UNIT ( ) );
#201 = VERTEX_POINT ( 'NONE', #153 ) ;
#202 = CARTESIAN_POINT ( 'NONE',  ( 0.000000000000000000, 0.000000000000000000, 0.000000000000000000 ) ) ;
#203 = STYLED_ITEM ( 'NONE', ( #11 ), #72 ) ;
#204 = CARTESIAN_POINT ( 'NONE',  ( -0.2499999999999998057, 4.000000000000000000, 0.000000000000000000 ) ) ;
#205 = PRESENTATION_LAYER_ASSIGNMENT (  '', '', ( #247 ) ) ;
#206 = PRESENTATION_LAYER_ASSIGNMENT (  '', '', ( #99 ) ) ;
#207 = DIRECTION ( 'NONE',  ( -1.225879640726712598E-16, 1.000000000000000000, -0.000000000000000000 ) ) ;
#208 = LENGTH_MEASURE_WITH_UNIT ( LENGTH_MEASURE( 0.02539999999999999897 ), #121 );
#209 = CARTESIAN_POINT ( 'NONE',  ( 3.061616997868381785E-17, 1.625000000000000000, 0.2499999999999998335 ) ) ;
#210 =( NAMED_UNIT ( * ) PLANE_ANGLE_UNIT ( ) SI_UNIT ( $, .RADIAN. ) );
#211 = CIRCLE ( 'NONE', #136, 0.2499999999999998890 ) ;
#212 = STYLED_ITEM ( 'NONE', ( #84 ), #240 ) ;
#213 = CARTESIAN_POINT ( 'NONE',  ( 2.299140747152265662E-16, 1.625000000000000000, 0.000000000000000000 ) ) ;
#214 = SURFACE_STYLE_USAGE ( .BOTH. , #159 ) ;
#215 = EDGE_CURVE ( 'NONE', #244, #314, #8, .T. ) ;
#216 = DIMENSIONAL_EXPONENTS ( 1.000000000000000000, 0.000000000000000000, 0.000000000000000000, 0.000000000000000000, 0.000000000000000000, 0.000000000000000000, 0.000000000000000000 ) ;
#217 = SURFACE_STYLE_FILL_AREA ( #365 ) ;
#218 = VERTEX_POINT ( 'NONE', #97 ) ;
#219 = DIMENSIONAL_EXPONENTS ( 1.000000000000000000, 0.000000000000000000, 0.000000000000000000, 0.000000000000000000, 0.000000000000000000, 0.000000000000000000, 0.000000000000000000 ) ;
#220 = EDGE_LOOP ( 'NONE', ( #308, #126 ) ) ;
#221 = APPLICATION_CONTEXT ( 'automotive_design' ) ;
#222 = UNCERTAINTY_MEASURE_WITH_UNIT (LENGTH_MEASURE( 1.000000000000000082E-05 ), #147, 'distance_accuracy_value', 'NONE');
#223 = FILL_AREA_STYLE ('',( #264 ) ) ;
#224 = VERTEX_POINT ( 'NONE', #209 ) ;
#225 = UNCERTAINTY_MEASURE_WITH_UNIT (LENGTH_MEASURE( 1.000000000000000082E-05 ), #146, 'distance_accuracy_value', 'NONE');
#226 =( CONVERSION_BASED_UNIT ( 'INCH', #194 ) LENGTH_UNIT ( ) NAMED_UNIT ( #345 ) );
#227 = DIMENSIONAL_EXPONENTS ( 1.000000000000000000, 0.000000000000000000, 0.000000000000000000, 0.000000000000000000, 0.000000000000000000, 0.000000000000000000, 0.000000000000000000 ) ;
#228 = AXIS2_PLACEMENT_3D ( 'NONE', #236, #356, #353 ) ;
#229 = ORIENTED_EDGE ( 'NONE', *, *, #188, .T. ) ;
#230 = PRESENTATION_STYLE_ASSIGNMENT (( #12 ) ) ;
#231 = LINE ( 'NONE', #204, #17 ) ;
#232 = DIRECTION ( 'NONE',  ( 0.000000000000000000, -0.000000000000000000, 1.000000000000000000 ) ) ;
#233 = AXIS2_PLACEMENT_3D ( 'NONE', #256, #110, #260 ) ;
#234 = DIRECTION ( 'NONE',  ( -0.000000000000000000, -1.000000000000000000, -0.000000000000000000 ) ) ;
#235 = FILL_AREA_STYLE ('',( #36 ) ) ;
#236 = CARTESIAN_POINT ( 'NONE',  ( 0.000000000000000000, 0.2500000000000000555, 0.000000000000000000 ) ) ;
#237 = EDGE_CURVE ( 'NONE', #262, #360, #248, .T. ) ;
#238 =( LENGTH_UNIT ( ) NAMED_UNIT ( * ) SI_UNIT ( $, .METRE. ) );
#239 = LENGTH_MEASURE_WITH_UNIT ( LENGTH_MEASURE( 0.02539999999999999897 ), #144 );
#240 = MANIFOLD_SOLID_BREP ( 'Revolve - Tool Body (Straight Shanked)', #196 ) ;
#241 = DIRECTION ( 'NONE',  ( -1.225879640726712598E-16, 1.000000000000000000, -0.000000000000000000 ) ) ;
#242 = PRESENTATION_LAYER_ASSIGNMENT (  '', '', ( #191 ) ) ;
#243 = FILL_AREA_STYLE ('',( #124 ) ) ;
#244 = VERTEX_POINT ( 'NONE', #285 ) ;
#245 = DIRECTION ( 'NONE',  ( -1.225879640726712598E-16, 1.000000000000000000, -0.000000000000000000 ) ) ;
#246 = EDGE_LOOP ( 'NONE', ( #321, #333, #187, #286, #370 ) ) ;
#247 = STYLED_ITEM ( 'NONE', ( #28 ), #21 ) ;
#248 = CIRCLE ( 'NONE', #162, 0.2499999999999998890 ) ;
#249 = CARTESIAN_POINT ( 'NONE',  ( 0.2499999999999996669, 4.000000000000000000, 3.061616997868379320E-17 ) ) ;
#250 = EDGE_CURVE ( 'NONE', #218, #244, #81, .T. ) ;
#251 = PRODUCT_DEFINITION_SHAPE ( 'NONE', 'NONE',  #358 ) ;
#252 = CARTESIAN_POINT ( 'NONE',  ( -6.123233995736766036E-17, 4.000000000000000000, 0.000000000000000000 ) ) ;
#253 = ORIENTED_EDGE ( 'NONE', *, *, #180, .T. ) ;
#254 = PRODUCT_RELATED_PRODUCT_CATEGORY ( 'part', '', ( #25 ) ) ;
#255 =( NAMED_UNIT ( * ) PLANE_ANGLE_UNIT ( ) SI_UNIT ( $, .RADIAN. ) );
#256 = CARTESIAN_POINT ( 'NONE',  ( 0.000000000000000000, 1.625000000000000000, 0.000000000000000000 ) ) ;
#257 = AXIS2_PLACEMENT_3D ( 'NONE', #167, #91, #198 ) ;
#258 = COLOUR_RGB ( '',1.000000000000000000, 0.000000000000000000, 0.000000000000000000 ) ;
#259 = PLANE ( 'NONE',  #50 ) ;
#260 = DIRECTION ( 'NONE',  ( 0.000000000000000000, 0.000000000000000000, -1.000000000000000000 ) ) ;
#261 =( CONVERSION_BASED_UNIT ( 'INCH', #291 ) LENGTH_UNIT ( ) NAMED_UNIT ( #195 ) );
#262 = VERTEX_POINT ( 'NONE', #125 ) ;
#263 = DIRECTION ( 'NONE',  ( -1.000000000000000000, 0.000000000000000000, 0.000000000000000000 ) ) ;
#264 = FILL_AREA_STYLE_COLOUR ( '', #40 ) ;
#265 = SURFACE_STYLE_FILL_AREA ( #340 ) ;
#266 = COLOUR_RGB ( '',0.7921568627450980005, 0.8196078431372548767, 0.9333333333333333481 ) ;
#267 = PLANE ( 'NONE',  #302 ) ;
#268 = APPLICATION_CONTEXT ( 'automotive_design' ) ;
#269 =( NAMED_UNIT ( * ) PLANE_ANGLE_UNIT ( ) SI_UNIT ( $, .RADIAN. ) );
#270 = DIRECTION ( 'NONE',  ( -0.000000000000000000, -1.000000000000000000, -0.000000000000000000 ) ) ;
#271 = LENGTH_MEASURE_WITH_UNIT ( LENGTH_MEASURE( 0.02539999999999999897 ), #238 );
#272 = UNCERTAINTY_MEASURE_WITH_UNIT (LENGTH_MEASURE( 1.000000000000000082E-05 ), #88, 'distance_accuracy_value', 'NONE');
#273 = DIRECTION ( 'NONE',  ( 0.000000000000000000, 0.000000000000000000, -1.000000000000000000 ) ) ;
#274 = AXIS2_PLACEMENT_3D ( 'NONE', #132, #15, #47 ) ;
#275 = DIRECTION ( 'NONE',  ( 0.000000000000000000, 0.000000000000000000, 1.000000000000000000 ) ) ;
#276 = DIRECTION ( 'NONE',  ( 0.000000000000000000, 0.000000000000000000, -1.000000000000000000 ) ) ;
#277 = CARTESIAN_POINT ( 'NONE',  ( -0.2499999999999993616, 1.625000000000000000, 0.000000000000000000 ) ) ;
#278 =( GEOMETRIC_REPRESENTATION_CONTEXT ( 3 ) GLOBAL_UNCERTAINTY_ASSIGNED_CONTEXT ( ( #341 ) ) GLOBAL_UNIT_ASSIGNED_CONTEXT ( ( #261, #294, #317 ) ) REPRESENTATION_CONTEXT ( 'NONE', 'WORKASPACE' ) );
#279 =( CONVERSION_BASED_UNIT ( 'INCH', #189 ) LENGTH_UNIT ( ) NAMED_UNIT ( #227 ) );
#280 = DIRECTION ( 'NONE',  ( 0.000000000000000000, 0.000000000000000000, -1.000000000000000000 ) ) ;
#281 = ADVANCED_FACE ( 'NONE', ( #100 ), #49, .T. ) ;
#282 = CARTESIAN_POINT ( 'NONE',  ( 0.000000000000000000, 0.2500000000000000555, 0.000000000000000000 ) ) ;
#283 = MECHANICAL_DESIGN_GEOMETRIC_PRESENTATION_REPRESENTATION (  '', ( #247 ), #16 ) ;
#284 =( GEOMETRIC_REPRESENTATION_CONTEXT ( 3 ) GLOBAL_UNCERTAINTY_ASSIGNED_CONTEXT ( ( #295 ) ) GLOBAL_UNIT_ASSIGNED_CONTEXT ( ( #279, #363, #53 ) ) REPRESENTATION_CONTEXT ( 'NONE', 'WORKASPACE' ) );
#285 = CARTESIAN_POINT ( 'NONE',  ( 3.061616997868382402E-17, 0.2500000000000000555, 0.2499999999999999722 ) ) ;
#286 = ORIENTED_EDGE ( 'NONE', *, *, #293, .F. ) ;
#287 = CARTESIAN_POINT ( 'NONE',  ( -6.123233995736766036E-17, 4.000000000000000000, 0.000000000000000000 ) ) ;
#288 = VECTOR ( 'NONE', #234, 39.37007874015748143 ) ;
#289 = CYLINDRICAL_SURFACE ( 'NONE', #197, 0.2499999999999997224 ) ;
#290 = ORIENTED_EDGE ( 'NONE', *, *, #168, .F. ) ;
#291 = LENGTH_MEASURE_WITH_UNIT ( LENGTH_MEASURE( 0.02539999999999999897 ), #193 );
#292 = EDGE_LOOP ( 'NONE', ( #229, #253, #83, #20, #106 ) ) ;
#293 = EDGE_CURVE ( 'NONE', #314, #116, #156, .T. ) ;
#294 =( NAMED_UNIT ( * ) PLANE_ANGLE_UNIT ( ) SI_UNIT ( $, .RADIAN. ) );
#295 = UNCERTAINTY_MEASURE_WITH_UNIT (LENGTH_MEASURE( 1.000000000000000082E-05 ), #279, 'distance_accuracy_value', 'NONE');
#296 = FACE_OUTER_BOUND ( 'NONE', #220, .T. ) ;
#297 = VERTEX_POINT ( 'NONE', #161 ) ;
#298 =( CONVERSION_BASED_UNIT ( 'INCH', #271 ) LENGTH_UNIT ( ) NAMED_UNIT ( #219 ) );
#299 = FILL_AREA_STYLE ('',( #44 ) ) ;
#300 = SURFACE_STYLE_FILL_AREA ( #299 ) ;
#301 = FACE_OUTER_BOUND ( 'NONE', #246, .T. ) ;
#302 = AXIS2_PLACEMENT_3D ( 'NONE', #138, #63, #4 ) ;
#303 = VECTOR ( 'NONE', #245, 39.37007874015748143 ) ;
#304 = SHAPE_DEFINITION_REPRESENTATION ( #251, #61 ) ;
#305 = DIRECTION ( 'NONE',  ( -1.000000000000000000, -1.225879640726712598E-16, 0.000000000000000000 ) ) ;
#306 = DIRECTION ( 'NONE',  ( 0.000000000000000000, 0.000000000000000000, -1.000000000000000000 ) ) ;
#307 = LENGTH_MEASURE_WITH_UNIT ( LENGTH_MEASURE( 0.02539999999999999897 ), #128 );
#308 = ORIENTED_EDGE ( 'NONE', *, *, #237, .T. ) ;
#309 = DIRECTION ( 'NONE',  ( -0.000000000000000000, -1.000000000000000000, -0.000000000000000000 ) ) ;
#310 = CARTESIAN_POINT ( 'NONE',  ( 0.000000000000000000, 0.2500000000000000555, 0.000000000000000000 ) ) ;
#311 = EDGE_LOOP ( 'NONE', ( #164, #60 ) ) ;
#312 = PRODUCT_DEFINITION_FORMATION_WITH_SPECIFIED_SOURCE ( 'ANY', '', #25, .NOT_KNOWN. ) ;
#313 = FACE_OUTER_BOUND ( 'NONE', #108, .T. ) ;
#314 = VERTEX_POINT ( 'NONE', #361 ) ;
#315 = UNCERTAINTY_MEASURE_WITH_UNIT (LENGTH_MEASURE( 1.000000000000000082E-05 ), #226, 'distance_accuracy_value', 'NONE');
#316 =( NAMED_UNIT ( * ) PLANE_ANGLE_UNIT ( ) SI_UNIT ( $, .RADIAN. ) );
#317 =( NAMED_UNIT ( * ) SI_UNIT ( $, .STERADIAN. ) SOLID_ANGLE_UNIT ( ) );
#318 = MECHANICAL_DESIGN_GEOMETRIC_PRESENTATION_REPRESENTATION (  '', ( #99 ), #143 ) ;
#319 = DIRECTION ( 'NONE',  ( -1.225879640726712598E-16, 1.000000000000000000, -0.000000000000000000 ) ) ;
#320 = ORIENTED_EDGE ( 'NONE', *, *, #39, .F. ) ;
#321 = ORIENTED_EDGE ( 'NONE', *, *, #180, .F. ) ;
#322 = MECHANICAL_DESIGN_GEOMETRIC_PRESENTATION_REPRESENTATION (  '', ( #212 ), #284 ) ;
#323 = LINE ( 'NONE', #70, #288 ) ;
#324 = DIRECTION ( 'NONE',  ( -0.000000000000000000, -1.000000000000000000, -0.000000000000000000 ) ) ;
#325 = CARTESIAN_POINT ( 'NONE',  ( 0.000000000000000000, 1.625000000000000000, 0.000000000000000000 ) ) ;
#326 = CYLINDRICAL_SURFACE ( 'NONE', #163, 0.2499999999999998890 ) ;
#327 = DIRECTION ( 'NONE',  ( -0.000000000000000000, -1.000000000000000000, -0.000000000000000000 ) ) ;
#328 = CIRCLE ( 'NONE', #338, 0.2499999999999999722 ) ;
#329 = EDGE_CURVE ( 'NONE', #201, #360, #55, .T. ) ;
#330 = LINE ( 'NONE', #98, #130 ) ;
#331 = EDGE_CURVE ( 'NONE', #314, #297, #175, .T. ) ;
#332 = DIRECTION ( 'NONE',  ( -1.000000000000000000, 0.000000000000000000, 0.000000000000000000 ) ) ;
#333 = ORIENTED_EDGE ( 'NONE', *, *, #19, .T. ) ;
#334 = ADVANCED_FACE ( 'NONE', ( #154 ), #66, .T. ) ;
#335 = SURFACE_SIDE_STYLE ('',( #217 ) ) ;
#336 = DIRECTION ( 'NONE',  ( -0.000000000000000000, -1.000000000000000000, -0.000000000000000000 ) ) ;
#337 = COLOUR_RGB ( '',1.000000000000000000, 0.000000000000000000, 0.000000000000000000 ) ;
#338 = AXIS2_PLACEMENT_3D ( 'NONE', #37, #270, #118 ) ;
#339 =( GEOMETRIC_REPRESENTATION_CONTEXT ( 3 ) GLOBAL_UNCERTAINTY_ASSIGNED_CONTEXT ( ( #34 ) ) GLOBAL_UNIT_ASSIGNED_CONTEXT ( ( #298, #45, #42 ) ) REPRESENTATION_CONTEXT ( 'NONE', 'WORKASPACE' ) );
#340 = FILL_AREA_STYLE ('',( #109 ) ) ;
#341 = UNCERTAINTY_MEASURE_WITH_UNIT (LENGTH_MEASURE( 1.000000000000000082E-05 ), #261, 'distance_accuracy_value', 'NONE');
#342 = VERTEX_POINT ( 'NONE', #277 ) ;
#343 = ADVANCED_FACE ( 'NONE', ( #313 ), #289, .T. ) ;
#344 = COLOUR_RGB ( '',0.7921568627450980005, 0.8196078431372548767, 0.9333333333333333481 ) ;
#345 = DIMENSIONAL_EXPONENTS ( 1.000000000000000000, 0.000000000000000000, 0.000000000000000000, 0.000000000000000000, 0.000000000000000000, 0.000000000000000000, 0.000000000000000000 ) ;
#346 = CARTESIAN_POINT ( 'NONE',  ( 0.2499999999999998335, 4.000000000000000000, 3.061616997868381169E-17 ) ) ;
#347 = DIRECTION ( 'NONE',  ( -1.000000000000000000, 0.000000000000000000, 0.000000000000000000 ) ) ;
#348 = SURFACE_STYLE_USAGE ( .BOTH. , #141 ) ;
#349 = DIRECTION ( 'NONE',  ( -1.000000000000000000, 0.000000000000000000, 0.000000000000000000 ) ) ;
#350 = CIRCLE ( 'NONE', #26, 0.2499999999999995837 ) ;
#351 = PRESENTATION_LAYER_ASSIGNMENT (  '', '', ( #137 ) ) ;
#352 = DIRECTION ( 'NONE',  ( 0.000000000000000000, 1.000000000000000000, 0.000000000000000000 ) ) ;
#353 = DIRECTION ( 'NONE',  ( 0.000000000000000000, 0.000000000000000000, -1.000000000000000000 ) ) ;
#354 = SURFACE_SIDE_STYLE ('',( #176 ) ) ;
#355 = CYLINDRICAL_SURFACE ( 'NONE', #56, 0.2499999999999998890 ) ;
#356 = DIRECTION ( 'NONE',  ( -0.000000000000000000, -1.000000000000000000, -0.000000000000000000 ) ) ;
#357 = COLOUR_RGB ( '',1.000000000000000000, 0.000000000000000000, 0.000000000000000000 ) ;
#358 = PRODUCT_DEFINITION ( 'UNKNOWN', '', #312, #90 ) ;
#359 = SURFACE_STYLE_FILL_AREA ( #243 ) ;
#360 = VERTEX_POINT ( 'NONE', #346 ) ;
#361 = CARTESIAN_POINT ( 'NONE',  ( -0.2500000000000000000, 0.2500000000000000555, 3.061616997868382402E-17 ) ) ;
#362 = VERTEX_POINT ( 'NONE', #166 ) ;
#363 =( NAMED_UNIT ( * ) PLANE_ANGLE_UNIT ( ) SI_UNIT ( $, .RADIAN. ) );
#364 = MANIFOLD_SOLID_BREP ( 'Revolve - Cutting Edge', #123 ) ;
#365 = FILL_AREA_STYLE ('',( #107 ) ) ;
#366 = ORIENTED_EDGE ( 'NONE', *, *, #237, .F. ) ;
#367 = FACE_OUTER_BOUND ( 'NONE', #311, .T. ) ;
#368 = EDGE_LOOP ( 'NONE', ( #89, #133, #290, #87 ) ) ;
#369 =( GEOMETRIC_REPRESENTATION_CONTEXT ( 3 ) GLOBAL_UNCERTAINTY_ASSIGNED_CONTEXT ( ( #86 ) ) GLOBAL_UNIT_ASSIGNED_CONTEXT ( ( #101, #104, #3 ) ) REPRESENTATION_CONTEXT ( 'NONE', 'WORKASPACE' ) );
#370 = ORIENTED_EDGE ( 'NONE', *, *, #215, .F. ) ;
#371 = ADVANCED_FACE ( 'NONE', ( #367 ), #259, .T. ) ;
#372 = ADVANCED_FACE ( 'NONE', ( #301 ), #326, .T. ) ;
#373 = ORIENTED_EDGE ( 'NONE', *, *, #39, .T. ) ;
ENDSEC;
END-ISO-10303-21;
