ISO-10303-21;
HEADER;
FILE_DESCRIPTION (( 'STEP AP214' ),
    '1' );
FILE_NAME ('17152.STEP',
    '2023-06-30T21:52:35',
    ( '' ),
    ( '' ),
    'SwSTEP 2.0',
    'SolidWorks 2023',
    '' );
FILE_SCHEMA (( 'AUTOMOTIVE_DESIGN' ));
ENDSEC;

DATA;
#1 = CARTESIAN_POINT ( 'NONE',  ( -1.530808498934191509E-17, 0.1250000000000000000, 0.000000000000000000 ) ) ;
#2 =( NAMED_UNIT ( * ) PLANE_ANGLE_UNIT ( ) SI_UNIT ( $, .RADIAN. ) );
#3 = PRESENTATION_LAYER_ASSIGNMENT (  '', '', ( #254 ) ) ;
#4 = DIRECTION ( 'NONE',  ( 0.000000000000000000, 0.000000000000000000, -1.000000000000000000 ) ) ;
#5 = ADVANCED_FACE ( 'NONE', ( #275 ), #213, .F. ) ;
#6 = FILL_AREA_STYLE_COLOUR ( '', #43 ) ;
#7 = SURFACE_STYLE_FILL_AREA ( #291 ) ;
#8 =( NAMED_UNIT ( * ) SI_UNIT ( $, .STERADIAN. ) SOLID_ANGLE_UNIT ( ) );
#9 =( NAMED_UNIT ( * ) PLANE_ANGLE_UNIT ( ) SI_UNIT ( $, .RADIAN. ) );
#10 = LENGTH_MEASURE_WITH_UNIT ( LENGTH_MEASURE( 0.02539999999999999897 ), #38 );
#11 =( LENGTH_UNIT ( ) NAMED_UNIT ( * ) SI_UNIT ( $, .METRE. ) );
#12 =( NAMED_UNIT ( * ) PLANE_ANGLE_UNIT ( ) SI_UNIT ( $, .RADIAN. ) );
#13 = DIRECTION ( 'NONE',  ( -1.231882382905062056E-16, 1.000000000000000000, -0.000000000000000000 ) ) ;
#14 = VERTEX_POINT ( 'NONE', #354 ) ;
#15 = AXIS2_PLACEMENT_3D ( 'NONE', #100, #296, #21 ) ;
#16 = AXIS2_PLACEMENT_3D ( 'NONE', #236, #348, #119 ) ;
#17 = VECTOR ( 'NONE', #112, 39.37007874015748143 ) ;
#18 = CARTESIAN_POINT ( 'NONE',  ( -0.1249999999999998057, 2.000000000000000000, 0.000000000000000000 ) ) ;
#19 = CARTESIAN_POINT ( 'NONE',  ( 1.530808498934191509E-17, 0.1250000000000000278, 0.1250000000000000000 ) ) ;
#20 = VERTEX_POINT ( 'NONE', #132 ) ;
#21 = DIRECTION ( 'NONE',  ( -1.000000000000000000, 0.000000000000000000, 0.000000000000000000 ) ) ;
#22 = ORIENTED_EDGE ( 'NONE', *, *, #149, .F. ) ;
#23 = CARTESIAN_POINT ( 'NONE',  ( 0.000000000000000000, 0.3750000000000000555, 0.000000000000000000 ) ) ;
#24 = DIRECTION ( 'NONE',  ( 0.000000000000000000, 0.000000000000000000, 1.000000000000000000 ) ) ;
#25 = ORIENTED_EDGE ( 'NONE', *, *, #158, .T. ) ;
#26 =( NAMED_UNIT ( * ) SI_UNIT ( $, .STERADIAN. ) SOLID_ANGLE_UNIT ( ) );
#27 = EDGE_CURVE ( 'NONE', #373, #47, #66, .T. ) ;
#28 =( GEOMETRIC_REPRESENTATION_CONTEXT ( 3 ) GLOBAL_UNCERTAINTY_ASSIGNED_CONTEXT ( ( #36 ) ) GLOBAL_UNIT_ASSIGNED_CONTEXT ( ( #183, #9, #209 ) ) REPRESENTATION_CONTEXT ( 'NONE', 'WORKASPACE' ) );
#29 = SURFACE_SIDE_STYLE ('',( #345 ) ) ;
#30 = DIMENSIONAL_EXPONENTS ( 1.000000000000000000, 0.000000000000000000, 0.000000000000000000, 0.000000000000000000, 0.000000000000000000, 0.000000000000000000, 0.000000000000000000 ) ;
#31 = SURFACE_STYLE_USAGE ( .BOTH. , #29 ) ;
#32 = EDGE_CURVE ( 'NONE', #373, #218, #82, .T. ) ;
#33 =( GEOMETRIC_REPRESENTATION_CONTEXT ( 3 ) GLOBAL_UNCERTAINTY_ASSIGNED_CONTEXT ( ( #140 ) ) GLOBAL_UNIT_ASSIGNED_CONTEXT ( ( #226, #341, #85 ) ) REPRESENTATION_CONTEXT ( 'NONE', 'WORKASPACE' ) );
#34 = DIRECTION ( 'NONE',  ( -0.000000000000000000, -1.000000000000000000, -0.000000000000000000 ) ) ;
#35 = DIRECTION ( 'NONE',  ( 1.231882382905062056E-16, -1.000000000000000000, 0.000000000000000000 ) ) ;
#36 = UNCERTAINTY_MEASURE_WITH_UNIT (LENGTH_MEASURE( 1.000000000000000082E-05 ), #183, 'distance_accuracy_value', 'NONE');
#37 = CARTESIAN_POINT ( 'NONE',  ( -0.1249999999999994171, 0.3749999999999999445, 0.000000000000000000 ) ) ;
#38 =( LENGTH_UNIT ( ) NAMED_UNIT ( * ) SI_UNIT ( $, .METRE. ) );
#39 =( GEOMETRIC_REPRESENTATION_CONTEXT ( 3 ) GLOBAL_UNCERTAINTY_ASSIGNED_CONTEXT ( ( #162 ) ) GLOBAL_UNIT_ASSIGNED_CONTEXT ( ( #64, #270, #280 ) ) REPRESENTATION_CONTEXT ( 'NONE', 'WORKASPACE' ) );
#40 = MANIFOLD_SOLID_BREP ( 'Revolve - Tool Body (Straight Shanked)', #234 ) ;
#41 = SURFACE_STYLE_USAGE ( .BOTH. , #179 ) ;
#42 =( LENGTH_UNIT ( ) NAMED_UNIT ( * ) SI_UNIT ( $, .METRE. ) );
#43 = COLOUR_RGB ( '',1.000000000000000000, 0.000000000000000000, 0.000000000000000000 ) ;
#44 =( NAMED_UNIT ( * ) SI_UNIT ( $, .STERADIAN. ) SOLID_ANGLE_UNIT ( ) );
#45 = VERTEX_POINT ( 'NONE', #19 ) ;
#46 = DIRECTION ( 'NONE',  ( 0.000000000000000000, 1.000000000000000000, 0.000000000000000000 ) ) ;
#47 = VERTEX_POINT ( 'NONE', #18 ) ;
#48 = MECHANICAL_DESIGN_GEOMETRIC_PRESENTATION_REPRESENTATION (  '', ( #228 ), #352 ) ;
#49 = SURFACE_STYLE_FILL_AREA ( #81 ) ;
#50 = ORIENTED_EDGE ( 'NONE', *, *, #118, .T. ) ;
#51 = EDGE_CURVE ( 'NONE', #331, #45, #127, .T. ) ;
#52 = EDGE_CURVE ( 'NONE', #363, #45, #314, .T. ) ;
#53 = LENGTH_MEASURE_WITH_UNIT ( LENGTH_MEASURE( 0.02539999999999999897 ), #167 );
#54 = EDGE_LOOP ( 'NONE', ( #105, #208, #224, #22 ) ) ;
#55 = MECHANICAL_DESIGN_GEOMETRIC_PRESENTATION_REPRESENTATION (  '', ( #359 ), #39 ) ;
#56 =( NAMED_UNIT ( * ) PLANE_ANGLE_UNIT ( ) SI_UNIT ( $, .RADIAN. ) );
#57 = ADVANCED_BREP_SHAPE_REPRESENTATION ( '17152', ( #164, #40, #353 ), #301 ) ;
#58 = CARTESIAN_POINT ( 'NONE',  ( 0.000000000000000000, 0.000000000000000000, -0.1249999999999999584 ) ) ;
#59 = AXIS2_PLACEMENT_3D ( 'NONE', #1, #170, #197 ) ;
#60 =( CONVERSION_BASED_UNIT ( 'INCH', #315 ) LENGTH_UNIT ( ) NAMED_UNIT ( #30 ) );
#61 =( CONVERSION_BASED_UNIT ( 'INCH', #125 ) LENGTH_UNIT ( ) NAMED_UNIT ( #249 ) );
#62 = AXIS2_PLACEMENT_3D ( 'NONE', #134, #358, #96 ) ;
#63 = PRESENTATION_LAYER_ASSIGNMENT (  '', '', ( #228 ) ) ;
#64 =( CONVERSION_BASED_UNIT ( 'INCH', #10 ) LENGTH_UNIT ( ) NAMED_UNIT ( #80 ) );
#65 = ORIENTED_EDGE ( 'NONE', *, *, #347, .F. ) ;
#66 = LINE ( 'NONE', #99, #265 ) ;
#67 = ORIENTED_EDGE ( 'NONE', *, *, #51, .F. ) ;
#68 = FILL_AREA_STYLE ('',( #324 ) ) ;
#69 = AXIS2_PLACEMENT_3D ( 'NONE', #244, #323, #237 ) ;
#70 =( NAMED_UNIT ( * ) SI_UNIT ( $, .STERADIAN. ) SOLID_ANGLE_UNIT ( ) );
#71 = ORIENTED_EDGE ( 'NONE', *, *, #51, .T. ) ;
#72 = ORIENTED_EDGE ( 'NONE', *, *, #317, .F. ) ;
#73 = PRESENTATION_STYLE_ASSIGNMENT (( #246 ) ) ;
#74 = CARTESIAN_POINT ( 'NONE',  ( 6.123233995736766036E-17, 2.000000000000000000, 0.000000000000000000 ) ) ;
#75 = CARTESIAN_POINT ( 'NONE',  ( 6.123233995736766036E-17, 2.000000000000000000, 0.000000000000000000 ) ) ;
#76 = EDGE_LOOP ( 'NONE', ( #67, #157, #282, #253, #72 ) ) ;
#77 = COLOUR_RGB ( '',1.000000000000000000, 0.000000000000000000, 0.000000000000000000 ) ;
#78 = VERTEX_POINT ( 'NONE', #205 ) ;
#79 = EDGE_LOOP ( 'NONE', ( #50, #214 ) ) ;
#80 = DIMENSIONAL_EXPONENTS ( 1.000000000000000000, 0.000000000000000000, 0.000000000000000000, 0.000000000000000000, 0.000000000000000000, 0.000000000000000000, 0.000000000000000000 ) ;
#81 = FILL_AREA_STYLE ('',( #191 ) ) ;
#82 = CIRCLE ( 'NONE', #15, 0.1249999999999996808 ) ;
#83 = DIRECTION ( 'NONE',  ( 0.000000000000000000, 0.000000000000000000, -1.000000000000000000 ) ) ;
#84 = CIRCLE ( 'NONE', #260, 0.1249999999999999445 ) ;
#85 =( NAMED_UNIT ( * ) SI_UNIT ( $, .STERADIAN. ) SOLID_ANGLE_UNIT ( ) );
#86 = SURFACE_STYLE_USAGE ( .BOTH. , #364 ) ;
#87 = DIRECTION ( 'NONE',  ( 0.000000000000000000, 0.000000000000000000, -1.000000000000000000 ) ) ;
#88 = CARTESIAN_POINT ( 'NONE',  ( -1.530808498934191509E-17, 0.1250000000000000000, 0.000000000000000000 ) ) ;
#89 = UNCERTAINTY_MEASURE_WITH_UNIT (LENGTH_MEASURE( 1.000000000000000082E-05 ), #302, 'distance_accuracy_value', 'NONE');
#90 = PRESENTATION_STYLE_ASSIGNMENT (( #31 ) ) ;
#91 = AXIS2_PLACEMENT_3D ( 'NONE', #74, #230, #110 ) ;
#92 = AXIS2_PLACEMENT_3D ( 'NONE', #247, #360, #103 ) ;
#93 = PRESENTATION_LAYER_ASSIGNMENT (  '', '', ( #266 ) ) ;
#94 = PRODUCT_DEFINITION ( 'UNKNOWN', '', #332, #189 ) ;
#95 = FACE_OUTER_BOUND ( 'NONE', #159, .T. ) ;
#96 = DIRECTION ( 'NONE',  ( 0.000000000000000000, 0.000000000000000000, -1.000000000000000000 ) ) ;
#97 = AXIS2_PLACEMENT_3D ( 'NONE', #362, #286, #83 ) ;
#98 = ORIENTED_EDGE ( 'NONE', *, *, #123, .F. ) ;
#99 = CARTESIAN_POINT ( 'NONE',  ( -0.1249999999999997224, 2.000000000000000000, 0.000000000000000000 ) ) ;
#100 = CARTESIAN_POINT ( 'NONE',  ( 2.614132271794402599E-16, 0.3749999999999999445, 0.000000000000000000 ) ) ;
#101 = AXIS2_PLACEMENT_3D ( 'NONE', #111, #146, #305 ) ;
#102 = EDGE_LOOP ( 'NONE', ( #25, #71, #195, #98, #196 ) ) ;
#103 = DIRECTION ( 'NONE',  ( 0.000000000000000000, 0.000000000000000000, -1.000000000000000000 ) ) ;
#104 = EDGE_CURVE ( 'NONE', #218, #373, #193, .T. ) ;
#105 = ORIENTED_EDGE ( 'NONE', *, *, #328, .F. ) ;
#106 = VECTOR ( 'NONE', #350, 39.37007874015748143 ) ;
#107 =( GEOMETRIC_REPRESENTATION_CONTEXT ( 3 ) GLOBAL_UNCERTAINTY_ASSIGNED_CONTEXT ( ( #343 ) ) GLOBAL_UNIT_ASSIGNED_CONTEXT ( ( #60, #56, #169 ) ) REPRESENTATION_CONTEXT ( 'NONE', 'WORKASPACE' ) );
#108 = ORIENTED_EDGE ( 'NONE', *, *, #158, .F. ) ;
#109 = DIRECTION ( 'NONE',  ( -0.000000000000000000, -1.000000000000000000, -0.000000000000000000 ) ) ;
#110 = DIRECTION ( 'NONE',  ( -1.000000000000000000, 0.000000000000000000, 0.000000000000000000 ) ) ;
#111 = CARTESIAN_POINT ( 'NONE',  ( 6.123233995736766036E-17, 2.000000000000000000, 0.000000000000000000 ) ) ;
#112 = DIRECTION ( 'NONE',  ( -1.231882382905062056E-16, 1.000000000000000000, -0.000000000000000000 ) ) ;
#113 = PRESENTATION_LAYER_ASSIGNMENT (  '', '', ( #337 ) ) ;
#114 = FACE_OUTER_BOUND ( 'NONE', #269, .T. ) ;
#115 = FILL_AREA_STYLE_COLOUR ( '', #284 ) ;
#116 = DIRECTION ( 'NONE',  ( 1.000000000000000000, 0.000000000000000000, -1.224646799147353207E-16 ) ) ;
#117 = FILL_AREA_STYLE ('',( #6 ) ) ;
#118 = EDGE_CURVE ( 'NONE', #47, #184, #153, .T. ) ;
#119 = DIRECTION ( 'NONE',  ( 0.000000000000000000, 0.000000000000000000, -1.000000000000000000 ) ) ;
#120 = ADVANCED_FACE ( 'NONE', ( #288 ), #225, .T. ) ;
#121 = MECHANICAL_DESIGN_GEOMETRIC_PRESENTATION_REPRESENTATION (  '', ( #338 ), #28 ) ;
#122 = DIRECTION ( 'NONE',  ( -0.000000000000000000, -1.000000000000000000, -0.000000000000000000 ) ) ;
#123 = EDGE_CURVE ( 'NONE', #355, #363, #309, .T. ) ;
#124 =( LENGTH_UNIT ( ) NAMED_UNIT ( * ) SI_UNIT ( $, .METRE. ) );
#125 = LENGTH_MEASURE_WITH_UNIT ( LENGTH_MEASURE( 0.02539999999999999897 ), #11 );
#126 = ORIENTED_EDGE ( 'NONE', *, *, #118, .F. ) ;
#127 = LINE ( 'NONE', #210, #106 ) ;
#128 = MECHANICAL_DESIGN_GEOMETRIC_PRESENTATION_REPRESENTATION (  '', ( #254 ), #175 ) ;
#129 = CARTESIAN_POINT ( 'NONE',  ( 0.000000000000000000, 0.000000000000000000, 0.000000000000000000 ) ) ;
#130 = EDGE_CURVE ( 'NONE', #20, #355, #277, .T. ) ;
#131 = FILL_AREA_STYLE ('',( #188 ) ) ;
#132 = CARTESIAN_POINT ( 'NONE',  ( 0.000000000000000000, 0.3750000000000000555, -0.1249999999999999445 ) ) ;
#133 = SURFACE_SIDE_STYLE ('',( #138 ) ) ;
#134 = CARTESIAN_POINT ( 'NONE',  ( 0.000000000000000000, 0.1250000000000000278, 0.000000000000000000 ) ) ;
#135 = AXIS2_PLACEMENT_3D ( 'NONE', #311, #259, #336 ) ;
#136 = VECTOR ( 'NONE', #231, 39.37007874015748143 ) ;
#137 = ORIENTED_EDGE ( 'NONE', *, *, #27, .F. ) ;
#138 = SURFACE_STYLE_FILL_AREA ( #68 ) ;
#139 = SURFACE_SIDE_STYLE ('',( #49 ) ) ;
#140 = UNCERTAINTY_MEASURE_WITH_UNIT (LENGTH_MEASURE( 1.000000000000000082E-05 ), #226, 'distance_accuracy_value', 'NONE');
#141 = DIRECTION ( 'NONE',  ( 1.000000000000000000, 1.231882382905062056E-16, 0.000000000000000000 ) ) ;
#142 = SURFACE_STYLE_FILL_AREA ( #199 ) ;
#143 = CARTESIAN_POINT ( 'NONE',  ( 0.000000000000000000, 0.1250000000000000278, 0.000000000000000000 ) ) ;
#144 = CYLINDRICAL_SURFACE ( 'NONE', #176, 0.1249999999999999584 ) ;
#145 = COLOUR_RGB ( '',0.7921568627450980005, 0.8196078431372548767, 0.9333333333333333481 ) ;
#146 = DIRECTION ( 'NONE',  ( -1.231882382905062056E-16, 1.000000000000000000, -0.000000000000000000 ) ) ;
#147 = DIRECTION ( 'NONE',  ( 1.224646799147353207E-16, -0.000000000000000000, 1.000000000000000000 ) ) ;
#148 = DIRECTION ( 'NONE',  ( 0.000000000000000000, 0.000000000000000000, -1.000000000000000000 ) ) ;
#149 = EDGE_CURVE ( 'NONE', #184, #47, #221, .T. ) ;
#150 = AXIS2_PLACEMENT_3D ( 'NONE', #88, #147, #116 ) ;
#151 = ORIENTED_EDGE ( 'NONE', *, *, #52, .T. ) ;
#152 = SHAPE_DEFINITION_REPRESENTATION ( #367, #57 ) ;
#153 = CIRCLE ( 'NONE', #91, 0.1249999999999998751 ) ;
#154 = COLOUR_RGB ( '',1.000000000000000000, 0.000000000000000000, 0.000000000000000000 ) ;
#155 = PRESENTATION_STYLE_ASSIGNMENT (( #206 ) ) ;
#156 = APPLICATION_CONTEXT ( 'automotive_design' ) ;
#157 = ORIENTED_EDGE ( 'NONE', *, *, #251, .T. ) ;
#158 = EDGE_CURVE ( 'NONE', #20, #331, #84, .T. ) ;
#159 = EDGE_LOOP ( 'NONE', ( #65, #366, #250, #333 ) ) ;
#160 = ORIENTED_EDGE ( 'NONE', *, *, #32, .F. ) ;
#161 = CIRCLE ( 'NONE', #97, 0.1249999999999999445 ) ;
#162 = UNCERTAINTY_MEASURE_WITH_UNIT (LENGTH_MEASURE( 1.000000000000000082E-05 ), #64, 'distance_accuracy_value', 'NONE');
#163 = EDGE_LOOP ( 'NONE', ( #160, #192 ) ) ;
#164 = MANIFOLD_SOLID_BREP ( 'Revolve - Cutting Edge', #185 ) ;
#165 =( NAMED_UNIT ( * ) PLANE_ANGLE_UNIT ( ) SI_UNIT ( $, .RADIAN. ) );
#166 = UNCERTAINTY_MEASURE_WITH_UNIT (LENGTH_MEASURE( 1.000000000000000082E-05 ), #369, 'distance_accuracy_value', 'NONE');
#167 =( LENGTH_UNIT ( ) NAMED_UNIT ( * ) SI_UNIT ( $, .METRE. ) );
#168 = PRESENTATION_LAYER_ASSIGNMENT (  '', '', ( #359 ) ) ;
#169 =( NAMED_UNIT ( * ) SI_UNIT ( $, .STERADIAN. ) SOLID_ANGLE_UNIT ( ) );
#170 = DIRECTION ( 'NONE',  ( 0.000000000000000000, 0.000000000000000000, 1.000000000000000000 ) ) ;
#171 = CARTESIAN_POINT ( 'NONE',  ( 0.000000000000000000, 0.3750000000000000555, 0.000000000000000000 ) ) ;
#172 = LINE ( 'NONE', #285, #17 ) ;
#173 = DIRECTION ( 'NONE',  ( -1.231882382905062056E-16, 1.000000000000000000, -0.000000000000000000 ) ) ;
#174 = CARTESIAN_POINT ( 'NONE',  ( 1.530808498934190893E-17, 0.3750000000000000555, 0.1249999999999999445 ) ) ;
#175 =( GEOMETRIC_REPRESENTATION_CONTEXT ( 3 ) GLOBAL_UNCERTAINTY_ASSIGNED_CONTEXT ( ( #166 ) ) GLOBAL_UNIT_ASSIGNED_CONTEXT ( ( #369, #165, #26 ) ) REPRESENTATION_CONTEXT ( 'NONE', 'WORKASPACE' ) );
#176 = AXIS2_PLACEMENT_3D ( 'NONE', #271, #122, #148 ) ;
#177 = DIRECTION ( 'NONE',  ( 0.000000000000000000, 0.000000000000000000, 1.000000000000000000 ) ) ;
#178 = ADVANCED_FACE ( 'NONE', ( #340 ), #263, .T. ) ;
#179 = SURFACE_SIDE_STYLE ('',( #351 ) ) ;
#180 = MECHANICAL_DESIGN_GEOMETRIC_PRESENTATION_REPRESENTATION (  '', ( #337 ), #220 ) ;
#181 = CIRCLE ( 'NONE', #150, 0.1250000000000000000 ) ;
#182 = ORIENTED_EDGE ( 'NONE', *, *, #347, .T. ) ;
#183 =( CONVERSION_BASED_UNIT ( 'INCH', #232 ) LENGTH_UNIT ( ) NAMED_UNIT ( #303 ) );
#184 = VERTEX_POINT ( 'NONE', #346 ) ;
#185 = CLOSED_SHELL ( 'NONE', ( #267, #178, #207, #368, #187 ) ) ;
#186 = AXIS2_PLACEMENT_3D ( 'NONE', #143, #109, #262 ) ;
#187 = ADVANCED_FACE ( 'NONE', ( #95 ), #219, .T. ) ;
#188 = FILL_AREA_STYLE_COLOUR ( '', #202 ) ;
#189 = PRODUCT_DEFINITION_CONTEXT ( 'detailed design', #156, 'design' ) ;
#190 = DIRECTION ( 'NONE',  ( 0.000000000000000000, -0.000000000000000000, 1.000000000000000000 ) ) ;
#191 = FILL_AREA_STYLE_COLOUR ( '', #145 ) ;
#192 = ORIENTED_EDGE ( 'NONE', *, *, #104, .F. ) ;
#193 = CIRCLE ( 'NONE', #273, 0.1249999999999996808 ) ;
#194 = MECHANICAL_DESIGN_GEOMETRIC_PRESENTATION_REPRESENTATION (  '', ( #292 ), #107 ) ;
#195 = ORIENTED_EDGE ( 'NONE', *, *, #52, .F. ) ;
#196 = ORIENTED_EDGE ( 'NONE', *, *, #130, .F. ) ;
#197 = DIRECTION ( 'NONE',  ( 1.000000000000000000, 0.000000000000000000, 0.000000000000000000 ) ) ;
#198 = PRESENTATION_LAYER_ASSIGNMENT (  '', '', ( #338 ) ) ;
#199 = FILL_AREA_STYLE ('',( #342 ) ) ;
#200 = SURFACE_STYLE_USAGE ( .BOTH. , #139 ) ;
#201 = CARTESIAN_POINT ( 'NONE',  ( 0.1250000000000000000, 0.1250000000000000278, 0.000000000000000000 ) ) ;
#202 = COLOUR_RGB ( '',0.7921568627450980005, 0.8196078431372548767, 0.9333333333333333481 ) ;
#203 = AXIS2_PLACEMENT_3D ( 'NONE', #75, #279, #372 ) ;
#204 = FACE_OUTER_BOUND ( 'NONE', #304, .T. ) ;
#205 = CARTESIAN_POINT ( 'NONE',  ( -0.1250000000000000000, 0.1250000000000000278, 1.530808498934191201E-17 ) ) ;
#206 = SURFACE_STYLE_USAGE ( .BOTH. , #326 ) ;
#207 = ADVANCED_FACE ( 'NONE', ( #204 ), #327, .T. ) ;
#208 = ORIENTED_EDGE ( 'NONE', *, *, #104, .T. ) ;
#209 =( NAMED_UNIT ( * ) SI_UNIT ( $, .STERADIAN. ) SOLID_ANGLE_UNIT ( ) );
#210 = CARTESIAN_POINT ( 'NONE',  ( 1.530808498934191201E-17, 0.000000000000000000, 0.1249999999999999584 ) ) ;
#211 = DIRECTION ( 'NONE',  ( 1.000000000000000000, 0.000000000000000000, 0.000000000000000000 ) ) ;
#212 = PRESENTATION_LAYER_ASSIGNMENT (  '', '', ( #292 ) ) ;
#213 = PLANE ( 'NONE',  #69 ) ;
#214 = ORIENTED_EDGE ( 'NONE', *, *, #149, .T. ) ;
#215 = FACE_OUTER_BOUND ( 'NONE', #54, .T. ) ;
#216 = ORIENTED_EDGE ( 'NONE', *, *, #320, .F. ) ;
#217 =( LENGTH_UNIT ( ) NAMED_UNIT ( * ) SI_UNIT ( $, .METRE. ) );
#218 = VERTEX_POINT ( 'NONE', #278 ) ;
#219 = SPHERICAL_SURFACE ( 'NONE', #245, 0.1250000000000000000 ) ;
#220 =( GEOMETRIC_REPRESENTATION_CONTEXT ( 3 ) GLOBAL_UNCERTAINTY_ASSIGNED_CONTEXT ( ( #89 ) ) GLOBAL_UNIT_ASSIGNED_CONTEXT ( ( #302, #12, #44 ) ) REPRESENTATION_CONTEXT ( 'NONE', 'WORKASPACE' ) );
#221 = CIRCLE ( 'NONE', #101, 0.1249999999999998751 ) ;
#222 = UNCERTAINTY_MEASURE_WITH_UNIT (LENGTH_MEASURE( 1.000000000000000082E-05 ), #61, 'distance_accuracy_value', 'NONE');
#223 = PRESENTATION_STYLE_ASSIGNMENT (( #86 ) ) ;
#224 = ORIENTED_EDGE ( 'NONE', *, *, #27, .T. ) ;
#225 = CYLINDRICAL_SURFACE ( 'NONE', #135, 0.1249999999999997918 ) ;
#226 =( CONVERSION_BASED_UNIT ( 'INCH', #53 ) LENGTH_UNIT ( ) NAMED_UNIT ( #370 ) );
#227 =( LENGTH_UNIT ( ) NAMED_UNIT ( * ) SI_UNIT ( $, .METRE. ) );
#228 = STYLED_ITEM ( 'NONE', ( #73 ), #207 ) ;
#229 = FACE_OUTER_BOUND ( 'NONE', #79, .T. ) ;
#230 = DIRECTION ( 'NONE',  ( -1.231882382905062056E-16, 1.000000000000000000, -0.000000000000000000 ) ) ;
#231 = DIRECTION ( 'NONE',  ( -0.000000000000000000, -1.000000000000000000, -0.000000000000000000 ) ) ;
#232 = LENGTH_MEASURE_WITH_UNIT ( LENGTH_MEASURE( 0.02539999999999999897 ), #124 );
#233 = PRODUCT_CONTEXT ( 'NONE', #357, 'mechanical' ) ;
#234 = CLOSED_SHELL ( 'NONE', ( #120, #5, #242, #268 ) ) ;
#235 = CIRCLE ( 'NONE', #339, 0.1250000000000000000 ) ;
#236 = CARTESIAN_POINT ( 'NONE',  ( 0.000000000000000000, 0.000000000000000000, 0.000000000000000000 ) ) ;
#237 = DIRECTION ( 'NONE',  ( -1.000000000000000000, -1.231882382905062056E-16, 0.000000000000000000 ) ) ;
#238 = EDGE_CURVE ( 'NONE', #78, #355, #240, .T. ) ;
#239 = SURFACE_STYLE_FILL_AREA ( #131 ) ;
#240 = CIRCLE ( 'NONE', #92, 0.1250000000000000000 ) ;
#241 = APPLICATION_PROTOCOL_DEFINITION ( 'draft international standard', 'automotive_design', 1998, #156 ) ;
#242 = ADVANCED_FACE ( 'NONE', ( #215 ), #330, .T. ) ;
#243 = EDGE_LOOP ( 'NONE', ( #248, #299, #126, #137 ) ) ;
#244 = CARTESIAN_POINT ( 'NONE',  ( 2.614132271794402599E-16, 0.3750000000000000555, 0.000000000000000000 ) ) ;
#245 = AXIS2_PLACEMENT_3D ( 'NONE', #356, #24, #211 ) ;
#246 = SURFACE_STYLE_USAGE ( .BOTH. , #133 ) ;
#247 = CARTESIAN_POINT ( 'NONE',  ( 0.000000000000000000, 0.1250000000000000278, 0.000000000000000000 ) ) ;
#248 = ORIENTED_EDGE ( 'NONE', *, *, #32, .T. ) ;
#249 = DIMENSIONAL_EXPONENTS ( 1.000000000000000000, 0.000000000000000000, 0.000000000000000000, 0.000000000000000000, 0.000000000000000000, 0.000000000000000000, 0.000000000000000000 ) ;
#250 = ORIENTED_EDGE ( 'NONE', *, *, #123, .T. ) ;
#251 = EDGE_CURVE ( 'NONE', #331, #20, #161, .T. ) ;
#252 = DIMENSIONAL_EXPONENTS ( 1.000000000000000000, 0.000000000000000000, 0.000000000000000000, 0.000000000000000000, 0.000000000000000000, 0.000000000000000000, 0.000000000000000000 ) ;
#253 = ORIENTED_EDGE ( 'NONE', *, *, #238, .F. ) ;
#254 = STYLED_ITEM ( 'NONE', ( #223 ), #267 ) ;
#255 = LENGTH_MEASURE_WITH_UNIT ( LENGTH_MEASURE( 0.02539999999999999897 ), #217 );
#256 = LENGTH_MEASURE_WITH_UNIT ( LENGTH_MEASURE( 0.02539999999999999897 ), #361 );
#257 =( CONVERSION_BASED_UNIT ( 'INCH', #256 ) LENGTH_UNIT ( ) NAMED_UNIT ( #252 ) );
#258 = SPHERICAL_SURFACE ( 'NONE', #59, 0.1250000000000000000 ) ;
#259 = DIRECTION ( 'NONE',  ( -1.231882382905062056E-16, 1.000000000000000000, -0.000000000000000000 ) ) ;
#260 = AXIS2_PLACEMENT_3D ( 'NONE', #171, #287, #4 ) ;
#261 = DIRECTION ( 'NONE',  ( 0.000000000000000000, 0.000000000000000000, -1.000000000000000000 ) ) ;
#262 = DIRECTION ( 'NONE',  ( 0.000000000000000000, 0.000000000000000000, -1.000000000000000000 ) ) ;
#263 = CYLINDRICAL_SURFACE ( 'NONE', #16, 0.1249999999999999584 ) ;
#264 = APPLICATION_PROTOCOL_DEFINITION ( 'draft international standard', 'automotive_design', 1998, #357 ) ;
#265 = VECTOR ( 'NONE', #13, 39.37007874015748143 ) ;
#266 = STYLED_ITEM ( 'NONE', ( #90 ), #368 ) ;
#267 = ADVANCED_FACE ( 'NONE', ( #114 ), #258, .T. ) ;
#268 = ADVANCED_FACE ( 'NONE', ( #229 ), #308, .F. ) ;
#269 = EDGE_LOOP ( 'NONE', ( #276, #182, #216, #151 ) ) ;
#270 =( NAMED_UNIT ( * ) PLANE_ANGLE_UNIT ( ) SI_UNIT ( $, .RADIAN. ) );
#271 = CARTESIAN_POINT ( 'NONE',  ( 0.000000000000000000, 0.000000000000000000, 0.000000000000000000 ) ) ;
#272 = CARTESIAN_POINT ( 'NONE',  ( 2.614132271794402599E-16, 0.3749999999999999445, 0.000000000000000000 ) ) ;
#273 = AXIS2_PLACEMENT_3D ( 'NONE', #272, #173, #329 ) ;
#274 = AXIS2_PLACEMENT_3D ( 'NONE', #310, #35, #141 ) ;
#275 = FACE_OUTER_BOUND ( 'NONE', #163, .T. ) ;
#276 = ORIENTED_EDGE ( 'NONE', *, *, #317, .T. ) ;
#277 = LINE ( 'NONE', #58, #136 ) ;
#278 = CARTESIAN_POINT ( 'NONE',  ( 0.1249999999999999306, 0.3749999999999999445, 1.530808498934189352E-17 ) ) ;
#279 = DIRECTION ( 'NONE',  ( -1.231882382905062056E-16, 1.000000000000000000, -0.000000000000000000 ) ) ;
#280 =( NAMED_UNIT ( * ) SI_UNIT ( $, .STERADIAN. ) SOLID_ANGLE_UNIT ( ) );
#281 = UNCERTAINTY_MEASURE_WITH_UNIT (LENGTH_MEASURE( 1.000000000000000082E-05 ), #257, 'distance_accuracy_value', 'NONE');
#282 = ORIENTED_EDGE ( 'NONE', *, *, #130, .T. ) ;
#283 = PRODUCT ( '17152', '17152', '', ( #233 ) ) ;
#284 = COLOUR_RGB ( '',1.000000000000000000, 0.000000000000000000, 0.000000000000000000 ) ;
#285 = CARTESIAN_POINT ( 'NONE',  ( 0.1249999999999998612, 2.000000000000000000, 1.530808498934189044E-17 ) ) ;
#286 = DIRECTION ( 'NONE',  ( -0.000000000000000000, -1.000000000000000000, -0.000000000000000000 ) ) ;
#287 = DIRECTION ( 'NONE',  ( -0.000000000000000000, -1.000000000000000000, -0.000000000000000000 ) ) ;
#288 = FACE_OUTER_BOUND ( 'NONE', #243, .T. ) ;
#289 = FACE_OUTER_BOUND ( 'NONE', #76, .T. ) ;
#290 = SURFACE_SIDE_STYLE ('',( #7 ) ) ;
#291 = FILL_AREA_STYLE ('',( #115 ) ) ;
#292 = STYLED_ITEM ( 'NONE', ( #312 ), #164 ) ;
#293 = COLOUR_RGB ( '',1.000000000000000000, 0.000000000000000000, 0.000000000000000000 ) ;
#294 = MECHANICAL_DESIGN_GEOMETRIC_PRESENTATION_REPRESENTATION (  '', ( #266 ), #33 ) ;
#295 = PRESENTATION_STYLE_ASSIGNMENT (( #349 ) ) ;
#296 = DIRECTION ( 'NONE',  ( -1.231882382905062056E-16, 1.000000000000000000, -0.000000000000000000 ) ) ;
#297 = FILL_AREA_STYLE_COLOUR ( '', #154 ) ;
#298 =( NAMED_UNIT ( * ) PLANE_ANGLE_UNIT ( ) SI_UNIT ( $, .RADIAN. ) );
#299 = ORIENTED_EDGE ( 'NONE', *, *, #328, .T. ) ;
#300 = CIRCLE ( 'NONE', #186, 0.1250000000000000000 ) ;
#301 =( GEOMETRIC_REPRESENTATION_CONTEXT ( 3 ) GLOBAL_UNCERTAINTY_ASSIGNED_CONTEXT ( ( #222 ) ) GLOBAL_UNIT_ASSIGNED_CONTEXT ( ( #61, #298, #8 ) ) REPRESENTATION_CONTEXT ( 'NONE', 'WORKASPACE' ) );
#302 =( CONVERSION_BASED_UNIT ( 'INCH', #322 ) LENGTH_UNIT ( ) NAMED_UNIT ( #335 ) );
#303 = DIMENSIONAL_EXPONENTS ( 1.000000000000000000, 0.000000000000000000, 0.000000000000000000, 0.000000000000000000, 0.000000000000000000, 0.000000000000000000, 0.000000000000000000 ) ;
#304 = EDGE_LOOP ( 'NONE', ( #108, #307 ) ) ;
#305 = DIRECTION ( 'NONE',  ( -1.000000000000000000, 0.000000000000000000, 0.000000000000000000 ) ) ;
#306 = DIMENSIONAL_EXPONENTS ( 1.000000000000000000, 0.000000000000000000, 0.000000000000000000, 0.000000000000000000, 0.000000000000000000, 0.000000000000000000, 0.000000000000000000 ) ;
#307 = ORIENTED_EDGE ( 'NONE', *, *, #251, .F. ) ;
#308 = PLANE ( 'NONE',  #274 ) ;
#309 = CIRCLE ( 'NONE', #365, 0.1250000000000000000 ) ;
#310 = CARTESIAN_POINT ( 'NONE',  ( 0.1249999999999999445, 2.000000000000000000, 0.000000000000000000 ) ) ;
#311 = CARTESIAN_POINT ( 'NONE',  ( 6.123233995736766036E-17, 2.000000000000000000, 0.000000000000000000 ) ) ;
#312 = PRESENTATION_STYLE_ASSIGNMENT (( #200 ) ) ;
#313 = CARTESIAN_POINT ( 'NONE',  ( -1.530808498934191509E-17, 0.1250000000000000000, 0.000000000000000000 ) ) ;
#314 = CIRCLE ( 'NONE', #62, 0.1250000000000000000 ) ;
#315 = LENGTH_MEASURE_WITH_UNIT ( LENGTH_MEASURE( 0.02539999999999999897 ), #227 );
#316 = PRESENTATION_STYLE_ASSIGNMENT (( #41 ) ) ;
#317 = EDGE_CURVE ( 'NONE', #45, #78, #300, .T. ) ;
#318 = FILL_AREA_STYLE ('',( #297 ) ) ;
#319 = DIRECTION ( 'NONE',  ( 1.000000000000000000, 0.000000000000000000, 0.000000000000000000 ) ) ;
#320 = EDGE_CURVE ( 'NONE', #363, #14, #235, .T. ) ;
#321 = AXIS2_PLACEMENT_3D ( 'NONE', #23, #46, #190 ) ;
#322 = LENGTH_MEASURE_WITH_UNIT ( LENGTH_MEASURE( 0.02539999999999999897 ), #42 );
#323 = DIRECTION ( 'NONE',  ( -1.231882382905062056E-16, 1.000000000000000000, 0.000000000000000000 ) ) ;
#324 = FILL_AREA_STYLE_COLOUR ( '', #293 ) ;
#325 = PRODUCT_RELATED_PRODUCT_CATEGORY ( 'part', '', ( #283 ) ) ;
#326 = SURFACE_SIDE_STYLE ('',( #239 ) ) ;
#327 = PLANE ( 'NONE',  #321 ) ;
#328 = EDGE_CURVE ( 'NONE', #218, #184, #172, .T. ) ;
#329 = DIRECTION ( 'NONE',  ( -1.000000000000000000, 0.000000000000000000, 0.000000000000000000 ) ) ;
#330 = CYLINDRICAL_SURFACE ( 'NONE', #203, 0.1249999999999997918 ) ;
#331 = VERTEX_POINT ( 'NONE', #174 ) ;
#332 = PRODUCT_DEFINITION_FORMATION_WITH_SPECIFIED_SOURCE ( 'ANY', '', #283, .NOT_KNOWN. ) ;
#333 = ORIENTED_EDGE ( 'NONE', *, *, #320, .T. ) ;
#334 = CARTESIAN_POINT ( 'NONE',  ( 0.000000000000000000, 0.1250000000000000278, -0.1250000000000000000 ) ) ;
#335 = DIMENSIONAL_EXPONENTS ( 1.000000000000000000, 0.000000000000000000, 0.000000000000000000, 0.000000000000000000, 0.000000000000000000, 0.000000000000000000, 0.000000000000000000 ) ;
#336 = DIRECTION ( 'NONE',  ( -1.000000000000000000, 0.000000000000000000, 0.000000000000000000 ) ) ;
#337 = STYLED_ITEM ( 'NONE', ( #155 ), #40 ) ;
#338 = STYLED_ITEM ( 'NONE', ( #295 ), #178 ) ;
#339 = AXIS2_PLACEMENT_3D ( 'NONE', #313, #261, #371 ) ;
#340 = FACE_OUTER_BOUND ( 'NONE', #102, .T. ) ;
#341 =( NAMED_UNIT ( * ) PLANE_ANGLE_UNIT ( ) SI_UNIT ( $, .RADIAN. ) );
#342 = FILL_AREA_STYLE_COLOUR ( '', #77 ) ;
#343 = UNCERTAINTY_MEASURE_WITH_UNIT (LENGTH_MEASURE( 1.000000000000000082E-05 ), #60, 'distance_accuracy_value', 'NONE');
#344 = CARTESIAN_POINT ( 'NONE',  ( 0.000000000000000000, 0.1250000000000000278, 0.000000000000000000 ) ) ;
#345 = SURFACE_STYLE_FILL_AREA ( #117 ) ;
#346 = CARTESIAN_POINT ( 'NONE',  ( 0.1249999999999999445, 2.000000000000000000, 1.530808498934189660E-17 ) ) ;
#347 = EDGE_CURVE ( 'NONE', #78, #14, #181, .T. ) ;
#348 = DIRECTION ( 'NONE',  ( -0.000000000000000000, -1.000000000000000000, -0.000000000000000000 ) ) ;
#349 = SURFACE_STYLE_USAGE ( .BOTH. , #290 ) ;
#350 = DIRECTION ( 'NONE',  ( -0.000000000000000000, -1.000000000000000000, -0.000000000000000000 ) ) ;
#351 = SURFACE_STYLE_FILL_AREA ( #318 ) ;
#352 =( GEOMETRIC_REPRESENTATION_CONTEXT ( 3 ) GLOBAL_UNCERTAINTY_ASSIGNED_CONTEXT ( ( #281 ) ) GLOBAL_UNIT_ASSIGNED_CONTEXT ( ( #257, #2, #70 ) ) REPRESENTATION_CONTEXT ( 'NONE', 'WORKASPACE' ) );
#353 = AXIS2_PLACEMENT_3D ( 'NONE', #129, #177, #319 ) ;
#354 = CARTESIAN_POINT ( 'NONE',  ( -7.654042494670957545E-18, 0.000000000000000000, 0.000000000000000000 ) ) ;
#355 = VERTEX_POINT ( 'NONE', #334 ) ;
#356 = CARTESIAN_POINT ( 'NONE',  ( -1.530808498934191509E-17, 0.1250000000000000000, 0.000000000000000000 ) ) ;
#357 = APPLICATION_CONTEXT ( 'automotive_design' ) ;
#358 = DIRECTION ( 'NONE',  ( -0.000000000000000000, -1.000000000000000000, -0.000000000000000000 ) ) ;
#359 = STYLED_ITEM ( 'NONE', ( #316 ), #187 ) ;
#360 = DIRECTION ( 'NONE',  ( -0.000000000000000000, -1.000000000000000000, -0.000000000000000000 ) ) ;
#361 =( LENGTH_UNIT ( ) NAMED_UNIT ( * ) SI_UNIT ( $, .METRE. ) );
#362 = CARTESIAN_POINT ( 'NONE',  ( 0.000000000000000000, 0.3750000000000000555, 0.000000000000000000 ) ) ;
#363 = VERTEX_POINT ( 'NONE', #201 ) ;
#364 = SURFACE_SIDE_STYLE ('',( #142 ) ) ;
#365 = AXIS2_PLACEMENT_3D ( 'NONE', #344, #34, #87 ) ;
#366 = ORIENTED_EDGE ( 'NONE', *, *, #238, .T. ) ;
#367 = PRODUCT_DEFINITION_SHAPE ( 'NONE', 'NONE',  #94 ) ;
#368 = ADVANCED_FACE ( 'NONE', ( #289 ), #144, .T. ) ;
#369 =( CONVERSION_BASED_UNIT ( 'INCH', #255 ) LENGTH_UNIT ( ) NAMED_UNIT ( #306 ) );
#370 = DIMENSIONAL_EXPONENTS ( 1.000000000000000000, 0.000000000000000000, 0.000000000000000000, 0.000000000000000000, 0.000000000000000000, 0.000000000000000000, 0.000000000000000000 ) ;
#371 = DIRECTION ( 'NONE',  ( -1.000000000000000000, 0.000000000000000000, 0.000000000000000000 ) ) ;
#372 = DIRECTION ( 'NONE',  ( -1.000000000000000000, 0.000000000000000000, 0.000000000000000000 ) ) ;
#373 = VERTEX_POINT ( 'NONE', #37 ) ;
ENDSEC;
END-ISO-10303-21;
