ISO-10303-21;
HEADER;
FILE_DESCRIPTION (( 'STEP AP214' ),
    '1' );
FILE_NAME ('Micro_GEM-031-4X.STEP',
    '2021-09-01T18:49:55',
    ( '' ),
    ( '' ),
    'SwSTEP 2.0',
    'SolidWorks 2020',
    '' );
FILE_SCHEMA (( 'AUTOMOTIVE_DESIGN' ));
ENDSEC;

DATA;
#1 = DIRECTION ( 'NONE',  ( -0.0000000000000000000, -0.0000000000000000000, -1.000000000000000000 ) ) ;
#2 = ORIENTED_EDGE ( 'NONE', *, *, #89, .F. ) ;
#3 = AXIS2_PLACEMENT_3D ( 'NONE', #188, #5, #291 ) ;
#4 = ORIENTED_EDGE ( 'NONE', *, *, #162, .F. ) ;
#5 = DIRECTION ( 'NONE',  ( -1.224646799147353700E-16, -0.0000000000000000000, -1.000000000000000000 ) ) ;
#6 = CARTESIAN_POINT ( 'NONE',  ( 0.01558440000000000866, 1.908538557663202247E-18, -1.908538557663203017E-18 ) ) ;
#7 = DIRECTION ( 'NONE',  ( 1.000000000000000000, 0.0000000000000000000, 0.0000000000000000000 ) ) ;
#8 = DIRECTION ( 'NONE',  ( 1.224646799147353700E-16, 0.0000000000000000000, 1.000000000000000000 ) ) ;
#9 = EDGE_CURVE ( 'NONE', #166, #140, #245, .T. ) ;
#10 = DIRECTION ( 'NONE',  ( 1.000000000000000000, 0.0000000000000000000, -0.0000000000000000000 ) ) ;
#11 = DIRECTION ( 'NONE',  ( 0.0000000000000000000, 0.0000000000000000000, -1.000000000000000000 ) ) ;
#12 = FACE_OUTER_BOUND ( 'NONE', #26, .T. ) ;
#13 = DIRECTION ( 'NONE',  ( 1.000000000000000000, 0.0000000000000000000, 0.0000000000000000000 ) ) ;
#14 = DIRECTION ( 'NONE',  ( -1.224646799147353700E-16, -0.0000000000000000000, -1.000000000000000000 ) ) ;
#15 = EDGE_CURVE ( 'NONE', #204, #83, #284, .T. ) ;
#16 = ORIENTED_EDGE ( 'NONE', *, *, #154, .T. ) ;
#17 = APPLICATION_CONTEXT ( 'automotive_design' ) ;
#18 = ORIENTED_EDGE ( 'NONE', *, *, #222, .T. ) ;
#19 = VERTEX_POINT ( 'NONE', #65 ) ;
#20 = EDGE_LOOP ( 'NONE', ( #226, #80, #160, #252 ) ) ;
#21 = AXIS2_PLACEMENT_3D ( 'NONE', #254, #1, #161 ) ;
#22 = FILL_AREA_STYLE ('',( #28 ) ) ;
#23 = SURFACE_STYLE_FILL_AREA ( #22 ) ;
#24 = LENGTH_MEASURE_WITH_UNIT ( LENGTH_MEASURE( 0.02539999999999999897 ), #96 );
#25 = CARTESIAN_POINT ( 'NONE',  ( -0.04750000000000064587, 0.0000000000000000000, 1.500000000000000222 ) ) ;
#26 = EDGE_LOOP ( 'NONE', ( #98, #227, #93, #117 ) ) ;
#27 = CARTESIAN_POINT ( 'NONE',  ( -0.04750000000000064587, 0.0000000000000000000, 1.500000000000000222 ) ) ;
#28 = FILL_AREA_STYLE_COLOUR ( '', #191 ) ;
#29 = UNCERTAINTY_MEASURE_WITH_UNIT (LENGTH_MEASURE( 1.000000000000000082E-05 ), #119, 'distance_accuracy_value', 'NONE');
#30 = CARTESIAN_POINT ( 'NONE',  ( 0.0000000000000000000, 0.0000000000000000000, 1.500000000000000222 ) ) ;
#31 = DIRECTION ( 'NONE',  ( 1.000000000000000000, 0.0000000000000000000, 0.0000000000000000000 ) ) ;
#32 = DIRECTION ( 'NONE',  ( 1.000000000000000000, 0.0000000000000000000, 0.0000000000000000000 ) ) ;
#33 = PRODUCT_DEFINITION_FORMATION_WITH_SPECIFIED_SOURCE ( 'ANY', '', #283, .NOT_KNOWN. ) ;
#34 = DIRECTION ( 'NONE',  ( 0.7071067811865462405, 8.659560562354916834E-17, -0.7071067811865486830 ) ) ;
#35 = FACE_OUTER_BOUND ( 'NONE', #91, .T. ) ;
#36 = ADVANCED_FACE ( 'NONE', ( #158 ), #66, .T. ) ;
#37 = ORIENTED_EDGE ( 'NONE', *, *, #157, .F. ) ;
#38 = DIMENSIONAL_EXPONENTS ( 1.000000000000000000, 0.0000000000000000000, 0.0000000000000000000, 0.0000000000000000000, 0.0000000000000000000, 0.0000000000000000000, 0.0000000000000000000 ) ;
#39 = ORIENTED_EDGE ( 'NONE', *, *, #222, .F. ) ;
#40 =( LENGTH_UNIT ( ) NAMED_UNIT ( * ) SI_UNIT ( $, .METRE. ) );
#41 = AXIS2_PLACEMENT_3D ( 'NONE', #286, #257, #130 ) ;
#42 = CARTESIAN_POINT ( 'NONE',  ( 0.06250000000000006939, 7.654042494670963708E-18, 0.3440715893364552080 ) ) ;
#43 = AXIS2_PLACEMENT_3D ( 'NONE', #263, #71, #46 ) ;
#44 = DIRECTION ( 'NONE',  ( -1.000000000000000000, 0.0000000000000000000, 1.224646799147353700E-16 ) ) ;
#45 = VERTEX_POINT ( 'NONE', #209 ) ;
#46 = DIRECTION ( 'NONE',  ( -1.000000000000000000, 0.0000000000000000000, 0.0000000000000000000 ) ) ;
#47 = DIRECTION ( 'NONE',  ( -1.000000000000000000, 0.0000000000000000000, 0.0000000000000000000 ) ) ;
#48 = AXIS2_PLACEMENT_3D ( 'NONE', #79, #238, #107 ) ;
#49 = ORIENTED_EDGE ( 'NONE', *, *, #15, .T. ) ;
#50 = DIRECTION ( 'NONE',  ( -1.000000000000000000, 0.0000000000000000000, 0.0000000000000000000 ) ) ;
#51 = CARTESIAN_POINT ( 'NONE',  ( 0.0000000000000000000, 0.0000000000000000000, 1.500000000000000222 ) ) ;
#52 = UNCERTAINTY_MEASURE_WITH_UNIT (LENGTH_MEASURE( 1.000000000000000082E-05 ), #111, 'distance_accuracy_value', 'NONE');
#53 = CARTESIAN_POINT ( 'NONE',  ( 0.0000000000000000000, 0.0000000000000000000, 0.0000000000000000000 ) ) ;
#54 = DIRECTION ( 'NONE',  ( -0.0000000000000000000, -0.0000000000000000000, -1.000000000000000000 ) ) ;
#55 = AXIS2_PLACEMENT_3D ( 'NONE', #195, #192, #13 ) ;
#56 = ORIENTED_EDGE ( 'NONE', *, *, #114, .T. ) ;
#57 = PRESENTATION_STYLE_ASSIGNMENT (( #202 ) ) ;
#58 = STYLED_ITEM ( 'NONE', ( #231 ), #84 ) ;
#59 = APPLICATION_PROTOCOL_DEFINITION ( 'draft international standard', 'automotive_design', 1998, #298 ) ;
#60 = FILL_AREA_STYLE_COLOUR ( '', #193 ) ;
#61 = ORIENTED_EDGE ( 'NONE', *, *, #293, .F. ) ;
#62 = ORIENTED_EDGE ( 'NONE', *, *, #189, .F. ) ;
#63 = CIRCLE ( 'NONE', #41, 0.06250000000000002776 ) ;
#64 = ORIENTED_EDGE ( 'NONE', *, *, #225, .T. ) ;
#65 = CARTESIAN_POINT ( 'NONE',  ( -0.06250000000000002776, 0.0000000000000000000, 1.485000000000000764 ) ) ;
#66 = CYLINDRICAL_SURFACE ( 'NONE', #21, 0.06250000000000002776 ) ;
#67 = AXIS2_PLACEMENT_3D ( 'NONE', #280, #292, #149 ) ;
#68 = ORIENTED_EDGE ( 'NONE', *, *, #282, .T. ) ;
#69 =( CONVERSION_BASED_UNIT ( 'INCH', #239 ) LENGTH_UNIT ( ) NAMED_UNIT ( #250 ) );
#70 = EDGE_CURVE ( 'NONE', #256, #83, #101, .T. ) ;
#71 = DIRECTION ( 'NONE',  ( 0.0000000000000000000, 0.0000000000000000000, -1.000000000000000000 ) ) ;
#72 = EDGE_LOOP ( 'NONE', ( #224, #153, #109, #39 ) ) ;
#73 = VECTOR ( 'NONE', #34, 39.37007874015748854 ) ;
#74 = DIRECTION ( 'NONE',  ( -0.0000000000000000000, -0.0000000000000000000, -1.000000000000000000 ) ) ;
#75 = PLANE ( 'NONE',  #272 ) ;
#76 = LINE ( 'NONE', #172, #241 ) ;
#77 = PRODUCT_DEFINITION_CONTEXT ( 'detailed design', #17, 'design' ) ;
#78 = FACE_OUTER_BOUND ( 'NONE', #72, .T. ) ;
#79 = CARTESIAN_POINT ( 'NONE',  ( 9.552245033349369302E-18, 0.0000000000000000000, 0.07800000000000009703 ) ) ;
#80 = ORIENTED_EDGE ( 'NONE', *, *, #233, .T. ) ;
#81 = AXIS2_PLACEMENT_3D ( 'NONE', #100, #169, #31 ) ;
#82 =( NAMED_UNIT ( * ) PLANE_ANGLE_UNIT ( ) SI_UNIT ( $, .RADIAN. ) );
#83 = VERTEX_POINT ( 'NONE', #42 ) ;
#84 = MANIFOLD_SOLID_BREP ( 'Cut-Revolve1', #179 ) ;
#85 = EDGE_CURVE ( 'NONE', #204, #166, #121, .T. ) ;
#86 =( NAMED_UNIT ( * ) SI_UNIT ( $, .STERADIAN. ) SOLID_ANGLE_UNIT ( ) );
#87 = SURFACE_STYLE_FILL_AREA ( #247 ) ;
#88 = AXIS2_PLACEMENT_3D ( 'NONE', #104, #8, #197 ) ;
#89 = EDGE_CURVE ( 'NONE', #45, #140, #208, .T. ) ;
#90 = CIRCLE ( 'NONE', #110, 0.06250000000000002776 ) ;
#91 = EDGE_LOOP ( 'NONE', ( #142, #64, #260, #62 ) ) ;
#92 = CARTESIAN_POINT ( 'NONE',  ( 4.213661705584326685E-17, 0.0000000000000000000, 0.3440715893364552080 ) ) ;
#93 = ORIENTED_EDGE ( 'NONE', *, *, #89, .T. ) ;
#94 = AXIS2_PLACEMENT_3D ( 'NONE', #118, #144, #44 ) ;
#95 = VECTOR ( 'NONE', #186, 39.37007874015748143 ) ;
#96 =( LENGTH_UNIT ( ) NAMED_UNIT ( * ) SI_UNIT ( $, .METRE. ) );
#97 = EDGE_CURVE ( 'NONE', #140, #166, #219, .T. ) ;
#98 = ORIENTED_EDGE ( 'NONE', *, *, #85, .F. ) ;
#99 = CARTESIAN_POINT ( 'NONE',  ( 0.04750000000000064587, 6.735557395310483192E-18, 1.500000000000000222 ) ) ;
#100 = CARTESIAN_POINT ( 'NONE',  ( 0.0000000000000000000, 0.0000000000000000000, 1.500000000000000222 ) ) ;
#101 = CIRCLE ( 'NONE', #116, 0.06250000000000002776 ) ;
#102 = STYLED_ITEM ( 'NONE', ( #57 ), #251 ) ;
#103 = CYLINDRICAL_SURFACE ( 'NONE', #3, 0.01558440000000000866 ) ;
#104 = CARTESIAN_POINT ( 'NONE',  ( 9.552245033349369302E-18, 0.0000000000000000000, 0.07800000000000009703 ) ) ;
#105 = CARTESIAN_POINT ( 'NONE',  ( -0.06249999999999997918, 0.0000000000000000000, 0.3440715893364552080 ) ) ;
#106 = EDGE_CURVE ( 'NONE', #276, #206, #267, .T. ) ;
#107 = DIRECTION ( 'NONE',  ( -1.000000000000000000, 0.0000000000000000000, 0.0000000000000000000 ) ) ;
#108 = FACE_OUTER_BOUND ( 'NONE', #178, .T. ) ;
#109 = ORIENTED_EDGE ( 'NONE', *, *, #176, .F. ) ;
#110 = AXIS2_PLACEMENT_3D ( 'NONE', #146, #261, #190 ) ;
#111 =( CONVERSION_BASED_UNIT ( 'INCH', #180 ) LENGTH_UNIT ( ) NAMED_UNIT ( #38 ) );
#112 = AXIS2_PLACEMENT_3D ( 'NONE', #120, #221, #10 ) ;
#113 = ORIENTED_EDGE ( 'NONE', *, *, #154, .F. ) ;
#114 = EDGE_CURVE ( 'NONE', #45, #204, #223, .T. ) ;
#115 = ORIENTED_EDGE ( 'NONE', *, *, #106, .T. ) ;
#116 = AXIS2_PLACEMENT_3D ( 'NONE', #92, #281, #187 ) ;
#117 = ORIENTED_EDGE ( 'NONE', *, *, #9, .F. ) ;
#118 = CARTESIAN_POINT ( 'NONE',  ( 2.337285635691549169E-34, 0.0000000000000000000, 1.908538557663203788E-18 ) ) ;
#119 =( CONVERSION_BASED_UNIT ( 'INCH', #24 ) LENGTH_UNIT ( ) NAMED_UNIT ( #132 ) );
#120 = CARTESIAN_POINT ( 'NONE',  ( 0.0000000000000000000, 0.0000000000000000000, 0.0000000000000000000 ) ) ;
#121 = LINE ( 'NONE', #6, #199 ) ;
#122 = DIRECTION ( 'NONE',  ( -1.000000000000000000, 0.0000000000000000000, 1.224646799147353700E-16 ) ) ;
#123 = DIRECTION ( 'NONE',  ( 1.000000000000000000, 0.0000000000000000000, -0.0000000000000000000 ) ) ;
#124 = CYLINDRICAL_SURFACE ( 'NONE', #133, 0.01558440000000000866 ) ;
#125 = CARTESIAN_POINT ( 'NONE',  ( 0.0000000000000000000, 0.0000000000000000000, 1.500000000000000222 ) ) ;
#126 = MECHANICAL_DESIGN_GEOMETRIC_PRESENTATION_REPRESENTATION (  '', ( #102 ), #156 ) ;
#127 = ADVANCED_FACE ( 'NONE', ( #262 ), #297, .T. ) ;
#128 = DIRECTION ( 'NONE',  ( -0.0000000000000000000, -0.0000000000000000000, -1.000000000000000000 ) ) ;
#129 = CARTESIAN_POINT ( 'NONE',  ( 0.01558440000000001560, 1.908538557663202632E-18, 0.0000000000000000000 ) ) ;
#130 = DIRECTION ( 'NONE',  ( 1.000000000000000000, 0.0000000000000000000, 0.0000000000000000000 ) ) ;
#131 = DIRECTION ( 'NONE',  ( 0.0000000000000000000, 0.0000000000000000000, 1.000000000000000000 ) ) ;
#132 = DIMENSIONAL_EXPONENTS ( 1.000000000000000000, 0.0000000000000000000, 0.0000000000000000000, 0.0000000000000000000, 0.0000000000000000000, 0.0000000000000000000, 0.0000000000000000000 ) ;
#133 = AXIS2_PLACEMENT_3D ( 'NONE', #53, #217, #122 ) ;
#134 = EDGE_LOOP ( 'NONE', ( #56, #244, #205, #2 ) ) ;
#135 = CONICAL_SURFACE ( 'NONE', #88, 0.01558440000000000519, 0.1745329251994339470 ) ;
#136 = PRODUCT_RELATED_PRODUCT_CATEGORY ( 'part', '', ( #283 ) ) ;
#137 = EDGE_LOOP ( 'NONE', ( #16, #115 ) ) ;
#138 = CIRCLE ( 'NONE', #167, 0.06250000000000002776 ) ;
#139 = SURFACE_STYLE_USAGE ( .BOTH. , #210 ) ;
#140 = VERTEX_POINT ( 'NONE', #290 ) ;
#141 = ADVANCED_FACE ( 'NONE', ( #288 ), #75, .T. ) ;
#142 = ORIENTED_EDGE ( 'NONE', *, *, #282, .F. ) ;
#143 = CARTESIAN_POINT ( 'NONE',  ( 9.552245033349369302E-18, 0.0000000000000000000, 0.07800000000000009703 ) ) ;
#144 = DIRECTION ( 'NONE',  ( -1.224646799147353700E-16, -0.0000000000000000000, -1.000000000000000000 ) ) ;
#145 = VECTOR ( 'NONE', #194, 39.37007874015748143 ) ;
#146 = CARTESIAN_POINT ( 'NONE',  ( 0.0000000000000000000, 0.0000000000000000000, 1.485000000000000764 ) ) ;
#147 = ORIENTED_EDGE ( 'NONE', *, *, #225, .F. ) ;
#148 = LINE ( 'NONE', #25, #234 ) ;
#149 = DIRECTION ( 'NONE',  ( -1.000000000000000000, 0.0000000000000000000, 1.224646799147353700E-16 ) ) ;
#150 = CARTESIAN_POINT ( 'NONE',  ( 0.06250000000000002776, 7.654042494670959086E-18, 1.485000000000000764 ) ) ;
#151 = LINE ( 'NONE', #240, #73 ) ;
#152 = ADVANCED_FACE ( 'NONE', ( #218 ), #135, .T. ) ;
#153 = ORIENTED_EDGE ( 'NONE', *, *, #162, .T. ) ;
#154 = EDGE_CURVE ( 'NONE', #206, #276, #203, .T. ) ;
#155 = ORIENTED_EDGE ( 'NONE', *, *, #189, .T. ) ;
#156 =( GEOMETRIC_REPRESENTATION_CONTEXT ( 3 ) GLOBAL_UNCERTAINTY_ASSIGNED_CONTEXT ( ( #52 ) ) GLOBAL_UNIT_ASSIGNED_CONTEXT ( ( #111, #82, #86 ) ) REPRESENTATION_CONTEXT ( 'NONE', 'WORKASPACE' ) );
#157 = EDGE_CURVE ( 'NONE', #19, #256, #76, .T. ) ;
#158 = FACE_OUTER_BOUND ( 'NONE', #255, .T. ) ;
#159 = AXIS2_PLACEMENT_3D ( 'NONE', #249, #131, #182 ) ;
#160 = ORIENTED_EDGE ( 'NONE', *, *, #70, .T. ) ;
#161 = DIRECTION ( 'NONE',  ( -1.000000000000000000, 0.0000000000000000000, 0.0000000000000000000 ) ) ;
#162 = EDGE_CURVE ( 'NONE', #276, #275, #151, .T. ) ;
#163 =( NAMED_UNIT ( * ) PLANE_ANGLE_UNIT ( ) SI_UNIT ( $, .RADIAN. ) );
#164 =( NAMED_UNIT ( * ) PLANE_ANGLE_UNIT ( ) SI_UNIT ( $, .RADIAN. ) );
#165 = DIRECTION ( 'NONE',  ( -0.7071067811865462405, 0.0000000000000000000, -0.7071067811865486830 ) ) ;
#166 = VERTEX_POINT ( 'NONE', #129 ) ;
#167 = AXIS2_PLACEMENT_3D ( 'NONE', #220, #216, #32 ) ;
#168 = PLANE ( 'NONE',  #112 ) ;
#169 = DIRECTION ( 'NONE',  ( 0.0000000000000000000, 0.0000000000000000000, 1.000000000000000000 ) ) ;
#170 = UNCERTAINTY_MEASURE_WITH_UNIT (LENGTH_MEASURE( 1.000000000000000082E-05 ), #69, 'distance_accuracy_value', 'NONE');
#171 =( LENGTH_UNIT ( ) NAMED_UNIT ( * ) SI_UNIT ( $, .METRE. ) );
#172 = CARTESIAN_POINT ( 'NONE',  ( -0.06250000000000002776, 0.0000000000000000000, 1.500000000000000222 ) ) ;
#173 = DIRECTION ( 'NONE',  ( 1.224646799147353700E-16, 0.0000000000000000000, 1.000000000000000000 ) ) ;
#174 = DIRECTION ( 'NONE',  ( 0.0000000000000000000, 0.0000000000000000000, 1.000000000000000000 ) ) ;
#175 = PRODUCT_DEFINITION_SHAPE ( 'NONE', 'NONE',  #269 ) ;
#176 = EDGE_CURVE ( 'NONE', #19, #275, #138, .T. ) ;
#177 = PRESENTATION_LAYER_ASSIGNMENT (  '', '', ( #102 ) ) ;
#178 = EDGE_LOOP ( 'NONE', ( #296, #278 ) ) ;
#179 = CLOSED_SHELL ( 'NONE', ( #214, #242, #196, #36, #279, #141, #127, #152, #295, #289 ) ) ;
#180 = LENGTH_MEASURE_WITH_UNIT ( LENGTH_MEASURE( 0.02539999999999999897 ), #40 );
#181 = CIRCLE ( 'NONE', #253, 0.01558440000000000519 ) ;
#182 = DIRECTION ( 'NONE',  ( 1.000000000000000000, 0.0000000000000000000, 0.0000000000000000000 ) ) ;
#183 = AXIS2_PLACEMENT_3D ( 'NONE', #125, #11, #264 ) ;
#184 =( GEOMETRIC_REPRESENTATION_CONTEXT ( 3 ) GLOBAL_UNCERTAINTY_ASSIGNED_CONTEXT ( ( #29 ) ) GLOBAL_UNIT_ASSIGNED_CONTEXT ( ( #119, #164, #258 ) ) REPRESENTATION_CONTEXT ( 'NONE', 'WORKASPACE' ) );
#185 = EDGE_LOOP ( 'NONE', ( #4, #113, #18, #147 ) ) ;
#186 = DIRECTION ( 'NONE',  ( -1.224646799147353700E-16, -0.0000000000000000000, -1.000000000000000000 ) ) ;
#187 = DIRECTION ( 'NONE',  ( 1.000000000000000000, 0.0000000000000000000, 0.0000000000000000000 ) ) ;
#188 = CARTESIAN_POINT ( 'NONE',  ( 0.0000000000000000000, 0.0000000000000000000, 0.0000000000000000000 ) ) ;
#189 = EDGE_CURVE ( 'NONE', #83, #256, #63, .T. ) ;
#190 = DIRECTION ( 'NONE',  ( 1.000000000000000000, 0.0000000000000000000, 0.0000000000000000000 ) ) ;
#191 = COLOUR_RGB ( '',0.7921568627450980005, 0.8196078431372548767, 0.9333333333333333481 ) ;
#192 = DIRECTION ( 'NONE',  ( 0.0000000000000000000, 0.0000000000000000000, 1.000000000000000000 ) ) ;
#193 = COLOUR_RGB ( '',0.7921568627450980005, 0.8196078431372548767, 0.9333333333333333481 ) ;
#194 = DIRECTION ( 'NONE',  ( -0.1736481776669312194, 2.126576849575783625E-17, 0.9848077530122077983 ) ) ;
#195 = CARTESIAN_POINT ( 'NONE',  ( 0.0000000000000000000, 0.0000000000000000000, 1.500000000000000222 ) ) ;
#196 = ADVANCED_FACE ( 'NONE', ( #78 ), #277, .T. ) ;
#197 = DIRECTION ( 'NONE',  ( 1.000000000000000000, 0.0000000000000000000, 0.0000000000000000000 ) ) ;
#198 = CARTESIAN_POINT ( 'NONE',  ( 9.552245033349369302E-18, 0.0000000000000000000, 0.07800000000000009703 ) ) ;
#199 = VECTOR ( 'NONE', #285, 39.37007874015748143 ) ;
#200 = ORIENTED_EDGE ( 'NONE', *, *, #176, .T. ) ;
#201 = SURFACE_SIDE_STYLE ('',( #87 ) ) ;
#202 = SURFACE_STYLE_USAGE ( .BOTH. , #201 ) ;
#203 = CIRCLE ( 'NONE', #55, 0.04750000000000064587 ) ;
#204 = VERTEX_POINT ( 'NONE', #265 ) ;
#205 = ORIENTED_EDGE ( 'NONE', *, *, #97, .F. ) ;
#206 = VERTEX_POINT ( 'NONE', #27 ) ;
#207 =( GEOMETRIC_REPRESENTATION_CONTEXT ( 3 ) GLOBAL_UNCERTAINTY_ASSIGNED_CONTEXT ( ( #170 ) ) GLOBAL_UNIT_ASSIGNED_CONTEXT ( ( #69, #163, #270 ) ) REPRESENTATION_CONTEXT ( 'NONE', 'WORKASPACE' ) );
#208 = LINE ( 'NONE', #299, #95 ) ;
#209 = CARTESIAN_POINT ( 'NONE',  ( -0.01558439999999999652, 4.781290526167081051E-18, 0.07800000000000009703 ) ) ;
#210 = SURFACE_SIDE_STYLE ('',( #23 ) ) ;
#211 = AXIS2_PLACEMENT_3D ( 'NONE', #143, #173, #7 ) ;
#212 = FACE_OUTER_BOUND ( 'NONE', #134, .T. ) ;
#213 = EDGE_LOOP ( 'NONE', ( #246, #61, #49, #155 ) ) ;
#214 = ADVANCED_FACE ( 'NONE', ( #212 ), #124, .T. ) ;
#215 = LINE ( 'NONE', #235, #145 ) ;
#216 = DIRECTION ( 'NONE',  ( 0.0000000000000000000, 0.0000000000000000000, -1.000000000000000000 ) ) ;
#217 = DIRECTION ( 'NONE',  ( -1.224646799147353700E-16, -0.0000000000000000000, -1.000000000000000000 ) ) ;
#218 = FACE_OUTER_BOUND ( 'NONE', #213, .T. ) ;
#219 = CIRCLE ( 'NONE', #67, 0.01558440000000001387 ) ;
#220 = CARTESIAN_POINT ( 'NONE',  ( 0.0000000000000000000, 0.0000000000000000000, 1.485000000000000764 ) ) ;
#221 = DIRECTION ( 'NONE',  ( 0.0000000000000000000, 0.0000000000000000000, 1.000000000000000000 ) ) ;
#222 = EDGE_CURVE ( 'NONE', #206, #19, #148, .T. ) ;
#223 = CIRCLE ( 'NONE', #48, 0.01558440000000000519 ) ;
#224 = ORIENTED_EDGE ( 'NONE', *, *, #106, .F. ) ;
#225 = EDGE_CURVE ( 'NONE', #275, #19, #90, .T. ) ;
#226 = ORIENTED_EDGE ( 'NONE', *, *, #114, .F. ) ;
#227 = ORIENTED_EDGE ( 'NONE', *, *, #293, .T. ) ;
#228 = PRESENTATION_LAYER_ASSIGNMENT (  '', '', ( #58 ) ) ;
#229 = VECTOR ( 'NONE', #128, 39.37007874015748143 ) ;
#230 = CARTESIAN_POINT ( 'NONE',  ( 0.01558440000000001387, 0.0000000000000000000, 0.07800000000000009703 ) ) ;
#231 = PRESENTATION_STYLE_ASSIGNMENT (( #139 ) ) ;
#232 = CYLINDRICAL_SURFACE ( 'NONE', #248, 0.06250000000000002776 ) ;
#233 = EDGE_CURVE ( 'NONE', #45, #256, #215, .T. ) ;
#234 = VECTOR ( 'NONE', #165, 39.37007874015748854 ) ;
#235 = CARTESIAN_POINT ( 'NONE',  ( -0.01558439999999999652, 1.908538557663201862E-18, 0.07800000000000009703 ) ) ;
#236 = DIRECTION ( 'NONE',  ( 0.1736481776669314414, 0.0000000000000000000, 0.9848077530122077983 ) ) ;
#237 = FACE_OUTER_BOUND ( 'NONE', #20, .T. ) ;
#238 = DIRECTION ( 'NONE',  ( -1.224646799147353700E-16, -0.0000000000000000000, -1.000000000000000000 ) ) ;
#239 = LENGTH_MEASURE_WITH_UNIT ( LENGTH_MEASURE( 0.02539999999999999897 ), #171 );
#240 = CARTESIAN_POINT ( 'NONE',  ( 0.04750000000000064587, 5.817072295950006528E-18, 1.500000000000000222 ) ) ;
#241 = VECTOR ( 'NONE', #54, 39.37007874015748143 ) ;
#242 = ADVANCED_FACE ( 'NONE', ( #237 ), #287, .T. ) ;
#243 = CARTESIAN_POINT ( 'NONE',  ( 0.06250000000000002776, 7.654042494670959086E-18, 1.500000000000000222 ) ) ;
#244 = ORIENTED_EDGE ( 'NONE', *, *, #85, .T. ) ;
#245 = CIRCLE ( 'NONE', #94, 0.01558440000000001387 ) ;
#246 = ORIENTED_EDGE ( 'NONE', *, *, #233, .F. ) ;
#247 = FILL_AREA_STYLE ('',( #60 ) ) ;
#248 = AXIS2_PLACEMENT_3D ( 'NONE', #30, #74, #50 ) ;
#249 = CARTESIAN_POINT ( 'NONE',  ( 0.0000000000000000000, 0.0000000000000000000, 0.0000000000000000000 ) ) ;
#250 = DIMENSIONAL_EXPONENTS ( 1.000000000000000000, 0.0000000000000000000, 0.0000000000000000000, 0.0000000000000000000, 0.0000000000000000000, 0.0000000000000000000, 0.0000000000000000000 ) ;
#251 = ADVANCED_BREP_SHAPE_REPRESENTATION ( 'Micro_GEM-031-4X', ( #84, #159 ), #207 ) ;
#252 = ORIENTED_EDGE ( 'NONE', *, *, #15, .F. ) ;
#253 = AXIS2_PLACEMENT_3D ( 'NONE', #198, #14, #47 ) ;
#254 = CARTESIAN_POINT ( 'NONE',  ( 0.0000000000000000000, 0.0000000000000000000, 1.500000000000000222 ) ) ;
#255 = EDGE_LOOP ( 'NONE', ( #200, #68, #268, #37 ) ) ;
#256 = VERTEX_POINT ( 'NONE', #105 ) ;
#257 = DIRECTION ( 'NONE',  ( -1.224646799147353700E-16, -0.0000000000000000000, -1.000000000000000000 ) ) ;
#258 =( NAMED_UNIT ( * ) SI_UNIT ( $, .STERADIAN. ) SOLID_ANGLE_UNIT ( ) );
#259 = LINE ( 'NONE', #243, #229 ) ;
#260 = ORIENTED_EDGE ( 'NONE', *, *, #157, .T. ) ;
#261 = DIRECTION ( 'NONE',  ( 0.0000000000000000000, 0.0000000000000000000, -1.000000000000000000 ) ) ;
#262 = FACE_OUTER_BOUND ( 'NONE', #185, .T. ) ;
#263 = CARTESIAN_POINT ( 'NONE',  ( 0.0000000000000000000, 0.0000000000000000000, 1.500000000000000222 ) ) ;
#264 = DIRECTION ( 'NONE',  ( -1.000000000000000000, 0.0000000000000000000, 0.0000000000000000000 ) ) ;
#265 = CARTESIAN_POINT ( 'NONE',  ( 0.01558440000000001387, 0.0000000000000000000, 0.07800000000000009703 ) ) ;
#266 = VECTOR ( 'NONE', #236, 39.37007874015748143 ) ;
#267 = CIRCLE ( 'NONE', #81, 0.04750000000000064587 ) ;
#268 = ORIENTED_EDGE ( 'NONE', *, *, #70, .F. ) ;
#269 = PRODUCT_DEFINITION ( 'UNKNOWN', '', #33, #77 ) ;
#270 =( NAMED_UNIT ( * ) SI_UNIT ( $, .STERADIAN. ) SOLID_ANGLE_UNIT ( ) );
#271 = MECHANICAL_DESIGN_GEOMETRIC_PRESENTATION_REPRESENTATION (  '', ( #58 ), #184 ) ;
#272 = AXIS2_PLACEMENT_3D ( 'NONE', #51, #174, #123 ) ;
#273 = PRODUCT_CONTEXT ( 'NONE', #298, 'mechanical' ) ;
#274 = SHAPE_DEFINITION_REPRESENTATION ( #175, #251 ) ;
#275 = VERTEX_POINT ( 'NONE', #150 ) ;
#276 = VERTEX_POINT ( 'NONE', #99 ) ;
#277 = CONICAL_SURFACE ( 'NONE', #43, 0.04750000000000064587, 0.7853981633974466137 ) ;
#278 = ORIENTED_EDGE ( 'NONE', *, *, #9, .T. ) ;
#279 = ADVANCED_FACE ( 'NONE', ( #35 ), #232, .T. ) ;
#280 = CARTESIAN_POINT ( 'NONE',  ( 2.337285635691549169E-34, 0.0000000000000000000, 1.908538557663203788E-18 ) ) ;
#281 = DIRECTION ( 'NONE',  ( -1.224646799147353700E-16, -0.0000000000000000000, -1.000000000000000000 ) ) ;
#282 = EDGE_CURVE ( 'NONE', #275, #83, #259, .T. ) ;
#283 = PRODUCT ( 'Micro_GEM-031-4X', 'Micro_GEM-031-4X', '', ( #273 ) ) ;
#284 = LINE ( 'NONE', #230, #266 ) ;
#285 = DIRECTION ( 'NONE',  ( -1.224646799147353700E-16, -0.0000000000000000000, -1.000000000000000000 ) ) ;
#286 = CARTESIAN_POINT ( 'NONE',  ( 4.213661705584326685E-17, 0.0000000000000000000, 0.3440715893364552080 ) ) ;
#287 = CONICAL_SURFACE ( 'NONE', #211, 0.01558440000000000519, 0.1745329251994339470 ) ;
#288 = FACE_OUTER_BOUND ( 'NONE', #137, .T. ) ;
#289 = ADVANCED_FACE ( 'NONE', ( #108 ), #168, .F. ) ;
#290 = CARTESIAN_POINT ( 'NONE',  ( -0.01558440000000001387, 0.0000000000000000000, 3.817077115326407575E-18 ) ) ;
#291 = DIRECTION ( 'NONE',  ( -1.000000000000000000, 0.0000000000000000000, 1.224646799147353700E-16 ) ) ;
#292 = DIRECTION ( 'NONE',  ( -1.224646799147353700E-16, -0.0000000000000000000, -1.000000000000000000 ) ) ;
#293 = EDGE_CURVE ( 'NONE', #204, #45, #181, .T. ) ;
#294 = APPLICATION_PROTOCOL_DEFINITION ( 'draft international standard', 'automotive_design', 1998, #17 ) ;
#295 = ADVANCED_FACE ( 'NONE', ( #12 ), #103, .T. ) ;
#296 = ORIENTED_EDGE ( 'NONE', *, *, #97, .T. ) ;
#297 = CONICAL_SURFACE ( 'NONE', #183, 0.04750000000000064587, 0.7853981633974466137 ) ;
#298 = APPLICATION_CONTEXT ( 'automotive_design' ) ;
#299 = CARTESIAN_POINT ( 'NONE',  ( -0.01558440000000000866, 0.0000000000000000000, 1.908538557663203017E-18 ) ) ;
ENDSEC;
END-ISO-10303-21;
