ISO-10303-21;
HEADER;
FILE_DESCRIPTION (( 'STEP AP214' ),
    '1' );
FILE_NAME ('05607.STEP',
    '2023-06-22T16:13:43',
    ( '' ),
    ( '' ),
    'SwSTEP 2.0',
    'SolidWorks 2023',
    '' );
FILE_SCHEMA (( 'AUTOMOTIVE_DESIGN' ));
ENDSEC;

DATA;
#1 = ORIENTED_EDGE ( 'NONE', *, *, #12, .T. ) ;
#2 = DIRECTION ( 'NONE',  ( 1.632862398863137774E-16, 1.000000000000000000, -0.000000000000000000 ) ) ;
#3 = ORIENTED_EDGE ( 'NONE', *, *, #141, .F. ) ;
#4 = PRESENTATION_LAYER_ASSIGNMENT (  '', '', ( #41 ) ) ;
#5 = EDGE_CURVE ( 'NONE', #142, #182, #239, .T. ) ;
#6 = DIRECTION ( 'NONE',  ( -1.000000000000000000, 0.000000000000000000, 0.000000000000000000 ) ) ;
#7 = SHAPE_DEFINITION_REPRESENTATION ( #138, #285 ) ;
#8 = PRESENTATION_STYLE_ASSIGNMENT (( #61 ) ) ;
#9 = FILL_AREA_STYLE ('',( #217 ) ) ;
#10 = SURFACE_STYLE_FILL_AREA ( #76 ) ;
#11 = EDGE_LOOP ( 'NONE', ( #1, #24 ) ) ;
#12 = EDGE_CURVE ( 'NONE', #182, #87, #267, .T. ) ;
#13 = DIMENSIONAL_EXPONENTS ( 1.000000000000000000, 0.000000000000000000, 0.000000000000000000, 0.000000000000000000, 0.000000000000000000, 0.000000000000000000, 0.000000000000000000 ) ;
#14 = ORIENTED_EDGE ( 'NONE', *, *, #49, .F. ) ;
#15 = CLOSED_SHELL ( 'NONE', ( #143, #89, #62, #255 ) ) ;
#16 = LENGTH_MEASURE_WITH_UNIT ( LENGTH_MEASURE( 0.02539999999999999897 ), #224 );
#17 = DIRECTION ( 'NONE',  ( -0.000000000000000000, -1.000000000000000000, -0.000000000000000000 ) ) ;
#18 =( LENGTH_UNIT ( ) NAMED_UNIT ( * ) SI_UNIT ( $, .METRE. ) );
#19 = ORIENTED_EDGE ( 'NONE', *, *, #146, .F. ) ;
#20 = EDGE_CURVE ( 'NONE', #68, #283, #130, .T. ) ;
#21 = DIRECTION ( 'NONE',  ( -0.000000000000000000, -1.000000000000000000, -0.000000000000000000 ) ) ;
#22 = CARTESIAN_POINT ( 'NONE',  ( 0.000000000000000000, 0.000000000000000000, 0.000000000000000000 ) ) ;
#23 = DIRECTION ( 'NONE',  ( 0.000000000000000000, 1.000000000000000000, 0.000000000000000000 ) ) ;
#24 = ORIENTED_EDGE ( 'NONE', *, *, #125, .T. ) ;
#25 = STYLED_ITEM ( 'NONE', ( #199 ), #143 ) ;
#26 = AXIS2_PLACEMENT_3D ( 'NONE', #162, #23, #88 ) ;
#27 = DIRECTION ( 'NONE',  ( -0.000000000000000000, -1.000000000000000000, -0.000000000000000000 ) ) ;
#28 = PLANE ( 'NONE',  #92 ) ;
#29 = ORIENTED_EDGE ( 'NONE', *, *, #125, .F. ) ;
#30 = DIRECTION ( 'NONE',  ( -1.000000000000000000, 1.632862398863137774E-16, 0.000000000000000000 ) ) ;
#31 = SURFACE_STYLE_USAGE ( .BOTH. , #83 ) ;
#32 = DIRECTION ( 'NONE',  ( 1.632862398863137774E-16, 1.000000000000000000, -0.000000000000000000 ) ) ;
#33 = ADVANCED_FACE ( 'NONE', ( #214 ), #185, .T. ) ;
#34 =( CONVERSION_BASED_UNIT ( 'INCH', #221 ) LENGTH_UNIT ( ) NAMED_UNIT ( #36 ) );
#35 = MECHANICAL_DESIGN_GEOMETRIC_PRESENTATION_REPRESENTATION (  '', ( #25 ), #114 ) ;
#36 = DIMENSIONAL_EXPONENTS ( 1.000000000000000000, 0.000000000000000000, 0.000000000000000000, 0.000000000000000000, 0.000000000000000000, 0.000000000000000000, 0.000000000000000000 ) ;
#37 = CARTESIAN_POINT ( 'NONE',  ( 0.000000000000000000, 0.7499999999999998890, -0.3125000000000000000 ) ) ;
#38 =( CONVERSION_BASED_UNIT ( 'INCH', #16 ) LENGTH_UNIT ( ) NAMED_UNIT ( #248 ) );
#39 = SURFACE_STYLE_FILL_AREA ( #9 ) ;
#40 = CIRCLE ( 'NONE', #189, 0.3124999999999996669 ) ;
#41 = STYLED_ITEM ( 'NONE', ( #158 ), #89 ) ;
#42 = SURFACE_SIDE_STYLE ('',( #254 ) ) ;
#43 =( NAMED_UNIT ( * ) SI_UNIT ( $, .STERADIAN. ) SOLID_ANGLE_UNIT ( ) );
#44 = DIRECTION ( 'NONE',  ( 1.632862398863137774E-16, 1.000000000000000000, -0.000000000000000000 ) ) ;
#45 = EDGE_CURVE ( 'NONE', #113, #142, #71, .T. ) ;
#46 = ORIENTED_EDGE ( 'NONE', *, *, #183, .F. ) ;
#47 = SURFACE_SIDE_STYLE ('',( #204 ) ) ;
#48 = VERTEX_POINT ( 'NONE', #101 ) ;
#49 = EDGE_CURVE ( 'NONE', #113, #87, #291, .T. ) ;
#50 = UNCERTAINTY_MEASURE_WITH_UNIT (LENGTH_MEASURE( 1.000000000000000082E-05 ), #223, 'distance_accuracy_value', 'NONE');
#51 = CARTESIAN_POINT ( 'NONE',  ( 3.673940397442060361E-16, 3.000000000000000444, 0.000000000000000000 ) ) ;
#52 = AXIS2_PLACEMENT_3D ( 'NONE', #169, #148, #119 ) ;
#53 = DIRECTION ( 'NONE',  ( 0.000000000000000000, 0.000000000000000000, -1.000000000000000000 ) ) ;
#54 = DIRECTION ( 'NONE',  ( 0.000000000000000000, -1.000000000000000000, -0.000000000000000000 ) ) ;
#55 = CYLINDRICAL_SURFACE ( 'NONE', #161, 0.3125000000000000000 ) ;
#56 = ADVANCED_FACE ( 'NONE', ( #121 ), #218, .F. ) ;
#57 = DIRECTION ( 'NONE',  ( 1.632862398863137774E-16, 1.000000000000000000, -0.000000000000000000 ) ) ;
#58 = COLOUR_RGB ( '',1.000000000000000000, 0.000000000000000000, 0.000000000000000000 ) ;
#59 =( NAMED_UNIT ( * ) SI_UNIT ( $, .STERADIAN. ) SOLID_ANGLE_UNIT ( ) );
#60 = ORIENTED_EDGE ( 'NONE', *, *, #49, .T. ) ;
#61 = SURFACE_STYLE_USAGE ( .BOTH. , #192 ) ;
#62 = ADVANCED_FACE ( 'NONE', ( #173 ), #55, .T. ) ;
#63 = DIMENSIONAL_EXPONENTS ( 1.000000000000000000, 0.000000000000000000, 0.000000000000000000, 0.000000000000000000, 0.000000000000000000, 0.000000000000000000, 0.000000000000000000 ) ;
#64 = PLANE ( 'NONE',  #26 ) ;
#65 =( CONVERSION_BASED_UNIT ( 'INCH', #277 ) LENGTH_UNIT ( ) NAMED_UNIT ( #84 ) );
#66 = PRESENTATION_LAYER_ASSIGNMENT (  '', '', ( #97 ) ) ;
#67 = MECHANICAL_DESIGN_GEOMETRIC_PRESENTATION_REPRESENTATION (  '', ( #139 ), #290 ) ;
#68 = VERTEX_POINT ( 'NONE', #200 ) ;
#69 = SURFACE_STYLE_USAGE ( .BOTH. , #128 ) ;
#70 = EDGE_LOOP ( 'NONE', ( #211, #132 ) ) ;
#71 = CIRCLE ( 'NONE', #52, 0.3125000000000000000 ) ;
#72 = COLOUR_RGB ( '',0.7921568627450980005, 0.8196078431372548767, 0.9333333333333333481 ) ;
#73 = DIRECTION ( 'NONE',  ( -1.000000000000000000, 0.000000000000000000, 0.000000000000000000 ) ) ;
#74 = ADVANCED_FACE ( 'NONE', ( #302 ), #85, .T. ) ;
#75 = CARTESIAN_POINT ( 'NONE',  ( 3.827021247335478926E-17, 0.000000000000000000, 0.3125000000000000000 ) ) ;
#76 = FILL_AREA_STYLE ('',( #222 ) ) ;
#77 = DIRECTION ( 'NONE',  ( 1.000000000000000000, -1.632862398863137774E-16, 0.000000000000000000 ) ) ;
#78 = CARTESIAN_POINT ( 'NONE',  ( 3.673940397442060361E-16, 3.000000000000000444, 0.000000000000000000 ) ) ;
#79 =( NAMED_UNIT ( * ) SI_UNIT ( $, .STERADIAN. ) SOLID_ANGLE_UNIT ( ) );
#80 = CARTESIAN_POINT ( 'NONE',  ( 0.000000000000000000, 0.7499999999999998890, 0.000000000000000000 ) ) ;
#81 = AXIS2_PLACEMENT_3D ( 'NONE', #244, #295, #6 ) ;
#82 = SURFACE_STYLE_FILL_AREA ( #195 ) ;
#83 = SURFACE_SIDE_STYLE ('',( #39 ) ) ;
#84 = DIMENSIONAL_EXPONENTS ( 1.000000000000000000, 0.000000000000000000, 0.000000000000000000, 0.000000000000000000, 0.000000000000000000, 0.000000000000000000, 0.000000000000000000 ) ;
#85 = CYLINDRICAL_SURFACE ( 'NONE', #260, 0.3124999999999998890 ) ;
#86 =( LENGTH_UNIT ( ) NAMED_UNIT ( * ) SI_UNIT ( $, .METRE. ) );
#87 = VERTEX_POINT ( 'NONE', #274 ) ;
#88 = DIRECTION ( 'NONE',  ( 0.000000000000000000, -0.000000000000000000, 1.000000000000000000 ) ) ;
#89 = ADVANCED_FACE ( 'NONE', ( #231 ), #64, .T. ) ;
#90 = LINE ( 'NONE', #286, #276 ) ;
#91 = AXIS2_PLACEMENT_3D ( 'NONE', #103, #293, #77 ) ;
#92 = AXIS2_PLACEMENT_3D ( 'NONE', #117, #194, #30 ) ;
#93 = MECHANICAL_DESIGN_GEOMETRIC_PRESENTATION_REPRESENTATION (  '', ( #280 ), #272 ) ;
#94 = DIRECTION ( 'NONE',  ( 1.632862398863137774E-16, 1.000000000000000000, -0.000000000000000000 ) ) ;
#95 = DIRECTION ( 'NONE',  ( -0.000000000000000000, -1.000000000000000000, -0.000000000000000000 ) ) ;
#96 = CARTESIAN_POINT ( 'NONE',  ( 0.000000000000000000, 0.000000000000000000, 0.000000000000000000 ) ) ;
#97 = STYLED_ITEM ( 'NONE', ( #8 ), #255 ) ;
#98 = APPLICATION_PROTOCOL_DEFINITION ( 'draft international standard', 'automotive_design', 1998, #179 ) ;
#99 = PLANE ( 'NONE',  #123 ) ;
#100 =( LENGTH_UNIT ( ) NAMED_UNIT ( * ) SI_UNIT ( $, .METRE. ) );
#101 = CARTESIAN_POINT ( 'NONE',  ( -0.3124999999999993339, 3.000000000000000444, 0.000000000000000000 ) ) ;
#102 =( LENGTH_UNIT ( ) NAMED_UNIT ( * ) SI_UNIT ( $, .METRE. ) );
#103 = CARTESIAN_POINT ( 'NONE',  ( 0.3125000000000000000, 3.000000000000000444, 0.000000000000000000 ) ) ;
#104 = FILL_AREA_STYLE_COLOUR ( '', #107 ) ;
#105 = DIRECTION ( 'NONE',  ( -1.000000000000000000, 0.000000000000000000, 0.000000000000000000 ) ) ;
#106 =( NAMED_UNIT ( * ) PLANE_ANGLE_UNIT ( ) SI_UNIT ( $, .RADIAN. ) );
#107 = COLOUR_RGB ( '',0.7921568627450980005, 0.8196078431372548767, 0.9333333333333333481 ) ;
#108 = EDGE_CURVE ( 'NONE', #68, #164, #90, .T. ) ;
#109 =( NAMED_UNIT ( * ) SI_UNIT ( $, .STERADIAN. ) SOLID_ANGLE_UNIT ( ) );
#110 = AXIS2_PLACEMENT_3D ( 'NONE', #96, #27, #288 ) ;
#111 = PRODUCT_DEFINITION_FORMATION_WITH_SPECIFIED_SOURCE ( 'ANY', '', #306, .NOT_KNOWN. ) ;
#112 = EDGE_LOOP ( 'NONE', ( #236, #308, #137, #46 ) ) ;
#113 = VERTEX_POINT ( 'NONE', #237 ) ;
#114 =( GEOMETRIC_REPRESENTATION_CONTEXT ( 3 ) GLOBAL_UNCERTAINTY_ASSIGNED_CONTEXT ( ( #50 ) ) GLOBAL_UNIT_ASSIGNED_CONTEXT ( ( #223, #196, #273 ) ) REPRESENTATION_CONTEXT ( 'NONE', 'WORKASPACE' ) );
#115 =( CONVERSION_BASED_UNIT ( 'INCH', #269 ) LENGTH_UNIT ( ) NAMED_UNIT ( #13 ) );
#116 = DIRECTION ( 'NONE',  ( -1.000000000000000000, 0.000000000000000000, 0.000000000000000000 ) ) ;
#117 = CARTESIAN_POINT ( 'NONE',  ( 4.165999396282938712E-33, 0.7499999999999998890, 0.000000000000000000 ) ) ;
#118 = CYLINDRICAL_SURFACE ( 'NONE', #298, 0.3125000000000000000 ) ;
#119 = DIRECTION ( 'NONE',  ( 0.000000000000000000, 0.000000000000000000, -1.000000000000000000 ) ) ;
#120 = DIRECTION ( 'NONE',  ( -0.000000000000000000, -1.000000000000000000, -0.000000000000000000 ) ) ;
#121 = FACE_OUTER_BOUND ( 'NONE', #207, .T. ) ;
#122 = UNCERTAINTY_MEASURE_WITH_UNIT (LENGTH_MEASURE( 1.000000000000000082E-05 ), #229, 'distance_accuracy_value', 'NONE');
#123 = AXIS2_PLACEMENT_3D ( 'NONE', #187, #54, #53 ) ;
#124 = SURFACE_SIDE_STYLE ('',( #247 ) ) ;
#125 = EDGE_CURVE ( 'NONE', #87, #182, #178, .T. ) ;
#126 = DIMENSIONAL_EXPONENTS ( 1.000000000000000000, 0.000000000000000000, 0.000000000000000000, 0.000000000000000000, 0.000000000000000000, 0.000000000000000000, 0.000000000000000000 ) ;
#127 = ORIENTED_EDGE ( 'NONE', *, *, #258, .T. ) ;
#128 = SURFACE_SIDE_STYLE ('',( #82 ) ) ;
#129 = VECTOR ( 'NONE', #228, 39.37007874015748143 ) ;
#130 = CIRCLE ( 'NONE', #184, 0.3125000000000000000 ) ;
#131 = UNCERTAINTY_MEASURE_WITH_UNIT (LENGTH_MEASURE( 1.000000000000000082E-05 ), #115, 'distance_accuracy_value', 'NONE');
#132 = ORIENTED_EDGE ( 'NONE', *, *, #20, .F. ) ;
#133 = FILL_AREA_STYLE ('',( #278 ) ) ;
#134 = SURFACE_STYLE_USAGE ( .BOTH. , #47 ) ;
#135 =( GEOMETRIC_REPRESENTATION_CONTEXT ( 3 ) GLOBAL_UNCERTAINTY_ASSIGNED_CONTEXT ( ( #131 ) ) GLOBAL_UNIT_ASSIGNED_CONTEXT ( ( #115, #246, #296 ) ) REPRESENTATION_CONTEXT ( 'NONE', 'WORKASPACE' ) );
#136 = COLOUR_RGB ( '',1.000000000000000000, 0.000000000000000000, 0.000000000000000000 ) ;
#137 = ORIENTED_EDGE ( 'NONE', *, *, #146, .T. ) ;
#138 = PRODUCT_DEFINITION_SHAPE ( 'NONE', 'NONE',  #262 ) ;
#139 = STYLED_ITEM ( 'NONE', ( #176 ), #242 ) ;
#140 = ORIENTED_EDGE ( 'NONE', *, *, #287, .T. ) ;
#141 = EDGE_CURVE ( 'NONE', #48, #164, #40, .T. ) ;
#142 = VERTEX_POINT ( 'NONE', #37 ) ;
#143 = ADVANCED_FACE ( 'NONE', ( #172 ), #118, .T. ) ;
#144 = MANIFOLD_SOLID_BREP ( 'Revolve - Cutting Edge', #15 ) ;
#145 = PRESENTATION_STYLE_ASSIGNMENT (( #220 ) ) ;
#146 = EDGE_CURVE ( 'NONE', #283, #48, #180, .T. ) ;
#147 = DIRECTION ( 'NONE',  ( -1.000000000000000000, 0.000000000000000000, 0.000000000000000000 ) ) ;
#148 = DIRECTION ( 'NONE',  ( -0.000000000000000000, -1.000000000000000000, -0.000000000000000000 ) ) ;
#149 = DIRECTION ( 'NONE',  ( -0.000000000000000000, -1.000000000000000000, -0.000000000000000000 ) ) ;
#150 = FILL_AREA_STYLE_COLOUR ( '', #289 ) ;
#151 =( NAMED_UNIT ( * ) PLANE_ANGLE_UNIT ( ) SI_UNIT ( $, .RADIAN. ) );
#152 = CARTESIAN_POINT ( 'NONE',  ( 0.000000000000000000, 0.000000000000000000, 0.000000000000000000 ) ) ;
#153 = APPLICATION_CONTEXT ( 'automotive_design' ) ;
#154 = SURFACE_STYLE_USAGE ( .BOTH. , #42 ) ;
#155 = PRESENTATION_LAYER_ASSIGNMENT (  '', '', ( #280 ) ) ;
#156 = AXIS2_PLACEMENT_3D ( 'NONE', #80, #186, #147 ) ;
#157 =( CONVERSION_BASED_UNIT ( 'INCH', #206 ) LENGTH_UNIT ( ) NAMED_UNIT ( #271 ) );
#158 = PRESENTATION_STYLE_ASSIGNMENT (( #154 ) ) ;
#159 = CARTESIAN_POINT ( 'NONE',  ( -0.3124999999999995559, 3.000000000000000444, 0.000000000000000000 ) ) ;
#160 = CIRCLE ( 'NONE', #249, 0.3124999999999996669 ) ;
#161 = AXIS2_PLACEMENT_3D ( 'NONE', #152, #252, #304 ) ;
#162 = CARTESIAN_POINT ( 'NONE',  ( 0.000000000000000000, 0.7499999999999998890, 0.000000000000000000 ) ) ;
#163 = CARTESIAN_POINT ( 'NONE',  ( 0.000000000000000000, 0.000000000000000000, 0.000000000000000000 ) ) ;
#164 = VERTEX_POINT ( 'NONE', #256 ) ;
#165 = STYLED_ITEM ( 'NONE', ( #201 ), #144 ) ;
#166 = ORIENTED_EDGE ( 'NONE', *, *, #5, .F. ) ;
#167 = EDGE_LOOP ( 'NONE', ( #210, #240 ) ) ;
#168 = FILL_AREA_STYLE ('',( #150 ) ) ;
#169 = CARTESIAN_POINT ( 'NONE',  ( 0.000000000000000000, 0.7499999999999998890, 0.000000000000000000 ) ) ;
#170 = CIRCLE ( 'NONE', #156, 0.3125000000000000000 ) ;
#171 = FACE_OUTER_BOUND ( 'NONE', #11, .T. ) ;
#172 = FACE_OUTER_BOUND ( 'NONE', #281, .T. ) ;
#173 = FACE_OUTER_BOUND ( 'NONE', #265, .T. ) ;
#174 = CARTESIAN_POINT ( 'NONE',  ( 0.000000000000000000, 0.7499999999999998890, 0.000000000000000000 ) ) ;
#175 = AXIS2_PLACEMENT_3D ( 'NONE', #174, #120, #270 ) ;
#176 = PRESENTATION_STYLE_ASSIGNMENT (( #69 ) ) ;
#177 = DIRECTION ( 'NONE',  ( 0.000000000000000000, 0.000000000000000000, -1.000000000000000000 ) ) ;
#178 = CIRCLE ( 'NONE', #226, 0.3125000000000000000 ) ;
#179 = APPLICATION_CONTEXT ( 'automotive_design' ) ;
#180 = LINE ( 'NONE', #159, #129 ) ;
#181 = ORIENTED_EDGE ( 'NONE', *, *, #183, .T. ) ;
#182 = VERTEX_POINT ( 'NONE', #191 ) ;
#183 = EDGE_CURVE ( 'NONE', #164, #48, #160, .T. ) ;
#184 = AXIS2_PLACEMENT_3D ( 'NONE', #193, #32, #116 ) ;
#185 = CYLINDRICAL_SURFACE ( 'NONE', #81, 0.3124999999999998890 ) ;
#186 = DIRECTION ( 'NONE',  ( 1.632862398863137774E-16, 1.000000000000000000, -0.000000000000000000 ) ) ;
#187 = CARTESIAN_POINT ( 'NONE',  ( 0.000000000000000000, 0.000000000000000000, 0.000000000000000000 ) ) ;
#188 = CARTESIAN_POINT ( 'NONE',  ( 0.000000000000000000, 0.000000000000000000, 0.000000000000000000 ) ) ;
#189 = AXIS2_PLACEMENT_3D ( 'NONE', #51, #2, #73 ) ;
#190 =( LENGTH_UNIT ( ) NAMED_UNIT ( * ) SI_UNIT ( $, .METRE. ) );
#191 = CARTESIAN_POINT ( 'NONE',  ( 0.000000000000000000, 0.000000000000000000, -0.3125000000000000000 ) ) ;
#192 = SURFACE_SIDE_STYLE ('',( #10 ) ) ;
#193 = CARTESIAN_POINT ( 'NONE',  ( 0.000000000000000000, 0.7499999999999998890, 0.000000000000000000 ) ) ;
#194 = DIRECTION ( 'NONE',  ( 1.632862398863137774E-16, 1.000000000000000000, -0.000000000000000000 ) ) ;
#195 = FILL_AREA_STYLE ('',( #104 ) ) ;
#196 =( NAMED_UNIT ( * ) PLANE_ANGLE_UNIT ( ) SI_UNIT ( $, .RADIAN. ) );
#197 = PRODUCT_RELATED_PRODUCT_CATEGORY ( 'part', '', ( #306 ) ) ;
#198 = MECHANICAL_DESIGN_GEOMETRIC_PRESENTATION_REPRESENTATION (  '', ( #97 ), #135 ) ;
#199 = PRESENTATION_STYLE_ASSIGNMENT (( #31 ) ) ;
#200 = CARTESIAN_POINT ( 'NONE',  ( 0.3125000000000000000, 0.7499999999999998890, 3.827021247335477694E-17 ) ) ;
#201 = PRESENTATION_STYLE_ASSIGNMENT (( #134 ) ) ;
#202 = EDGE_LOOP ( 'NONE', ( #127, #259, #3, #19 ) ) ;
#203 = LENGTH_MEASURE_WITH_UNIT ( LENGTH_MEASURE( 0.02539999999999999897 ), #18 );
#204 = SURFACE_STYLE_FILL_AREA ( #279 ) ;
#205 =( GEOMETRIC_REPRESENTATION_CONTEXT ( 3 ) GLOBAL_UNCERTAINTY_ASSIGNED_CONTEXT ( ( #301 ) ) GLOBAL_UNIT_ASSIGNED_CONTEXT ( ( #65, #230, #109 ) ) REPRESENTATION_CONTEXT ( 'NONE', 'WORKASPACE' ) );
#206 = LENGTH_MEASURE_WITH_UNIT ( LENGTH_MEASURE( 0.02539999999999999897 ), #86 );
#207 = EDGE_LOOP ( 'NONE', ( #284, #181 ) ) ;
#208 = CIRCLE ( 'NONE', #175, 0.3125000000000000000 ) ;
#209 = ORIENTED_EDGE ( 'NONE', *, *, #12, .F. ) ;
#210 = ORIENTED_EDGE ( 'NONE', *, *, #287, .F. ) ;
#211 = ORIENTED_EDGE ( 'NONE', *, *, #258, .F. ) ;
#212 =( GEOMETRIC_REPRESENTATION_CONTEXT ( 3 ) GLOBAL_UNCERTAINTY_ASSIGNED_CONTEXT ( ( #245 ) ) GLOBAL_UNIT_ASSIGNED_CONTEXT ( ( #34, #151, #232 ) ) REPRESENTATION_CONTEXT ( 'NONE', 'WORKASPACE' ) );
#213 =( GEOMETRIC_REPRESENTATION_CONTEXT ( 3 ) GLOBAL_UNCERTAINTY_ASSIGNED_CONTEXT ( ( #309 ) ) GLOBAL_UNIT_ASSIGNED_CONTEXT ( ( #157, #106, #79 ) ) REPRESENTATION_CONTEXT ( 'NONE', 'WORKASPACE' ) );
#214 = FACE_OUTER_BOUND ( 'NONE', #112, .T. ) ;
#215 = DIRECTION ( 'NONE',  ( 1.000000000000000000, 0.000000000000000000, 0.000000000000000000 ) ) ;
#216 = CARTESIAN_POINT ( 'NONE',  ( -0.3125000000000000000, 0.7499999999999998890, 0.000000000000000000 ) ) ;
#217 = FILL_AREA_STYLE_COLOUR ( '', #268 ) ;
#218 = PLANE ( 'NONE',  #91 ) ;
#219 = LENGTH_MEASURE_WITH_UNIT ( LENGTH_MEASURE( 0.02539999999999999897 ), #100 );
#220 = SURFACE_STYLE_USAGE ( .BOTH. , #124 ) ;
#221 = LENGTH_MEASURE_WITH_UNIT ( LENGTH_MEASURE( 0.02539999999999999897 ), #102 );
#222 = FILL_AREA_STYLE_COLOUR ( '', #58 ) ;
#223 =( CONVERSION_BASED_UNIT ( 'INCH', #219 ) LENGTH_UNIT ( ) NAMED_UNIT ( #126 ) );
#224 =( LENGTH_UNIT ( ) NAMED_UNIT ( * ) SI_UNIT ( $, .METRE. ) );
#225 = VECTOR ( 'NONE', #149, 39.37007874015748143 ) ;
#226 = AXIS2_PLACEMENT_3D ( 'NONE', #163, #95, #264 ) ;
#227 = VECTOR ( 'NONE', #21, 39.37007874015748143 ) ;
#228 = DIRECTION ( 'NONE',  ( 1.632862398863137774E-16, 1.000000000000000000, -0.000000000000000000 ) ) ;
#229 =( CONVERSION_BASED_UNIT ( 'INCH', #203 ) LENGTH_UNIT ( ) NAMED_UNIT ( #63 ) );
#230 =( NAMED_UNIT ( * ) PLANE_ANGLE_UNIT ( ) SI_UNIT ( $, .RADIAN. ) );
#231 = FACE_OUTER_BOUND ( 'NONE', #167, .T. ) ;
#232 =( NAMED_UNIT ( * ) SI_UNIT ( $, .STERADIAN. ) SOLID_ANGLE_UNIT ( ) );
#233 = PRESENTATION_LAYER_ASSIGNMENT (  '', '', ( #165 ) ) ;
#234 = CLOSED_SHELL ( 'NONE', ( #74, #266, #33, #56 ) ) ;
#235 = CARTESIAN_POINT ( 'NONE',  ( 0.000000000000000000, 0.000000000000000000, -0.3125000000000000000 ) ) ;
#236 = ORIENTED_EDGE ( 'NONE', *, *, #108, .F. ) ;
#237 = CARTESIAN_POINT ( 'NONE',  ( 3.827021247335478926E-17, 0.7499999999999998890, 0.3125000000000000000 ) ) ;
#238 = MECHANICAL_DESIGN_GEOMETRIC_PRESENTATION_REPRESENTATION (  '', ( #165 ), #205 ) ;
#239 = LINE ( 'NONE', #235, #227 ) ;
#240 = ORIENTED_EDGE ( 'NONE', *, *, #45, .F. ) ;
#241 = ORIENTED_EDGE ( 'NONE', *, *, #45, .T. ) ;
#242 = MANIFOLD_SOLID_BREP ( 'Revolve - Tool Body (Straight Shanked)', #234 ) ;
#243 = FACE_OUTER_BOUND ( 'NONE', #70, .T. ) ;
#244 = CARTESIAN_POINT ( 'NONE',  ( 3.673940397442060361E-16, 3.000000000000000444, 0.000000000000000000 ) ) ;
#245 = UNCERTAINTY_MEASURE_WITH_UNIT (LENGTH_MEASURE( 1.000000000000000082E-05 ), #34, 'distance_accuracy_value', 'NONE');
#246 =( NAMED_UNIT ( * ) PLANE_ANGLE_UNIT ( ) SI_UNIT ( $, .RADIAN. ) );
#247 = SURFACE_STYLE_FILL_AREA ( #168 ) ;
#248 = DIMENSIONAL_EXPONENTS ( 1.000000000000000000, 0.000000000000000000, 0.000000000000000000, 0.000000000000000000, 0.000000000000000000, 0.000000000000000000, 0.000000000000000000 ) ;
#249 = AXIS2_PLACEMENT_3D ( 'NONE', #78, #57, #251 ) ;
#250 = APPLICATION_PROTOCOL_DEFINITION ( 'draft international standard', 'automotive_design', 1998, #153 ) ;
#251 = DIRECTION ( 'NONE',  ( -1.000000000000000000, 0.000000000000000000, 0.000000000000000000 ) ) ;
#252 = DIRECTION ( 'NONE',  ( -0.000000000000000000, -1.000000000000000000, -0.000000000000000000 ) ) ;
#253 = UNCERTAINTY_MEASURE_WITH_UNIT (LENGTH_MEASURE( 1.000000000000000082E-05 ), #38, 'distance_accuracy_value', 'NONE');
#254 = SURFACE_STYLE_FILL_AREA ( #133 ) ;
#255 = ADVANCED_FACE ( 'NONE', ( #171 ), #99, .T. ) ;
#256 = CARTESIAN_POINT ( 'NONE',  ( 0.3125000000000000000, 3.000000000000000444, 3.827021247335477694E-17 ) ) ;
#257 = CARTESIAN_POINT ( 'NONE',  ( 3.673940397442060361E-16, 3.000000000000000444, 0.000000000000000000 ) ) ;
#258 = EDGE_CURVE ( 'NONE', #283, #68, #170, .T. ) ;
#259 = ORIENTED_EDGE ( 'NONE', *, *, #108, .T. ) ;
#260 = AXIS2_PLACEMENT_3D ( 'NONE', #257, #44, #105 ) ;
#261 = AXIS2_PLACEMENT_3D ( 'NONE', #22, #292, #215 ) ;
#262 = PRODUCT_DEFINITION ( 'UNKNOWN', '', #111, #263 ) ;
#263 = PRODUCT_DEFINITION_CONTEXT ( 'detailed design', #153, 'design' ) ;
#264 = DIRECTION ( 'NONE',  ( 0.000000000000000000, 0.000000000000000000, -1.000000000000000000 ) ) ;
#265 = EDGE_LOOP ( 'NONE', ( #14, #241, #307, #29 ) ) ;
#266 = ADVANCED_FACE ( 'NONE', ( #243 ), #28, .F. ) ;
#267 = CIRCLE ( 'NONE', #110, 0.3125000000000000000 ) ;
#268 = COLOUR_RGB ( '',1.000000000000000000, 0.000000000000000000, 0.000000000000000000 ) ;
#269 = LENGTH_MEASURE_WITH_UNIT ( LENGTH_MEASURE( 0.02539999999999999897 ), #190 );
#270 = DIRECTION ( 'NONE',  ( 0.000000000000000000, 0.000000000000000000, -1.000000000000000000 ) ) ;
#271 = DIMENSIONAL_EXPONENTS ( 1.000000000000000000, 0.000000000000000000, 0.000000000000000000, 0.000000000000000000, 0.000000000000000000, 0.000000000000000000, 0.000000000000000000 ) ;
#272 =( GEOMETRIC_REPRESENTATION_CONTEXT ( 3 ) GLOBAL_UNCERTAINTY_ASSIGNED_CONTEXT ( ( #253 ) ) GLOBAL_UNIT_ASSIGNED_CONTEXT ( ( #38, #300, #59 ) ) REPRESENTATION_CONTEXT ( 'NONE', 'WORKASPACE' ) );
#273 =( NAMED_UNIT ( * ) SI_UNIT ( $, .STERADIAN. ) SOLID_ANGLE_UNIT ( ) );
#274 = CARTESIAN_POINT ( 'NONE',  ( 3.827021247335478926E-17, 0.000000000000000000, 0.3125000000000000000 ) ) ;
#275 = FILL_AREA_STYLE_COLOUR ( '', #72 ) ;
#276 = VECTOR ( 'NONE', #94, 39.37007874015748143 ) ;
#277 = LENGTH_MEASURE_WITH_UNIT ( LENGTH_MEASURE( 0.02539999999999999897 ), #303 );
#278 = FILL_AREA_STYLE_COLOUR ( '', #136 ) ;
#279 = FILL_AREA_STYLE ('',( #275 ) ) ;
#280 = STYLED_ITEM ( 'NONE', ( #145 ), #62 ) ;
#281 = EDGE_LOOP ( 'NONE', ( #140, #60, #209, #166 ) ) ;
#282 = PRESENTATION_LAYER_ASSIGNMENT (  '', '', ( #139 ) ) ;
#283 = VERTEX_POINT ( 'NONE', #216 ) ;
#284 = ORIENTED_EDGE ( 'NONE', *, *, #141, .T. ) ;
#285 = ADVANCED_BREP_SHAPE_REPRESENTATION ( '05607', ( #144, #242, #261 ), #212 ) ;
#286 = CARTESIAN_POINT ( 'NONE',  ( 0.3125000000000002220, 3.000000000000000444, 3.827021247335477078E-17 ) ) ;
#287 = EDGE_CURVE ( 'NONE', #142, #113, #208, .T. ) ;
#288 = DIRECTION ( 'NONE',  ( 0.000000000000000000, 0.000000000000000000, -1.000000000000000000 ) ) ;
#289 = COLOUR_RGB ( '',1.000000000000000000, 0.000000000000000000, 0.000000000000000000 ) ;
#290 =( GEOMETRIC_REPRESENTATION_CONTEXT ( 3 ) GLOBAL_UNCERTAINTY_ASSIGNED_CONTEXT ( ( #122 ) ) GLOBAL_UNIT_ASSIGNED_CONTEXT ( ( #229, #299, #43 ) ) REPRESENTATION_CONTEXT ( 'NONE', 'WORKASPACE' ) );
#291 = LINE ( 'NONE', #75, #225 ) ;
#292 = DIRECTION ( 'NONE',  ( 0.000000000000000000, 0.000000000000000000, 1.000000000000000000 ) ) ;
#293 = DIRECTION ( 'NONE',  ( -1.632862398863137774E-16, -1.000000000000000000, 0.000000000000000000 ) ) ;
#294 = PRODUCT_CONTEXT ( 'NONE', #179, 'mechanical' ) ;
#295 = DIRECTION ( 'NONE',  ( 1.632862398863137774E-16, 1.000000000000000000, -0.000000000000000000 ) ) ;
#296 =( NAMED_UNIT ( * ) SI_UNIT ( $, .STERADIAN. ) SOLID_ANGLE_UNIT ( ) );
#297 = MECHANICAL_DESIGN_GEOMETRIC_PRESENTATION_REPRESENTATION (  '', ( #41 ), #213 ) ;
#298 = AXIS2_PLACEMENT_3D ( 'NONE', #188, #17, #177 ) ;
#299 =( NAMED_UNIT ( * ) PLANE_ANGLE_UNIT ( ) SI_UNIT ( $, .RADIAN. ) );
#300 =( NAMED_UNIT ( * ) PLANE_ANGLE_UNIT ( ) SI_UNIT ( $, .RADIAN. ) );
#301 = UNCERTAINTY_MEASURE_WITH_UNIT (LENGTH_MEASURE( 1.000000000000000082E-05 ), #65, 'distance_accuracy_value', 'NONE');
#302 = FACE_OUTER_BOUND ( 'NONE', #202, .T. ) ;
#303 =( LENGTH_UNIT ( ) NAMED_UNIT ( * ) SI_UNIT ( $, .METRE. ) );
#304 = DIRECTION ( 'NONE',  ( 0.000000000000000000, 0.000000000000000000, -1.000000000000000000 ) ) ;
#305 = PRESENTATION_LAYER_ASSIGNMENT (  '', '', ( #25 ) ) ;
#306 = PRODUCT ( '05607', '05607', '', ( #294 ) ) ;
#307 = ORIENTED_EDGE ( 'NONE', *, *, #5, .T. ) ;
#308 = ORIENTED_EDGE ( 'NONE', *, *, #20, .T. ) ;
#309 = UNCERTAINTY_MEASURE_WITH_UNIT (LENGTH_MEASURE( 1.000000000000000082E-05 ), #157, 'distance_accuracy_value', 'NONE');
ENDSEC;
END-ISO-10303-21;
