ISO-10303-21;
HEADER;
FILE_DESCRIPTION (( 'STEP AP214' ),
    '1' );
FILE_NAME ('Micro_SFLM-040-70.STEP',
    '2021-09-02T05:32:10',
    ( '' ),
    ( '' ),
    'SwSTEP 2.0',
    'SolidWorks 2020',
    '' );
FILE_SCHEMA (( 'AUTOMOTIVE_DESIGN' ));
ENDSEC;

DATA;
#1 = CIRCLE ( 'NONE', #209, 0.07866125999999999674 ) ;
#2 = MECHANICAL_DESIGN_GEOMETRIC_PRESENTATION_REPRESENTATION (  '', ( #292 ), #272 ) ;
#3 = ORIENTED_EDGE ( 'NONE', *, *, #220, .F. ) ;
#4 = ORIENTED_EDGE ( 'NONE', *, *, #194, .T. ) ;
#5 = VECTOR ( 'NONE', #188, 39.37007874015748143 ) ;
#6 = EDGE_LOOP ( 'NONE', ( #216, #299, #191, #45 ) ) ;
#7 = ORIENTED_EDGE ( 'NONE', *, *, #213, .F. ) ;
#8 = DIRECTION ( 'NONE',  ( -1.000000000000000000, 0.0000000000000000000, 0.0000000000000000000 ) ) ;
#9 = FACE_OUTER_BOUND ( 'NONE', #201, .T. ) ;
#10 = AXIS2_PLACEMENT_3D ( 'NONE', #164, #266, #8 ) ;
#11 = LINE ( 'NONE', #98, #61 ) ;
#12 = LINE ( 'NONE', #99, #5 ) ;
#13 = DIRECTION ( 'NONE',  ( -0.1736481776669311639, 2.126576849575783008E-17, 0.9848077530122080203 ) ) ;
#14 = AXIS2_PLACEMENT_3D ( 'NONE', #284, #280, #232 ) ;
#15 = CARTESIAN_POINT ( 'NONE',  ( 0.1181100000000001454, 1.446430334472940625E-17, 1.011126921968824810 ) ) ;
#16 = CARTESIAN_POINT ( 'NONE',  ( -0.1181099999999998956, 0.0000000000000000000, 1.011126921968824810 ) ) ;
#17 = ORIENTED_EDGE ( 'NONE', *, *, #247, .F. ) ;
#18 =( LENGTH_UNIT ( ) NAMED_UNIT ( * ) SI_UNIT ( $, .METRE. ) );
#19 = STYLED_ITEM ( 'NONE', ( #49 ), #97 ) ;
#20 = ORIENTED_EDGE ( 'NONE', *, *, #77, .T. ) ;
#21 = DIMENSIONAL_EXPONENTS ( 1.000000000000000000, 0.0000000000000000000, 0.0000000000000000000, 0.0000000000000000000, 0.0000000000000000000, 0.0000000000000000000, 0.0000000000000000000 ) ;
#22 = EDGE_LOOP ( 'NONE', ( #4, #104, #221, #130 ) ) ;
#23 = VECTOR ( 'NONE', #225, 39.37007874015748143 ) ;
#24 = DIRECTION ( 'NONE',  ( 1.000000000000000000, 0.0000000000000000000, 0.0000000000000000000 ) ) ;
#25 = DIMENSIONAL_EXPONENTS ( 1.000000000000000000, 0.0000000000000000000, 0.0000000000000000000, 0.0000000000000000000, 0.0000000000000000000, 0.0000000000000000000, 0.0000000000000000000 ) ;
#26 = LINE ( 'NONE', #92, #203 ) ;
#27 = AXIS2_PLACEMENT_3D ( 'NONE', #96, #74, #289 ) ;
#28 = PRODUCT_RELATED_PRODUCT_CATEGORY ( 'part', '', ( #62 ) ) ;
#29 = CARTESIAN_POINT ( 'NONE',  ( 0.0000000000000000000, 0.0000000000000000000, 0.0000000000000000000 ) ) ;
#30 = ADVANCED_FACE ( 'NONE', ( #67 ), #133, .T. ) ;
#31 = CARTESIAN_POINT ( 'NONE',  ( 0.0000000000000000000, 0.0000000000000000000, 0.0000000000000000000 ) ) ;
#32 = EDGE_CURVE ( 'NONE', #123, #274, #26, .T. ) ;
#33 = CARTESIAN_POINT ( 'NONE',  ( 9.642893389422242582E-17, 0.0000000000000000000, 0.7874019999999999353 ) ) ;
#34 = VECTOR ( 'NONE', #249, 39.37007874015748854 ) ;
#35 = SURFACE_STYLE_USAGE ( .BOTH. , #217 ) ;
#36 = DIRECTION ( 'NONE',  ( -1.000000000000000000, 0.0000000000000000000, 0.0000000000000000000 ) ) ;
#37 = CARTESIAN_POINT ( 'NONE',  ( -0.07866125999999999674, 0.0000000000000000000, 1.926645205517954173E-17 ) ) ;
#38 = APPLICATION_CONTEXT ( 'automotive_design' ) ;
#39 = DIRECTION ( 'NONE',  ( -0.0000000000000000000, -0.0000000000000000000, -1.000000000000000000 ) ) ;
#40 = VECTOR ( 'NONE', #39, 39.37007874015748143 ) ;
#41 = CARTESIAN_POINT ( 'NONE',  ( -0.07866125999999999674, 0.0000000000000000000, 9.633226027589770864E-18 ) ) ;
#42 = CARTESIAN_POINT ( 'NONE',  ( 0.1181100000000000066, 1.446430334472939084E-17, 2.937755999999999368 ) ) ;
#43 =( NAMED_UNIT ( * ) PLANE_ANGLE_UNIT ( ) SI_UNIT ( $, .RADIAN. ) );
#44 = MECHANICAL_DESIGN_GEOMETRIC_PRESENTATION_REPRESENTATION (  '', ( #19 ), #50 ) ;
#45 = ORIENTED_EDGE ( 'NONE', *, *, #175, .F. ) ;
#46 = ORIENTED_EDGE ( 'NONE', *, *, #75, .F. ) ;
#47 = ORIENTED_EDGE ( 'NONE', *, *, #175, .T. ) ;
#48 = EDGE_LOOP ( 'NONE', ( #134, #3, #84, #226 ) ) ;
#49 = PRESENTATION_STYLE_ASSIGNMENT (( #259 ) ) ;
#50 =( GEOMETRIC_REPRESENTATION_CONTEXT ( 3 ) GLOBAL_UNCERTAINTY_ASSIGNED_CONTEXT ( ( #165 ) ) GLOBAL_UNIT_ASSIGNED_CONTEXT ( ( #235, #113, #241 ) ) REPRESENTATION_CONTEXT ( 'NONE', 'WORKASPACE' ) );
#51 = CARTESIAN_POINT ( 'NONE',  ( -0.1181100000000000066, 0.0000000000000000000, 2.937755999999999368 ) ) ;
#52 = PLANE ( 'NONE',  #148 ) ;
#53 = FACE_OUTER_BOUND ( 'NONE', #131, .T. ) ;
#54 = CARTESIAN_POINT ( 'NONE',  ( -0.07866125999999988572, 9.633226027589770864E-18, 0.7874019999999999353 ) ) ;
#55 = AXIS2_PLACEMENT_3D ( 'NONE', #63, #179, #24 ) ;
#56 = DIRECTION ( 'NONE',  ( -1.000000000000000000, 0.0000000000000000000, 0.0000000000000000000 ) ) ;
#57 = EDGE_CURVE ( 'NONE', #149, #199, #132, .T. ) ;
#58 = CONICAL_SURFACE ( 'NONE', #122, 0.1031099999999991607, 0.7853981633974500554 ) ;
#59 = CARTESIAN_POINT ( 'NONE',  ( 0.07866125999999999674, 9.633226027589770864E-18, 0.0000000000000000000 ) ) ;
#60 = ORIENTED_EDGE ( 'NONE', *, *, #227, .F. ) ;
#61 = VECTOR ( 'NONE', #187, 39.37007874015748854 ) ;
#62 = PRODUCT ( 'Micro_SFLM-040-70', 'Micro_SFLM-040-70', '', ( #90 ) ) ;
#63 = CARTESIAN_POINT ( 'NONE',  ( 1.238273348520836934E-16, 0.0000000000000000000, 1.011126921968824810 ) ) ;
#64 = CARTESIAN_POINT ( 'NONE',  ( 0.0000000000000000000, 0.0000000000000000000, 2.937755999999999368 ) ) ;
#65 =( LENGTH_UNIT ( ) NAMED_UNIT ( * ) SI_UNIT ( $, .METRE. ) );
#66 = CARTESIAN_POINT ( 'NONE',  ( 0.0000000000000000000, 0.0000000000000000000, 2.952755999999999936 ) ) ;
#67 = FACE_OUTER_BOUND ( 'NONE', #88, .T. ) ;
#68 = SURFACE_STYLE_FILL_AREA ( #279 ) ;
#69 = DIRECTION ( 'NONE',  ( -1.224646799147353207E-16, -0.0000000000000000000, -1.000000000000000000 ) ) ;
#70 = COLOUR_RGB ( '',0.7921568627450980005, 0.8196078431372548767, 0.9333333333333333481 ) ;
#71 = CARTESIAN_POINT ( 'NONE',  ( 0.1031099999999991607, 1.354581824536882251E-17, 2.952755999999999936 ) ) ;
#72 = DIRECTION ( 'NONE',  ( -1.224646799147353207E-16, -0.0000000000000000000, -1.000000000000000000 ) ) ;
#73 = UNCERTAINTY_MEASURE_WITH_UNIT (LENGTH_MEASURE( 1.000000000000000082E-05 ), #80, 'distance_accuracy_value', 'NONE');
#74 = DIRECTION ( 'NONE',  ( 1.224646799147353207E-16, 0.0000000000000000000, 1.000000000000000000 ) ) ;
#75 = EDGE_CURVE ( 'NONE', #206, #274, #185, .T. ) ;
#76 = AXIS2_PLACEMENT_3D ( 'NONE', #143, #78, #124 ) ;
#77 = EDGE_CURVE ( 'NONE', #151, #252, #127, .T. ) ;
#78 = DIRECTION ( 'NONE',  ( -1.224646799147353207E-16, -0.0000000000000000000, -1.000000000000000000 ) ) ;
#79 = CARTESIAN_POINT ( 'NONE',  ( 0.1181100000000000066, 1.446430334472939084E-17, 2.952755999999999936 ) ) ;
#80 =( CONVERSION_BASED_UNIT ( 'INCH', #298 ) LENGTH_UNIT ( ) NAMED_UNIT ( #94 ) );
#81 = EDGE_LOOP ( 'NONE', ( #202, #144 ) ) ;
#82 = CARTESIAN_POINT ( 'NONE',  ( 0.07866126000000009388, 0.0000000000000000000, 0.7874019999999999353 ) ) ;
#83 =( CONVERSION_BASED_UNIT ( 'INCH', #193 ) LENGTH_UNIT ( ) NAMED_UNIT ( #21 ) );
#84 = ORIENTED_EDGE ( 'NONE', *, *, #227, .T. ) ;
#85 = AXIS2_PLACEMENT_3D ( 'NONE', #162, #263, #137 ) ;
#86 = LENGTH_MEASURE_WITH_UNIT ( LENGTH_MEASURE( 0.02539999999999999897 ), #136 );
#87 = DIRECTION ( 'NONE',  ( -0.0000000000000000000, -0.0000000000000000000, -1.000000000000000000 ) ) ;
#88 = EDGE_LOOP ( 'NONE', ( #198, #20 ) ) ;
#89 = VECTOR ( 'NONE', #242, 39.37007874015748143 ) ;
#90 = PRODUCT_CONTEXT ( 'NONE', #38, 'mechanical' ) ;
#91 = ORIENTED_EDGE ( 'NONE', *, *, #77, .F. ) ;
#92 = CARTESIAN_POINT ( 'NONE',  ( -0.1181100000000000066, 0.0000000000000000000, 2.952755999999999936 ) ) ;
#93 = DIRECTION ( 'NONE',  ( 0.0000000000000000000, 0.0000000000000000000, 1.000000000000000000 ) ) ;
#94 = DIMENSIONAL_EXPONENTS ( 1.000000000000000000, 0.0000000000000000000, 0.0000000000000000000, 0.0000000000000000000, 0.0000000000000000000, 0.0000000000000000000, 0.0000000000000000000 ) ;
#95 = PRESENTATION_LAYER_ASSIGNMENT (  '', '', ( #292 ) ) ;
#96 = CARTESIAN_POINT ( 'NONE',  ( 9.642893389422242582E-17, 0.0000000000000000000, 0.7874019999999999353 ) ) ;
#97 = MANIFOLD_SOLID_BREP ( 'Cut-Revolve1', #174 ) ;
#98 = CARTESIAN_POINT ( 'NONE',  ( 0.1031099999999991607, 1.262733314600825571E-17, 2.952755999999999936 ) ) ;
#99 = CARTESIAN_POINT ( 'NONE',  ( 0.07866126000000009388, 0.0000000000000000000, 0.7874019999999999353 ) ) ;
#100 = EDGE_CURVE ( 'NONE', #276, #123, #240, .T. ) ;
#101 = DIRECTION ( 'NONE',  ( 1.224646799147353207E-16, 0.0000000000000000000, 1.000000000000000000 ) ) ;
#102 = CIRCLE ( 'NONE', #139, 0.1031099999999991607 ) ;
#103 = FILL_AREA_STYLE_COLOUR ( '', #231 ) ;
#104 = ORIENTED_EDGE ( 'NONE', *, *, #213, .T. ) ;
#105 = ADVANCED_FACE ( 'NONE', ( #184 ), #118, .T. ) ;
#106 = VERTEX_POINT ( 'NONE', #37 ) ;
#107 = CIRCLE ( 'NONE', #85, 0.1181100000000000066 ) ;
#108 = EDGE_CURVE ( 'NONE', #149, #274, #167, .T. ) ;
#109 = ORIENTED_EDGE ( 'NONE', *, *, #135, .F. ) ;
#110 = ORIENTED_EDGE ( 'NONE', *, *, #145, .T. ) ;
#111 = DIRECTION ( 'NONE',  ( 1.000000000000000000, 0.0000000000000000000, 0.0000000000000000000 ) ) ;
#112 = CIRCLE ( 'NONE', #222, 0.07866125999999999674 ) ;
#113 =( NAMED_UNIT ( * ) PLANE_ANGLE_UNIT ( ) SI_UNIT ( $, .RADIAN. ) );
#114 = FILL_AREA_STYLE ('',( #103 ) ) ;
#115 = DIRECTION ( 'NONE',  ( 1.000000000000000000, 0.0000000000000000000, 0.0000000000000000000 ) ) ;
#116 = EDGE_CURVE ( 'NONE', #199, #149, #112, .T. ) ;
#117 = DIRECTION ( 'NONE',  ( -1.224646799147353207E-16, -0.0000000000000000000, -1.000000000000000000 ) ) ;
#118 = CYLINDRICAL_SURFACE ( 'NONE', #255, 0.1181100000000000066 ) ;
#119 = FACE_OUTER_BOUND ( 'NONE', #81, .T. ) ;
#120 = ADVANCED_FACE ( 'NONE', ( #268 ), #58, .T. ) ;
#121 = DIRECTION ( 'NONE',  ( -1.000000000000000000, 0.0000000000000000000, 1.224646799147352961E-16 ) ) ;
#122 = AXIS2_PLACEMENT_3D ( 'NONE', #291, #138, #56 ) ;
#123 = VERTEX_POINT ( 'NONE', #51 ) ;
#124 = DIRECTION ( 'NONE',  ( -1.000000000000000000, 0.0000000000000000000, 1.224646799147352961E-16 ) ) ;
#125 = ORIENTED_EDGE ( 'NONE', *, *, #108, .F. ) ;
#126 = ADVANCED_FACE ( 'NONE', ( #119 ), #52, .F. ) ;
#127 = CIRCLE ( 'NONE', #176, 0.1031099999999991607 ) ;
#128 = CARTESIAN_POINT ( 'NONE',  ( -0.1031099999999991607, 0.0000000000000000000, 2.952755999999999936 ) ) ;
#129 = EDGE_LOOP ( 'NONE', ( #7, #178, #223, #46 ) ) ;
#130 = ORIENTED_EDGE ( 'NONE', *, *, #32, .F. ) ;
#131 = EDGE_LOOP ( 'NONE', ( #91, #256, #283, #60 ) ) ;
#132 = CIRCLE ( 'NONE', #14, 0.07866125999999999674 ) ;
#133 = PLANE ( 'NONE',  #246 ) ;
#134 = ORIENTED_EDGE ( 'NONE', *, *, #171, .F. ) ;
#135 = EDGE_CURVE ( 'NONE', #106, #197, #1, .T. ) ;
#136 =( LENGTH_UNIT ( ) NAMED_UNIT ( * ) SI_UNIT ( $, .METRE. ) );
#137 = DIRECTION ( 'NONE',  ( 1.000000000000000000, 0.0000000000000000000, 0.0000000000000000000 ) ) ;
#138 = DIRECTION ( 'NONE',  ( 0.0000000000000000000, 0.0000000000000000000, -1.000000000000000000 ) ) ;
#139 = AXIS2_PLACEMENT_3D ( 'NONE', #169, #273, #147 ) ;
#140 = CARTESIAN_POINT ( 'NONE',  ( 0.07866125999999999674, 9.633226027589770864E-18, -9.633226027589770864E-18 ) ) ;
#141 = DIRECTION ( 'NONE',  ( 0.0000000000000000000, 0.0000000000000000000, -1.000000000000000000 ) ) ;
#142 = CONICAL_SURFACE ( 'NONE', #27, 0.07866125999999999674, 0.1745329251994338637 ) ;
#143 = CARTESIAN_POINT ( 'NONE',  ( 0.0000000000000000000, 0.0000000000000000000, 0.0000000000000000000 ) ) ;
#144 = ORIENTED_EDGE ( 'NONE', *, *, #247, .T. ) ;
#145 = EDGE_CURVE ( 'NONE', #199, #197, #290, .T. ) ;
#146 =( NAMED_UNIT ( * ) SI_UNIT ( $, .STERADIAN. ) SOLID_ANGLE_UNIT ( ) );
#147 = DIRECTION ( 'NONE',  ( 1.000000000000000000, 0.0000000000000000000, 0.0000000000000000000 ) ) ;
#148 = AXIS2_PLACEMENT_3D ( 'NONE', #29, #93, #156 ) ;
#149 = VERTEX_POINT ( 'NONE', #287 ) ;
#150 = ADVANCED_FACE ( 'NONE', ( #260 ), #286, .T. ) ;
#151 = VERTEX_POINT ( 'NONE', #71 ) ;
#152 = CONICAL_SURFACE ( 'NONE', #297, 0.1031099999999991607, 0.7853981633974500554 ) ;
#153 = DIRECTION ( 'NONE',  ( 0.0000000000000000000, 0.0000000000000000000, 1.000000000000000000 ) ) ;
#154 = EDGE_CURVE ( 'NONE', #274, #206, #107, .T. ) ;
#155 = SURFACE_SIDE_STYLE ('',( #68 ) ) ;
#156 = DIRECTION ( 'NONE',  ( 1.000000000000000000, 0.0000000000000000000, -0.0000000000000000000 ) ) ;
#157 = SURFACE_STYLE_FILL_AREA ( #114 ) ;
#158 = AXIS2_PLACEMENT_3D ( 'NONE', #218, #141, #243 ) ;
#159 = CARTESIAN_POINT ( 'NONE',  ( 1.179729942015078748E-33, 0.0000000000000000000, 9.633226027589770864E-18 ) ) ;
#160 = ADVANCED_FACE ( 'NONE', ( #9 ), #186, .T. ) ;
#161 = CARTESIAN_POINT ( 'NONE',  ( 0.0000000000000000000, 0.0000000000000000000, 0.0000000000000000000 ) ) ;
#162 = CARTESIAN_POINT ( 'NONE',  ( 1.238273348520836934E-16, 0.0000000000000000000, 1.011126921968824810 ) ) ;
#163 = ADVANCED_FACE ( 'NONE', ( #212 ), #142, .T. ) ;
#164 = CARTESIAN_POINT ( 'NONE',  ( 0.0000000000000000000, 0.0000000000000000000, 2.952755999999999936 ) ) ;
#165 = UNCERTAINTY_MEASURE_WITH_UNIT (LENGTH_MEASURE( 1.000000000000000082E-05 ), #235, 'distance_accuracy_value', 'NONE');
#166 = ADVANCED_FACE ( 'NONE', ( #53 ), #152, .T. ) ;
#167 = LINE ( 'NONE', #54, #282 ) ;
#168 = PRODUCT_DEFINITION ( 'UNKNOWN', '', #205, #211 ) ;
#169 = CARTESIAN_POINT ( 'NONE',  ( 0.0000000000000000000, 0.0000000000000000000, 2.952755999999999936 ) ) ;
#170 = AXIS2_PLACEMENT_3D ( 'NONE', #161, #281, #264 ) ;
#171 = EDGE_CURVE ( 'NONE', #151, #276, #11, .T. ) ;
#172 = CARTESIAN_POINT ( 'NONE',  ( -0.1031099999999991607, 0.0000000000000000000, 2.952755999999999936 ) ) ;
#173 = ORIENTED_EDGE ( 'NONE', *, *, #57, .T. ) ;
#174 = CLOSED_SHELL ( 'NONE', ( #160, #293, #166, #150, #105, #30, #120, #163, #257, #126 ) ) ;
#175 = EDGE_CURVE ( 'NONE', #199, #206, #12, .T. ) ;
#176 = AXIS2_PLACEMENT_3D ( 'NONE', #66, #153, #111 ) ;
#177 = FILL_AREA_STYLE_COLOUR ( '', #70 ) ;
#178 = ORIENTED_EDGE ( 'NONE', *, *, #100, .T. ) ;
#179 = DIRECTION ( 'NONE',  ( -1.224646799147353207E-16, -0.0000000000000000000, -1.000000000000000000 ) ) ;
#180 =( GEOMETRIC_REPRESENTATION_CONTEXT ( 3 ) GLOBAL_UNCERTAINTY_ASSIGNED_CONTEXT ( ( #73 ) ) GLOBAL_UNIT_ASSIGNED_CONTEXT ( ( #80, #43, #277 ) ) REPRESENTATION_CONTEXT ( 'NONE', 'WORKASPACE' ) );
#181 = APPLICATION_PROTOCOL_DEFINITION ( 'draft international standard', 'automotive_design', 1998, #275 ) ;
#182 = DIRECTION ( 'NONE',  ( 1.000000000000000000, 0.0000000000000000000, -0.0000000000000000000 ) ) ;
#183 = DIRECTION ( 'NONE',  ( -1.000000000000000000, 0.0000000000000000000, 1.224646799147352961E-16 ) ) ;
#184 = FACE_OUTER_BOUND ( 'NONE', #129, .T. ) ;
#185 = CIRCLE ( 'NONE', #55, 0.1181100000000000066 ) ;
#186 = CYLINDRICAL_SURFACE ( 'NONE', #261, 0.07866125999999999674 ) ;
#187 = DIRECTION ( 'NONE',  ( 0.7071067811865486830, 8.659560562354947649E-17, -0.7071067811865462405 ) ) ;
#188 = DIRECTION ( 'NONE',  ( 0.1736481776669313581, 0.0000000000000000000, 0.9848077530122077983 ) ) ;
#189 = PRESENTATION_LAYER_ASSIGNMENT (  '', '', ( #19 ) ) ;
#190 = LINE ( 'NONE', #79, #40 ) ;
#191 = ORIENTED_EDGE ( 'NONE', *, *, #154, .T. ) ;
#192 = FACE_OUTER_BOUND ( 'NONE', #6, .T. ) ;
#193 = LENGTH_MEASURE_WITH_UNIT ( LENGTH_MEASURE( 0.02539999999999999897 ), #65 );
#194 = EDGE_CURVE ( 'NONE', #123, #276, #267, .T. ) ;
#195 = LINE ( 'NONE', #128, #34 ) ;
#196 = EDGE_LOOP ( 'NONE', ( #234, #278, #295, #17 ) ) ;
#197 = VERTEX_POINT ( 'NONE', #59 ) ;
#198 = ORIENTED_EDGE ( 'NONE', *, *, #220, .T. ) ;
#199 = VERTEX_POINT ( 'NONE', #82 ) ;
#200 = ADVANCED_BREP_SHAPE_REPRESENTATION ( 'Micro_SFLM-040-70', ( #97, #170 ), #180 ) ;
#201 = EDGE_LOOP ( 'NONE', ( #173, #110, #109, #245 ) ) ;
#202 = ORIENTED_EDGE ( 'NONE', *, *, #135, .T. ) ;
#203 = VECTOR ( 'NONE', #87, 39.37007874015748143 ) ;
#204 = CIRCLE ( 'NONE', #288, 0.07866125999999999674 ) ;
#205 = PRODUCT_DEFINITION_FORMATION_WITH_SPECIFIED_SOURCE ( 'ANY', '', #62, .NOT_KNOWN. ) ;
#206 = VERTEX_POINT ( 'NONE', #15 ) ;
#207 = DIRECTION ( 'NONE',  ( -1.000000000000000000, 0.0000000000000000000, 0.0000000000000000000 ) ) ;
#208 = DIRECTION ( 'NONE',  ( -1.000000000000000000, 0.0000000000000000000, 1.224646799147352961E-16 ) ) ;
#209 = AXIS2_PLACEMENT_3D ( 'NONE', #159, #72, #183 ) ;
#210 = DIRECTION ( 'NONE',  ( 0.0000000000000000000, 0.0000000000000000000, -1.000000000000000000 ) ) ;
#211 = PRODUCT_DEFINITION_CONTEXT ( 'detailed design', #275, 'design' ) ;
#212 = FACE_OUTER_BOUND ( 'NONE', #219, .T. ) ;
#213 = EDGE_CURVE ( 'NONE', #276, #206, #190, .T. ) ;
#214 = DIRECTION ( 'NONE',  ( -1.000000000000000000, 0.0000000000000000000, 0.0000000000000000000 ) ) ;
#215 = CYLINDRICAL_SURFACE ( 'NONE', #76, 0.07866125999999999674 ) ;
#216 = ORIENTED_EDGE ( 'NONE', *, *, #57, .F. ) ;
#217 = SURFACE_SIDE_STYLE ('',( #157 ) ) ;
#218 = CARTESIAN_POINT ( 'NONE',  ( 0.0000000000000000000, 0.0000000000000000000, 2.937755999999999368 ) ) ;
#219 = EDGE_LOOP ( 'NONE', ( #125, #228, #47, #258 ) ) ;
#220 = EDGE_CURVE ( 'NONE', #252, #151, #102, .T. ) ;
#221 = ORIENTED_EDGE ( 'NONE', *, *, #154, .F. ) ;
#222 = AXIS2_PLACEMENT_3D ( 'NONE', #33, #69, #207 ) ;
#223 = ORIENTED_EDGE ( 'NONE', *, *, #32, .T. ) ;
#224 = PRESENTATION_STYLE_ASSIGNMENT (( #35 ) ) ;
#225 = DIRECTION ( 'NONE',  ( -1.224646799147353207E-16, -0.0000000000000000000, -1.000000000000000000 ) ) ;
#226 = ORIENTED_EDGE ( 'NONE', *, *, #100, .F. ) ;
#227 = EDGE_CURVE ( 'NONE', #252, #123, #195, .T. ) ;
#228 = ORIENTED_EDGE ( 'NONE', *, *, #116, .F. ) ;
#229 = CONICAL_SURFACE ( 'NONE', #271, 0.07866125999999999674, 0.1745329251994338637 ) ;
#230 = CARTESIAN_POINT ( 'NONE',  ( 0.0000000000000000000, 0.0000000000000000000, 2.952755999999999936 ) ) ;
#231 = COLOUR_RGB ( '',0.7921568627450980005, 0.8196078431372548767, 0.9333333333333333481 ) ;
#232 = DIRECTION ( 'NONE',  ( -1.000000000000000000, 0.0000000000000000000, 0.0000000000000000000 ) ) ;
#233 = UNCERTAINTY_MEASURE_WITH_UNIT (LENGTH_MEASURE( 1.000000000000000082E-05 ), #83, 'distance_accuracy_value', 'NONE');
#234 = ORIENTED_EDGE ( 'NONE', *, *, #145, .F. ) ;
#235 =( CONVERSION_BASED_UNIT ( 'INCH', #86 ) LENGTH_UNIT ( ) NAMED_UNIT ( #25 ) );
#236 =( NAMED_UNIT ( * ) PLANE_ANGLE_UNIT ( ) SI_UNIT ( $, .RADIAN. ) );
#237 = DIRECTION ( 'NONE',  ( 0.0000000000000000000, 0.0000000000000000000, -1.000000000000000000 ) ) ;
#238 = CARTESIAN_POINT ( 'NONE',  ( 0.0000000000000000000, 0.0000000000000000000, 2.952755999999999936 ) ) ;
#239 = CARTESIAN_POINT ( 'NONE',  ( 0.0000000000000000000, 0.0000000000000000000, 2.952755999999999936 ) ) ;
#240 = CIRCLE ( 'NONE', #248, 0.1181100000000000066 ) ;
#241 =( NAMED_UNIT ( * ) SI_UNIT ( $, .STERADIAN. ) SOLID_ANGLE_UNIT ( ) );
#242 = DIRECTION ( 'NONE',  ( -1.224646799147353207E-16, -0.0000000000000000000, -1.000000000000000000 ) ) ;
#243 = DIRECTION ( 'NONE',  ( 1.000000000000000000, 0.0000000000000000000, 0.0000000000000000000 ) ) ;
#244 = PRODUCT_DEFINITION_SHAPE ( 'NONE', 'NONE',  #168 ) ;
#245 = ORIENTED_EDGE ( 'NONE', *, *, #254, .F. ) ;
#246 = AXIS2_PLACEMENT_3D ( 'NONE', #230, #253, #182 ) ;
#247 = EDGE_CURVE ( 'NONE', #197, #106, #204, .T. ) ;
#248 = AXIS2_PLACEMENT_3D ( 'NONE', #64, #237, #115 ) ;
#249 = DIRECTION ( 'NONE',  ( -0.7071067811865486830, 0.0000000000000000000, -0.7071067811865462405 ) ) ;
#250 = DIRECTION ( 'NONE',  ( 1.000000000000000000, 0.0000000000000000000, 0.0000000000000000000 ) ) ;
#251 = CARTESIAN_POINT ( 'NONE',  ( 1.179729942015078748E-33, 0.0000000000000000000, 9.633226027589770864E-18 ) ) ;
#252 = VERTEX_POINT ( 'NONE', #172 ) ;
#253 = DIRECTION ( 'NONE',  ( 0.0000000000000000000, 0.0000000000000000000, 1.000000000000000000 ) ) ;
#254 = EDGE_CURVE ( 'NONE', #149, #106, #294, .T. ) ;
#255 = AXIS2_PLACEMENT_3D ( 'NONE', #238, #265, #214 ) ;
#256 = ORIENTED_EDGE ( 'NONE', *, *, #171, .T. ) ;
#257 = ADVANCED_FACE ( 'NONE', ( #270 ), #215, .T. ) ;
#258 = ORIENTED_EDGE ( 'NONE', *, *, #75, .T. ) ;
#259 = SURFACE_STYLE_USAGE ( .BOTH. , #155 ) ;
#260 = FACE_OUTER_BOUND ( 'NONE', #22, .T. ) ;
#261 = AXIS2_PLACEMENT_3D ( 'NONE', #31, #117, #208 ) ;
#262 = APPLICATION_PROTOCOL_DEFINITION ( 'draft international standard', 'automotive_design', 1998, #38 ) ;
#263 = DIRECTION ( 'NONE',  ( -1.224646799147353207E-16, -0.0000000000000000000, -1.000000000000000000 ) ) ;
#264 = DIRECTION ( 'NONE',  ( 1.000000000000000000, 0.0000000000000000000, 0.0000000000000000000 ) ) ;
#265 = DIRECTION ( 'NONE',  ( -0.0000000000000000000, -0.0000000000000000000, -1.000000000000000000 ) ) ;
#266 = DIRECTION ( 'NONE',  ( -0.0000000000000000000, -0.0000000000000000000, -1.000000000000000000 ) ) ;
#267 = CIRCLE ( 'NONE', #158, 0.1181100000000000066 ) ;
#268 = FACE_OUTER_BOUND ( 'NONE', #48, .T. ) ;
#269 = DIRECTION ( 'NONE',  ( -1.224646799147353207E-16, -0.0000000000000000000, -1.000000000000000000 ) ) ;
#270 = FACE_OUTER_BOUND ( 'NONE', #196, .T. ) ;
#271 = AXIS2_PLACEMENT_3D ( 'NONE', #296, #101, #250 ) ;
#272 =( GEOMETRIC_REPRESENTATION_CONTEXT ( 3 ) GLOBAL_UNCERTAINTY_ASSIGNED_CONTEXT ( ( #233 ) ) GLOBAL_UNIT_ASSIGNED_CONTEXT ( ( #83, #236, #146 ) ) REPRESENTATION_CONTEXT ( 'NONE', 'WORKASPACE' ) );
#273 = DIRECTION ( 'NONE',  ( 0.0000000000000000000, 0.0000000000000000000, 1.000000000000000000 ) ) ;
#274 = VERTEX_POINT ( 'NONE', #16 ) ;
#275 = APPLICATION_CONTEXT ( 'automotive_design' ) ;
#276 = VERTEX_POINT ( 'NONE', #42 ) ;
#277 =( NAMED_UNIT ( * ) SI_UNIT ( $, .STERADIAN. ) SOLID_ANGLE_UNIT ( ) );
#278 = ORIENTED_EDGE ( 'NONE', *, *, #116, .T. ) ;
#279 = FILL_AREA_STYLE ('',( #177 ) ) ;
#280 = DIRECTION ( 'NONE',  ( -1.224646799147353207E-16, -0.0000000000000000000, -1.000000000000000000 ) ) ;
#281 = DIRECTION ( 'NONE',  ( 0.0000000000000000000, 0.0000000000000000000, 1.000000000000000000 ) ) ;
#282 = VECTOR ( 'NONE', #13, 39.37007874015747433 ) ;
#283 = ORIENTED_EDGE ( 'NONE', *, *, #194, .F. ) ;
#284 = CARTESIAN_POINT ( 'NONE',  ( 9.642893389422242582E-17, 0.0000000000000000000, 0.7874019999999999353 ) ) ;
#285 = SHAPE_DEFINITION_REPRESENTATION ( #244, #200 ) ;
#286 = CYLINDRICAL_SURFACE ( 'NONE', #10, 0.1181100000000000066 ) ;
#287 = CARTESIAN_POINT ( 'NONE',  ( -0.07866125999999988572, 1.204876468615957931E-17, 0.7874019999999999353 ) ) ;
#288 = AXIS2_PLACEMENT_3D ( 'NONE', #251, #269, #121 ) ;
#289 = DIRECTION ( 'NONE',  ( 1.000000000000000000, 0.0000000000000000000, 0.0000000000000000000 ) ) ;
#290 = LINE ( 'NONE', #140, #89 ) ;
#291 = CARTESIAN_POINT ( 'NONE',  ( 0.0000000000000000000, 0.0000000000000000000, 2.952755999999999936 ) ) ;
#292 = STYLED_ITEM ( 'NONE', ( #224 ), #200 ) ;
#293 = ADVANCED_FACE ( 'NONE', ( #192 ), #229, .T. ) ;
#294 = LINE ( 'NONE', #41, #23 ) ;
#295 = ORIENTED_EDGE ( 'NONE', *, *, #254, .T. ) ;
#296 = CARTESIAN_POINT ( 'NONE',  ( 9.642893389422242582E-17, 0.0000000000000000000, 0.7874019999999999353 ) ) ;
#297 = AXIS2_PLACEMENT_3D ( 'NONE', #239, #210, #36 ) ;
#298 = LENGTH_MEASURE_WITH_UNIT ( LENGTH_MEASURE( 0.02539999999999999897 ), #18 );
#299 = ORIENTED_EDGE ( 'NONE', *, *, #108, .T. ) ;
ENDSEC;
END-ISO-10303-21;
