ISO-10303-21;
HEADER;
FILE_DESCRIPTION (( 'STEP AP214' ),
    '1' );
FILE_NAME ('01612.STEP',
    '2023-06-22T14:40:02',
    ( '' ),
    ( '' ),
    'SwSTEP 2.0',
    'SolidWorks 2023',
    '' );
FILE_SCHEMA (( 'AUTOMOTIVE_DESIGN' ));
ENDSEC;

DATA;
#1 = CLOSED_SHELL ( 'NONE', ( #151, #6, #146, #299 ) ) ;
#2 = VERTEX_POINT ( 'NONE', #204 ) ;
#3 = AXIS2_PLACEMENT_3D ( 'NONE', #152, #307, #41 ) ;
#4 = APPLICATION_PROTOCOL_DEFINITION ( 'draft international standard', 'automotive_design', 1998, #209 ) ;
#5 = DIRECTION ( 'NONE',  ( -1.000000000000000000, 0.000000000000000000, 0.000000000000000000 ) ) ;
#6 = ADVANCED_FACE ( 'NONE', ( #127 ), #305, .T. ) ;
#7 = DIRECTION ( 'NONE',  ( 0.000000000000000000, 0.000000000000000000, -1.000000000000000000 ) ) ;
#8 =( LENGTH_UNIT ( ) NAMED_UNIT ( * ) SI_UNIT ( $, .METRE. ) );
#9 = FILL_AREA_STYLE_COLOUR ( '', #70 ) ;
#10 = ORIENTED_EDGE ( 'NONE', *, *, #17, .T. ) ;
#11 = LENGTH_MEASURE_WITH_UNIT ( LENGTH_MEASURE( 0.02539999999999999897 ), #242 );
#12 = ORIENTED_EDGE ( 'NONE', *, *, #13, .F. ) ;
#13 = EDGE_CURVE ( 'NONE', #114, #119, #110, .T. ) ;
#14 = ORIENTED_EDGE ( 'NONE', *, *, #17, .F. ) ;
#15 = STYLED_ITEM ( 'NONE', ( #120 ), #146 ) ;
#16 = AXIS2_PLACEMENT_3D ( 'NONE', #65, #109, #5 ) ;
#17 = EDGE_CURVE ( 'NONE', #2, #251, #43, .T. ) ;
#18 = DIRECTION ( 'NONE',  ( -0.000000000000000000, -1.000000000000000000, -0.000000000000000000 ) ) ;
#19 = SURFACE_STYLE_USAGE ( .BOTH. , #139 ) ;
#20 = CIRCLE ( 'NONE', #53, 0.3125000000000000000 ) ;
#21 =( GEOMETRIC_REPRESENTATION_CONTEXT ( 3 ) GLOBAL_UNCERTAINTY_ASSIGNED_CONTEXT ( ( #126 ) ) GLOBAL_UNIT_ASSIGNED_CONTEXT ( ( #91, #137, #252 ) ) REPRESENTATION_CONTEXT ( 'NONE', 'WORKASPACE' ) );
#22 = SURFACE_STYLE_FILL_AREA ( #286 ) ;
#23 =( NAMED_UNIT ( * ) SI_UNIT ( $, .STERADIAN. ) SOLID_ANGLE_UNIT ( ) );
#24 = DIRECTION ( 'NONE',  ( -0.000000000000000000, -1.000000000000000000, -0.000000000000000000 ) ) ;
#25 = CARTESIAN_POINT ( 'NONE',  ( 0.000000000000000000, 0.000000000000000000, 0.000000000000000000 ) ) ;
#26 =( LENGTH_UNIT ( ) NAMED_UNIT ( * ) SI_UNIT ( $, .METRE. ) );
#27 =( NAMED_UNIT ( * ) SI_UNIT ( $, .STERADIAN. ) SOLID_ANGLE_UNIT ( ) );
#28 = ORIENTED_EDGE ( 'NONE', *, *, #49, .T. ) ;
#29 =( GEOMETRIC_REPRESENTATION_CONTEXT ( 3 ) GLOBAL_UNCERTAINTY_ASSIGNED_CONTEXT ( ( #116 ) ) GLOBAL_UNIT_ASSIGNED_CONTEXT ( ( #175, #132, #167 ) ) REPRESENTATION_CONTEXT ( 'NONE', 'WORKASPACE' ) );
#30 = AXIS2_PLACEMENT_3D ( 'NONE', #179, #214, #258 ) ;
#31 = DIRECTION ( 'NONE',  ( -4.453261087808560759E-17, 1.000000000000000000, 0.000000000000000000 ) ) ;
#32 = UNCERTAINTY_MEASURE_WITH_UNIT (LENGTH_MEASURE( 1.000000000000000082E-05 ), #99, 'distance_accuracy_value', 'NONE');
#33 = ORIENTED_EDGE ( 'NONE', *, *, #239, .F. ) ;
#34 = VERTEX_POINT ( 'NONE', #262 ) ;
#35 =( CONVERSION_BASED_UNIT ( 'INCH', #11 ) LENGTH_UNIT ( ) NAMED_UNIT ( #149 ) );
#36 = CIRCLE ( 'NONE', #211, 0.3125000000000000000 ) ;
#37 = STYLED_ITEM ( 'NONE', ( #240 ), #232 ) ;
#38 = ADVANCED_BREP_SHAPE_REPRESENTATION ( '01612', ( #105, #232, #193 ), #254 ) ;
#39 = SURFACE_STYLE_USAGE ( .BOTH. , #255 ) ;
#40 = CARTESIAN_POINT ( 'NONE',  ( 0.000000000000000000, 3.250000000000000000, 0.000000000000000000 ) ) ;
#41 = DIRECTION ( 'NONE',  ( 0.000000000000000000, -0.000000000000000000, 1.000000000000000000 ) ) ;
#42 = DIRECTION ( 'NONE',  ( -0.000000000000000000, -1.000000000000000000, -0.000000000000000000 ) ) ;
#43 = LINE ( 'NONE', #234, #157 ) ;
#44 = UNCERTAINTY_MEASURE_WITH_UNIT (LENGTH_MEASURE( 1.000000000000000082E-05 ), #291, 'distance_accuracy_value', 'NONE');
#45 =( GEOMETRIC_REPRESENTATION_CONTEXT ( 3 ) GLOBAL_UNCERTAINTY_ASSIGNED_CONTEXT ( ( #228 ) ) GLOBAL_UNIT_ASSIGNED_CONTEXT ( ( #288, #131, #27 ) ) REPRESENTATION_CONTEXT ( 'NONE', 'WORKASPACE' ) );
#46 = EDGE_CURVE ( 'NONE', #197, #200, #172, .T. ) ;
#47 = CARTESIAN_POINT ( 'NONE',  ( -1.224646799147354440E-16, 6.000000000000000888, 0.000000000000000000 ) ) ;
#48 = DIRECTION ( 'NONE',  ( 0.000000000000000000, 0.000000000000000000, 1.000000000000000000 ) ) ;
#49 = EDGE_CURVE ( 'NONE', #2, #285, #36, .T. ) ;
#50 = DIRECTION ( 'NONE',  ( -1.000000000000000000, 0.000000000000000000, 0.000000000000000000 ) ) ;
#51 = CYLINDRICAL_SURFACE ( 'NONE', #161, 0.3125000000000000555 ) ;
#52 = SURFACE_STYLE_FILL_AREA ( #74 ) ;
#53 = AXIS2_PLACEMENT_3D ( 'NONE', #80, #18, #309 ) ;
#54 = ORIENTED_EDGE ( 'NONE', *, *, #239, .T. ) ;
#55 = FILL_AREA_STYLE ('',( #261 ) ) ;
#56 = SURFACE_STYLE_FILL_AREA ( #280 ) ;
#57 = CIRCLE ( 'NONE', #30, 0.3125000000000001665 ) ;
#58 = ORIENTED_EDGE ( 'NONE', *, *, #115, .T. ) ;
#59 = EDGE_CURVE ( 'NONE', #285, #2, #20, .T. ) ;
#60 = DIRECTION ( 'NONE',  ( -0.000000000000000000, -1.000000000000000000, -0.000000000000000000 ) ) ;
#61 = CARTESIAN_POINT ( 'NONE',  ( 0.3125000000000000000, 6.000000000000000888, 0.000000000000000000 ) ) ;
#62 = STYLED_ITEM ( 'NONE', ( #108 ), #151 ) ;
#63 = CARTESIAN_POINT ( 'NONE',  ( -1.224646799147354440E-16, 6.000000000000000888, 0.000000000000000000 ) ) ;
#64 = DIMENSIONAL_EXPONENTS ( 1.000000000000000000, 0.000000000000000000, 0.000000000000000000, 0.000000000000000000, 0.000000000000000000, 0.000000000000000000, 0.000000000000000000 ) ;
#65 = CARTESIAN_POINT ( 'NONE',  ( -1.224646799147354440E-16, 6.000000000000000888, 0.000000000000000000 ) ) ;
#66 =( NAMED_UNIT ( * ) PLANE_ANGLE_UNIT ( ) SI_UNIT ( $, .RADIAN. ) );
#67 = EDGE_CURVE ( 'NONE', #200, #119, #81, .T. ) ;
#68 = APPLICATION_PROTOCOL_DEFINITION ( 'draft international standard', 'automotive_design', 1998, #295 ) ;
#69 = MECHANICAL_DESIGN_GEOMETRIC_PRESENTATION_REPRESENTATION (  '', ( #15 ), #223 ) ;
#70 = COLOUR_RGB ( '',1.000000000000000000, 0.000000000000000000, 0.000000000000000000 ) ;
#71 = CYLINDRICAL_SURFACE ( 'NONE', #16, 0.3125000000000000555 ) ;
#72 =( LENGTH_UNIT ( ) NAMED_UNIT ( * ) SI_UNIT ( $, .METRE. ) );
#73 = PRESENTATION_STYLE_ASSIGNMENT (( #256 ) ) ;
#74 = FILL_AREA_STYLE ('',( #145 ) ) ;
#75 = EDGE_LOOP ( 'NONE', ( #277, #10, #207, #33 ) ) ;
#76 = PRESENTATION_STYLE_ASSIGNMENT (( #19 ) ) ;
#77 = EDGE_CURVE ( 'NONE', #119, #114, #57, .T. ) ;
#78 = DIRECTION ( 'NONE',  ( 4.453261087808560759E-17, -1.000000000000000000, 0.000000000000000000 ) ) ;
#79 = PRESENTATION_LAYER_ASSIGNMENT (  '', '', ( #37 ) ) ;
#80 = CARTESIAN_POINT ( 'NONE',  ( 0.000000000000000000, 3.250000000000000000, 0.000000000000000000 ) ) ;
#81 = LINE ( 'NONE', #236, #142 ) ;
#82 = COLOUR_RGB ( '',1.000000000000000000, 0.000000000000000000, 0.000000000000000000 ) ;
#83 = DIMENSIONAL_EXPONENTS ( 1.000000000000000000, 0.000000000000000000, 0.000000000000000000, 0.000000000000000000, 0.000000000000000000, 0.000000000000000000, 0.000000000000000000 ) ;
#84 = CARTESIAN_POINT ( 'NONE',  ( 3.827021247335478926E-17, 0.000000000000000000, 0.3125000000000000000 ) ) ;
#85 = DIMENSIONAL_EXPONENTS ( 1.000000000000000000, 0.000000000000000000, 0.000000000000000000, 0.000000000000000000, 0.000000000000000000, 0.000000000000000000, 0.000000000000000000 ) ;
#86 = DIRECTION ( 'NONE',  ( -4.453261087808560759E-17, 1.000000000000000000, -0.000000000000000000 ) ) ;
#87 = COLOUR_RGB ( '',1.000000000000000000, 0.000000000000000000, 0.000000000000000000 ) ;
#88 = DIRECTION ( 'NONE',  ( -0.000000000000000000, -1.000000000000000000, -0.000000000000000000 ) ) ;
#89 = PRESENTATION_LAYER_ASSIGNMENT (  '', '', ( #238 ) ) ;
#90 = EDGE_LOOP ( 'NONE', ( #298, #123 ) ) ;
#91 =( CONVERSION_BASED_UNIT ( 'INCH', #111 ) LENGTH_UNIT ( ) NAMED_UNIT ( #85 ) );
#92 = ORIENTED_EDGE ( 'NONE', *, *, #67, .F. ) ;
#93 = EDGE_CURVE ( 'NONE', #200, #197, #302, .T. ) ;
#94 = LINE ( 'NONE', #199, #205 ) ;
#95 = ORIENTED_EDGE ( 'NONE', *, *, #46, .F. ) ;
#96 = UNCERTAINTY_MEASURE_WITH_UNIT (LENGTH_MEASURE( 1.000000000000000082E-05 ), #35, 'distance_accuracy_value', 'NONE');
#97 = CLOSED_SHELL ( 'NONE', ( #186, #294, #170, #103 ) ) ;
#98 =( GEOMETRIC_REPRESENTATION_CONTEXT ( 3 ) GLOBAL_UNCERTAINTY_ASSIGNED_CONTEXT ( ( #96 ) ) GLOBAL_UNIT_ASSIGNED_CONTEXT ( ( #35, #173, #196 ) ) REPRESENTATION_CONTEXT ( 'NONE', 'WORKASPACE' ) );
#99 =( CONVERSION_BASED_UNIT ( 'INCH', #122 ) LENGTH_UNIT ( ) NAMED_UNIT ( #213 ) );
#100 = EDGE_CURVE ( 'NONE', #251, #34, #136, .T. ) ;
#101 = AXIS2_PLACEMENT_3D ( 'NONE', #147, #289, #306 ) ;
#102 = PRODUCT_DEFINITION_CONTEXT ( 'detailed design', #295, 'design' ) ;
#103 = ADVANCED_FACE ( 'NONE', ( #244 ), #278, .F. ) ;
#104 = SURFACE_SIDE_STYLE ('',( #22 ) ) ;
#105 = MANIFOLD_SOLID_BREP ( 'Revolve - Cutting Edge', #1 ) ;
#106 =( LENGTH_UNIT ( ) NAMED_UNIT ( * ) SI_UNIT ( $, .METRE. ) );
#107 = STYLED_ITEM ( 'NONE', ( #153 ), #6 ) ;
#108 = PRESENTATION_STYLE_ASSIGNMENT (( #215 ) ) ;
#109 = DIRECTION ( 'NONE',  ( -4.453261087808560759E-17, 1.000000000000000000, -0.000000000000000000 ) ) ;
#110 = CIRCLE ( 'NONE', #130, 0.3125000000000001665 ) ;
#111 = LENGTH_MEASURE_WITH_UNIT ( LENGTH_MEASURE( 0.02539999999999999897 ), #174 );
#112 = ORIENTED_EDGE ( 'NONE', *, *, #77, .T. ) ;
#113 = CARTESIAN_POINT ( 'NONE',  ( 0.000000000000000000, 0.000000000000000000, 0.000000000000000000 ) ) ;
#114 = VERTEX_POINT ( 'NONE', #279 ) ;
#115 = EDGE_CURVE ( 'NONE', #34, #251, #230, .T. ) ;
#116 = UNCERTAINTY_MEASURE_WITH_UNIT (LENGTH_MEASURE( 1.000000000000000082E-05 ), #175, 'distance_accuracy_value', 'NONE');
#117 = CARTESIAN_POINT ( 'NONE',  ( 3.098677236904669840E-34, 3.250000000000000000, 0.000000000000000000 ) ) ;
#118 = ORIENTED_EDGE ( 'NONE', *, *, #100, .F. ) ;
#119 = VERTEX_POINT ( 'NONE', #308 ) ;
#120 = PRESENTATION_STYLE_ASSIGNMENT (( #39 ) ) ;
#121 = UNCERTAINTY_MEASURE_WITH_UNIT (LENGTH_MEASURE( 1.000000000000000082E-05 ), #270, 'distance_accuracy_value', 'NONE');
#122 = LENGTH_MEASURE_WITH_UNIT ( LENGTH_MEASURE( 0.02539999999999999897 ), #106 );
#123 = ORIENTED_EDGE ( 'NONE', *, *, #49, .F. ) ;
#124 = DIRECTION ( 'NONE',  ( 0.000000000000000000, 0.000000000000000000, -1.000000000000000000 ) ) ;
#125 = DIRECTION ( 'NONE',  ( 0.000000000000000000, 0.000000000000000000, -1.000000000000000000 ) ) ;
#126 = UNCERTAINTY_MEASURE_WITH_UNIT (LENGTH_MEASURE( 1.000000000000000082E-05 ), #91, 'distance_accuracy_value', 'NONE');
#127 = FACE_OUTER_BOUND ( 'NONE', #90, .T. ) ;
#128 = PRESENTATION_LAYER_ASSIGNMENT (  '', '', ( #62 ) ) ;
#129 = FILL_AREA_STYLE_COLOUR ( '', #82 ) ;
#130 = AXIS2_PLACEMENT_3D ( 'NONE', #63, #284, #206 ) ;
#131 =( NAMED_UNIT ( * ) PLANE_ANGLE_UNIT ( ) SI_UNIT ( $, .RADIAN. ) );
#132 =( NAMED_UNIT ( * ) PLANE_ANGLE_UNIT ( ) SI_UNIT ( $, .RADIAN. ) );
#133 = CARTESIAN_POINT ( 'NONE',  ( -0.3125000000000000000, 3.250000000000000000, 0.000000000000000000 ) ) ;
#134 = DIRECTION ( 'NONE',  ( 0.000000000000000000, 0.000000000000000000, -1.000000000000000000 ) ) ;
#135 = ORIENTED_EDGE ( 'NONE', *, *, #67, .T. ) ;
#136 = CIRCLE ( 'NONE', #253, 0.3125000000000000000 ) ;
#137 =( NAMED_UNIT ( * ) PLANE_ANGLE_UNIT ( ) SI_UNIT ( $, .RADIAN. ) );
#138 = EDGE_LOOP ( 'NONE', ( #203, #135, #12, #169 ) ) ;
#139 = SURFACE_SIDE_STYLE ('',( #52 ) ) ;
#140 = EDGE_LOOP ( 'NONE', ( #14, #28, #54, #118 ) ) ;
#141 = SURFACE_STYLE_FILL_AREA ( #55 ) ;
#142 = VECTOR ( 'NONE', #257, 39.37007874015748143 ) ;
#143 = SURFACE_SIDE_STYLE ('',( #56 ) ) ;
#144 = EDGE_LOOP ( 'NONE', ( #274, #112 ) ) ;
#145 = FILL_AREA_STYLE_COLOUR ( '', #237 ) ;
#146 = ADVANCED_FACE ( 'NONE', ( #235 ), #227, .T. ) ;
#147 = CARTESIAN_POINT ( 'NONE',  ( 0.000000000000000000, 3.250000000000000000, 0.000000000000000000 ) ) ;
#148 = DIRECTION ( 'NONE',  ( -0.000000000000000000, -1.000000000000000000, -0.000000000000000000 ) ) ;
#149 = DIMENSIONAL_EXPONENTS ( 1.000000000000000000, 0.000000000000000000, 0.000000000000000000, 0.000000000000000000, 0.000000000000000000, 0.000000000000000000, 0.000000000000000000 ) ;
#150 = PRESENTATION_LAYER_ASSIGNMENT (  '', '', ( #155 ) ) ;
#151 = ADVANCED_FACE ( 'NONE', ( #156 ), #217, .T. ) ;
#152 = CARTESIAN_POINT ( 'NONE',  ( 0.000000000000000000, 3.250000000000000000, 0.000000000000000000 ) ) ;
#153 = PRESENTATION_STYLE_ASSIGNMENT (( #260 ) ) ;
#154 = PRODUCT ( '01612', '01612', '', ( #189 ) ) ;
#155 = STYLED_ITEM ( 'NONE', ( #76 ), #105 ) ;
#156 = FACE_OUTER_BOUND ( 'NONE', #75, .T. ) ;
#157 = VECTOR ( 'NONE', #24, 39.37007874015748143 ) ;
#158 =( NAMED_UNIT ( * ) PLANE_ANGLE_UNIT ( ) SI_UNIT ( $, .RADIAN. ) );
#159 = CARTESIAN_POINT ( 'NONE',  ( 0.000000000000000000, 0.000000000000000000, 0.000000000000000000 ) ) ;
#160 = SHAPE_DEFINITION_REPRESENTATION ( #224, #38 ) ;
#161 = AXIS2_PLACEMENT_3D ( 'NONE', #47, #86, #50 ) ;
#162 = SURFACE_STYLE_FILL_AREA ( #190 ) ;
#163 = PRESENTATION_LAYER_ASSIGNMENT (  '', '', ( #15 ) ) ;
#164 = COLOUR_RGB ( '',0.7921568627450980005, 0.8196078431372548767, 0.9333333333333333481 ) ;
#165 = LENGTH_MEASURE_WITH_UNIT ( LENGTH_MEASURE( 0.02539999999999999897 ), #259 );
#166 = DIRECTION ( 'NONE',  ( 0.000000000000000000, -1.000000000000000000, -0.000000000000000000 ) ) ;
#167 =( NAMED_UNIT ( * ) SI_UNIT ( $, .STERADIAN. ) SOLID_ANGLE_UNIT ( ) );
#168 = FACE_OUTER_BOUND ( 'NONE', #273, .T. ) ;
#169 = ORIENTED_EDGE ( 'NONE', *, *, #271, .F. ) ;
#170 = ADVANCED_FACE ( 'NONE', ( #245 ), #71, .T. ) ;
#171 = CARTESIAN_POINT ( 'NONE',  ( 0.000000000000000000, 0.000000000000000000, -0.3125000000000000000 ) ) ;
#172 = CIRCLE ( 'NONE', #101, 0.3125000000000000000 ) ;
#173 =( NAMED_UNIT ( * ) PLANE_ANGLE_UNIT ( ) SI_UNIT ( $, .RADIAN. ) );
#174 =( LENGTH_UNIT ( ) NAMED_UNIT ( * ) SI_UNIT ( $, .METRE. ) );
#175 =( CONVERSION_BASED_UNIT ( 'INCH', #201 ) LENGTH_UNIT ( ) NAMED_UNIT ( #210 ) );
#176 = DIRECTION ( 'NONE',  ( 1.000000000000000000, 4.453261087808560759E-17, 0.000000000000000000 ) ) ;
#177 = DIRECTION ( 'NONE',  ( -4.453261087808560759E-17, 1.000000000000000000, -0.000000000000000000 ) ) ;
#178 = CARTESIAN_POINT ( 'NONE',  ( 0.000000000000000000, 0.000000000000000000, 0.000000000000000000 ) ) ;
#179 = CARTESIAN_POINT ( 'NONE',  ( -1.224646799147354440E-16, 6.000000000000000888, 0.000000000000000000 ) ) ;
#180 =( NAMED_UNIT ( * ) SI_UNIT ( $, .STERADIAN. ) SOLID_ANGLE_UNIT ( ) );
#181 = DIMENSIONAL_EXPONENTS ( 1.000000000000000000, 0.000000000000000000, 0.000000000000000000, 0.000000000000000000, 0.000000000000000000, 0.000000000000000000, 0.000000000000000000 ) ;
#182 = MECHANICAL_DESIGN_GEOMETRIC_PRESENTATION_REPRESENTATION (  '', ( #107 ), #293 ) ;
#183 = SURFACE_SIDE_STYLE ('',( #229 ) ) ;
#184 = MECHANICAL_DESIGN_GEOMETRIC_PRESENTATION_REPRESENTATION (  '', ( #37 ), #98 ) ;
#185 = FILL_AREA_STYLE_COLOUR ( '', #164 ) ;
#186 = ADVANCED_FACE ( 'NONE', ( #218 ), #51, .T. ) ;
#187 = SURFACE_STYLE_USAGE ( .BOTH. , #104 ) ;
#188 = AXIS2_PLACEMENT_3D ( 'NONE', #113, #166, #134 ) ;
#189 = PRODUCT_CONTEXT ( 'NONE', #209, 'mechanical' ) ;
#190 = FILL_AREA_STYLE ('',( #129 ) ) ;
#191 = LENGTH_MEASURE_WITH_UNIT ( LENGTH_MEASURE( 0.02539999999999999897 ), #26 );
#192 = AXIS2_PLACEMENT_3D ( 'NONE', #61, #78, #176 ) ;
#193 = AXIS2_PLACEMENT_3D ( 'NONE', #159, #48, #216 ) ;
#194 = ORIENTED_EDGE ( 'NONE', *, *, #93, .F. ) ;
#195 = LENGTH_MEASURE_WITH_UNIT ( LENGTH_MEASURE( 0.02539999999999999897 ), #8 );
#196 =( NAMED_UNIT ( * ) SI_UNIT ( $, .STERADIAN. ) SOLID_ANGLE_UNIT ( ) );
#197 = VERTEX_POINT ( 'NONE', #133 ) ;
#198 = AXIS2_PLACEMENT_3D ( 'NONE', #25, #88, #7 ) ;
#199 = CARTESIAN_POINT ( 'NONE',  ( -0.3125000000000002220, 6.000000000000000888, 0.000000000000000000 ) ) ;
#200 = VERTEX_POINT ( 'NONE', #219 ) ;
#201 = LENGTH_MEASURE_WITH_UNIT ( LENGTH_MEASURE( 0.02539999999999999897 ), #72 );
#202 = PRODUCT_RELATED_PRODUCT_CATEGORY ( 'part', '', ( #154 ) ) ;
#203 = ORIENTED_EDGE ( 'NONE', *, *, #46, .T. ) ;
#204 = CARTESIAN_POINT ( 'NONE',  ( 3.827021247335478926E-17, 3.250000000000000000, 0.3125000000000000000 ) ) ;
#205 = VECTOR ( 'NONE', #276, 39.37007874015748143 ) ;
#206 = DIRECTION ( 'NONE',  ( -1.000000000000000000, 0.000000000000000000, 0.000000000000000000 ) ) ;
#207 = ORIENTED_EDGE ( 'NONE', *, *, #115, .F. ) ;
#208 = CARTESIAN_POINT ( 'NONE',  ( 0.000000000000000000, 3.250000000000000000, 0.000000000000000000 ) ) ;
#209 = APPLICATION_CONTEXT ( 'automotive_design' ) ;
#210 = DIMENSIONAL_EXPONENTS ( 1.000000000000000000, 0.000000000000000000, 0.000000000000000000, 0.000000000000000000, 0.000000000000000000, 0.000000000000000000, 0.000000000000000000 ) ;
#211 = AXIS2_PLACEMENT_3D ( 'NONE', #208, #42, #125 ) ;
#212 = AXIS2_PLACEMENT_3D ( 'NONE', #117, #31, #300 ) ;
#213 = DIMENSIONAL_EXPONENTS ( 1.000000000000000000, 0.000000000000000000, 0.000000000000000000, 0.000000000000000000, 0.000000000000000000, 0.000000000000000000, 0.000000000000000000 ) ;
#214 = DIRECTION ( 'NONE',  ( -4.453261087808560759E-17, 1.000000000000000000, -0.000000000000000000 ) ) ;
#215 = SURFACE_STYLE_USAGE ( .BOTH. , #268 ) ;
#216 = DIRECTION ( 'NONE',  ( 1.000000000000000000, 0.000000000000000000, 0.000000000000000000 ) ) ;
#217 = CYLINDRICAL_SURFACE ( 'NONE', #221, 0.3125000000000000000 ) ;
#218 = FACE_OUTER_BOUND ( 'NONE', #138, .T. ) ;
#219 = CARTESIAN_POINT ( 'NONE',  ( 0.3125000000000000000, 3.250000000000000000, 3.827021247335479543E-17 ) ) ;
#220 = ORIENTED_EDGE ( 'NONE', *, *, #271, .T. ) ;
#221 = AXIS2_PLACEMENT_3D ( 'NONE', #266, #265, #290 ) ;
#222 = FACE_OUTER_BOUND ( 'NONE', #301, .T. ) ;
#223 =( GEOMETRIC_REPRESENTATION_CONTEXT ( 3 ) GLOBAL_UNCERTAINTY_ASSIGNED_CONTEXT ( ( #121 ) ) GLOBAL_UNIT_ASSIGNED_CONTEXT ( ( #270, #292, #243 ) ) REPRESENTATION_CONTEXT ( 'NONE', 'WORKASPACE' ) );
#224 = PRODUCT_DEFINITION_SHAPE ( 'NONE', 'NONE',  #263 ) ;
#225 = ORIENTED_EDGE ( 'NONE', *, *, #77, .F. ) ;
#226 = FILL_AREA_STYLE_COLOUR ( '', #248 ) ;
#227 = CYLINDRICAL_SURFACE ( 'NONE', #198, 0.3125000000000000000 ) ;
#228 = UNCERTAINTY_MEASURE_WITH_UNIT (LENGTH_MEASURE( 1.000000000000000082E-05 ), #288, 'distance_accuracy_value', 'NONE');
#229 = SURFACE_STYLE_FILL_AREA ( #231 ) ;
#230 = CIRCLE ( 'NONE', #287, 0.3125000000000000000 ) ;
#231 = FILL_AREA_STYLE ('',( #226 ) ) ;
#232 = MANIFOLD_SOLID_BREP ( 'Revolve - Tool Body (Straight Shanked)', #97 ) ;
#233 = DIRECTION ( 'NONE',  ( 0.000000000000000000, 0.000000000000000000, -1.000000000000000000 ) ) ;
#234 = CARTESIAN_POINT ( 'NONE',  ( 3.827021247335478926E-17, 0.000000000000000000, 0.3125000000000000000 ) ) ;
#235 = FACE_OUTER_BOUND ( 'NONE', #140, .T. ) ;
#236 = CARTESIAN_POINT ( 'NONE',  ( 0.3124999999999999445, 6.000000000000000888, 3.827021247335479543E-17 ) ) ;
#237 = COLOUR_RGB ( '',0.7921568627450980005, 0.8196078431372548767, 0.9333333333333333481 ) ;
#238 = STYLED_ITEM ( 'NONE', ( #73 ), #299 ) ;
#239 = EDGE_CURVE ( 'NONE', #285, #34, #246, .T. ) ;
#240 = PRESENTATION_STYLE_ASSIGNMENT (( #187 ) ) ;
#241 = MECHANICAL_DESIGN_GEOMETRIC_PRESENTATION_REPRESENTATION (  '', ( #62 ), #45 ) ;
#242 =( LENGTH_UNIT ( ) NAMED_UNIT ( * ) SI_UNIT ( $, .METRE. ) );
#243 =( NAMED_UNIT ( * ) SI_UNIT ( $, .STERADIAN. ) SOLID_ANGLE_UNIT ( ) );
#244 = FACE_OUTER_BOUND ( 'NONE', #144, .T. ) ;
#245 = FACE_OUTER_BOUND ( 'NONE', #247, .T. ) ;
#246 = LINE ( 'NONE', #171, #249 ) ;
#247 = EDGE_LOOP ( 'NONE', ( #92, #250, #220, #225 ) ) ;
#248 = COLOUR_RGB ( '',1.000000000000000000, 0.000000000000000000, 0.000000000000000000 ) ;
#249 = VECTOR ( 'NONE', #303, 39.37007874015748143 ) ;
#250 = ORIENTED_EDGE ( 'NONE', *, *, #93, .T. ) ;
#251 = VERTEX_POINT ( 'NONE', #84 ) ;
#252 =( NAMED_UNIT ( * ) SI_UNIT ( $, .STERADIAN. ) SOLID_ANGLE_UNIT ( ) );
#253 = AXIS2_PLACEMENT_3D ( 'NONE', #282, #60, #124 ) ;
#254 =( GEOMETRIC_REPRESENTATION_CONTEXT ( 3 ) GLOBAL_UNCERTAINTY_ASSIGNED_CONTEXT ( ( #44 ) ) GLOBAL_UNIT_ASSIGNED_CONTEXT ( ( #291, #158, #23 ) ) REPRESENTATION_CONTEXT ( 'NONE', 'WORKASPACE' ) );
#255 = SURFACE_SIDE_STYLE ('',( #141 ) ) ;
#256 = SURFACE_STYLE_USAGE ( .BOTH. , #143 ) ;
#257 = DIRECTION ( 'NONE',  ( -4.453261087808560759E-17, 1.000000000000000000, -0.000000000000000000 ) ) ;
#258 = DIRECTION ( 'NONE',  ( -1.000000000000000000, 0.000000000000000000, 0.000000000000000000 ) ) ;
#259 =( LENGTH_UNIT ( ) NAMED_UNIT ( * ) SI_UNIT ( $, .METRE. ) );
#260 = SURFACE_STYLE_USAGE ( .BOTH. , #183 ) ;
#261 = FILL_AREA_STYLE_COLOUR ( '', #87 ) ;
#262 = CARTESIAN_POINT ( 'NONE',  ( 0.000000000000000000, 0.000000000000000000, -0.3125000000000000000 ) ) ;
#263 = PRODUCT_DEFINITION ( 'UNKNOWN', '', #264, #102 ) ;
#264 = PRODUCT_DEFINITION_FORMATION_WITH_SPECIFIED_SOURCE ( 'ANY', '', #154, .NOT_KNOWN. ) ;
#265 = DIRECTION ( 'NONE',  ( -0.000000000000000000, -1.000000000000000000, -0.000000000000000000 ) ) ;
#266 = CARTESIAN_POINT ( 'NONE',  ( 0.000000000000000000, 0.000000000000000000, 0.000000000000000000 ) ) ;
#267 = AXIS2_PLACEMENT_3D ( 'NONE', #40, #177, #283 ) ;
#268 = SURFACE_SIDE_STYLE ('',( #162 ) ) ;
#269 = MECHANICAL_DESIGN_GEOMETRIC_PRESENTATION_REPRESENTATION (  '', ( #238 ), #21 ) ;
#270 =( CONVERSION_BASED_UNIT ( 'INCH', #165 ) LENGTH_UNIT ( ) NAMED_UNIT ( #83 ) );
#271 = EDGE_CURVE ( 'NONE', #197, #114, #94, .T. ) ;
#272 = PLANE ( 'NONE',  #188 ) ;
#273 = EDGE_LOOP ( 'NONE', ( #95, #194 ) ) ;
#274 = ORIENTED_EDGE ( 'NONE', *, *, #13, .T. ) ;
#275 = MECHANICAL_DESIGN_GEOMETRIC_PRESENTATION_REPRESENTATION (  '', ( #155 ), #29 ) ;
#276 = DIRECTION ( 'NONE',  ( -4.453261087808560759E-17, 1.000000000000000000, -0.000000000000000000 ) ) ;
#277 = ORIENTED_EDGE ( 'NONE', *, *, #59, .T. ) ;
#278 = PLANE ( 'NONE',  #192 ) ;
#279 = CARTESIAN_POINT ( 'NONE',  ( -0.3125000000000002776, 6.000000000000000888, 0.000000000000000000 ) ) ;
#280 = FILL_AREA_STYLE ('',( #9 ) ) ;
#281 = PRESENTATION_LAYER_ASSIGNMENT (  '', '', ( #107 ) ) ;
#282 = CARTESIAN_POINT ( 'NONE',  ( 0.000000000000000000, 0.000000000000000000, 0.000000000000000000 ) ) ;
#283 = DIRECTION ( 'NONE',  ( -1.000000000000000000, 0.000000000000000000, 0.000000000000000000 ) ) ;
#284 = DIRECTION ( 'NONE',  ( -4.453261087808560759E-17, 1.000000000000000000, -0.000000000000000000 ) ) ;
#285 = VERTEX_POINT ( 'NONE', #296 ) ;
#286 = FILL_AREA_STYLE ('',( #185 ) ) ;
#287 = AXIS2_PLACEMENT_3D ( 'NONE', #178, #148, #233 ) ;
#288 =( CONVERSION_BASED_UNIT ( 'INCH', #191 ) LENGTH_UNIT ( ) NAMED_UNIT ( #64 ) );
#289 = DIRECTION ( 'NONE',  ( -4.453261087808560759E-17, 1.000000000000000000, -0.000000000000000000 ) ) ;
#290 = DIRECTION ( 'NONE',  ( 0.000000000000000000, 0.000000000000000000, -1.000000000000000000 ) ) ;
#291 =( CONVERSION_BASED_UNIT ( 'INCH', #195 ) LENGTH_UNIT ( ) NAMED_UNIT ( #181 ) );
#292 =( NAMED_UNIT ( * ) PLANE_ANGLE_UNIT ( ) SI_UNIT ( $, .RADIAN. ) );
#293 =( GEOMETRIC_REPRESENTATION_CONTEXT ( 3 ) GLOBAL_UNCERTAINTY_ASSIGNED_CONTEXT ( ( #32 ) ) GLOBAL_UNIT_ASSIGNED_CONTEXT ( ( #99, #66, #180 ) ) REPRESENTATION_CONTEXT ( 'NONE', 'WORKASPACE' ) );
#294 = ADVANCED_FACE ( 'NONE', ( #168 ), #297, .F. ) ;
#295 = APPLICATION_CONTEXT ( 'automotive_design' ) ;
#296 = CARTESIAN_POINT ( 'NONE',  ( 0.000000000000000000, 3.250000000000000000, -0.3125000000000000000 ) ) ;
#297 = PLANE ( 'NONE',  #212 ) ;
#298 = ORIENTED_EDGE ( 'NONE', *, *, #59, .F. ) ;
#299 = ADVANCED_FACE ( 'NONE', ( #222 ), #272, .T. ) ;
#300 = DIRECTION ( 'NONE',  ( -1.000000000000000000, -4.453261087808560759E-17, 0.000000000000000000 ) ) ;
#301 = EDGE_LOOP ( 'NONE', ( #58, #304 ) ) ;
#302 = CIRCLE ( 'NONE', #267, 0.3125000000000000000 ) ;
#303 = DIRECTION ( 'NONE',  ( -0.000000000000000000, -1.000000000000000000, -0.000000000000000000 ) ) ;
#304 = ORIENTED_EDGE ( 'NONE', *, *, #100, .T. ) ;
#305 = PLANE ( 'NONE',  #3 ) ;
#306 = DIRECTION ( 'NONE',  ( -1.000000000000000000, 0.000000000000000000, 0.000000000000000000 ) ) ;
#307 = DIRECTION ( 'NONE',  ( 0.000000000000000000, 1.000000000000000000, 0.000000000000000000 ) ) ;
#308 = CARTESIAN_POINT ( 'NONE',  ( 0.3125000000000000000, 6.000000000000000888, 3.827021247335479543E-17 ) ) ;
#309 = DIRECTION ( 'NONE',  ( 0.000000000000000000, 0.000000000000000000, -1.000000000000000000 ) ) ;
ENDSEC;
END-ISO-10303-21;
