ISO-10303-21;
HEADER;
FILE_DESCRIPTION (( 'STEP AP214' ),
    '1' );
FILE_NAME ('83294.STEP',
    '2023-06-30T22:59:49',
    ( '' ),
    ( '' ),
    'SwSTEP 2.0',
    'SolidWorks 2023',
    '' );
FILE_SCHEMA (( 'AUTOMOTIVE_DESIGN' ));
ENDSEC;

DATA;
#1 = CYLINDRICAL_SURFACE ( 'NONE', #322, 0.1874999999999998335 ) ;
#2 = ORIENTED_EDGE ( 'NONE', *, *, #332, .T. ) ;
#3 = EDGE_LOOP ( 'NONE', ( #29, #351, #90, #203 ) ) ;
#4 = SURFACE_STYLE_USAGE ( .BOTH. , #28 ) ;
#5 =( CONVERSION_BASED_UNIT ( 'INCH', #141 ) LENGTH_UNIT ( ) NAMED_UNIT ( #370 ) );
#6 = FACE_OUTER_BOUND ( 'NONE', #114, .T. ) ;
#7 = AXIS2_PLACEMENT_3D ( 'NONE', #61, #267, #346 ) ;
#8 = COLOUR_RGB ( '',1.000000000000000000, 0.000000000000000000, 0.000000000000000000 ) ;
#9 = SURFACE_SIDE_STYLE ('',( #199 ) ) ;
#10 = DIRECTION ( 'NONE',  ( 1.000000000000000000, 0.000000000000000000, -1.224646799147353207E-16 ) ) ;
#11 = DIRECTION ( 'NONE',  ( 0.000000000000000000, 0.000000000000000000, -1.000000000000000000 ) ) ;
#12 = CIRCLE ( 'NONE', #162, 0.1874999999999996392 ) ;
#13 = FILL_AREA_STYLE_COLOUR ( '', #37 ) ;
#14 = DIRECTION ( 'NONE',  ( -0.000000000000000000, -1.000000000000000000, -0.000000000000000000 ) ) ;
#15 = DIRECTION ( 'NONE',  ( 1.000000000000000000, 0.000000000000000000, 0.000000000000000000 ) ) ;
#16 = ADVANCED_FACE ( 'NONE', ( #304 ), #92, .F. ) ;
#17 = CARTESIAN_POINT ( 'NONE',  ( 0.000000000000000000, 0.1875000000000000555, 0.000000000000000000 ) ) ;
#18 = DIRECTION ( 'NONE',  ( -0.000000000000000000, -1.000000000000000000, -0.000000000000000000 ) ) ;
#19 = DIMENSIONAL_EXPONENTS ( 1.000000000000000000, 0.000000000000000000, 0.000000000000000000, 0.000000000000000000, 0.000000000000000000, 0.000000000000000000, 0.000000000000000000 ) ;
#20 = DIRECTION ( 'NONE',  ( 0.000000000000000000, 0.000000000000000000, -1.000000000000000000 ) ) ;
#21 = CLOSED_SHELL ( 'NONE', ( #294, #263, #40, #247, #133 ) ) ;
#22 = APPLICATION_CONTEXT ( 'automotive_design' ) ;
#23 = PRODUCT_DEFINITION_CONTEXT ( 'detailed design', #208, 'design' ) ;
#24 =( NAMED_UNIT ( * ) SI_UNIT ( $, .STERADIAN. ) SOLID_ANGLE_UNIT ( ) );
#25 = DIRECTION ( 'NONE',  ( -0.000000000000000000, -1.000000000000000000, -0.000000000000000000 ) ) ;
#26 = ORIENTED_EDGE ( 'NONE', *, *, #177, .F. ) ;
#27 = AXIS2_PLACEMENT_3D ( 'NONE', #292, #91, #34 ) ;
#28 = SURFACE_SIDE_STYLE ('',( #148 ) ) ;
#29 = ORIENTED_EDGE ( 'NONE', *, *, #317, .T. ) ;
#30 = ORIENTED_EDGE ( 'NONE', *, *, #107, .T. ) ;
#31 = MECHANICAL_DESIGN_GEOMETRIC_PRESENTATION_REPRESENTATION (  '', ( #286 ), #173 ) ;
#32 = CIRCLE ( 'NONE', #136, 0.1875000000000000555 ) ;
#33 = EDGE_LOOP ( 'NONE', ( #365, #239, #196, #265 ) ) ;
#34 = DIRECTION ( 'NONE',  ( 1.000000000000000000, 0.000000000000000000, 0.000000000000000000 ) ) ;
#35 = LINE ( 'NONE', #182, #109 ) ;
#36 = LENGTH_MEASURE_WITH_UNIT ( LENGTH_MEASURE( 0.02539999999999999897 ), #213 );
#37 = COLOUR_RGB ( '',0.7921568627450980005, 0.8196078431372548767, 0.9333333333333333481 ) ;
#38 = DIRECTION ( 'NONE',  ( -1.000000000000000000, 0.000000000000000000, 0.000000000000000000 ) ) ;
#39 = DIRECTION ( 'NONE',  ( -1.000000000000000000, 0.000000000000000000, 0.000000000000000000 ) ) ;
#40 = ADVANCED_FACE ( 'NONE', ( #179 ), #143, .T. ) ;
#41 =( LENGTH_UNIT ( ) NAMED_UNIT ( * ) SI_UNIT ( $, .METRE. ) );
#42 = DIMENSIONAL_EXPONENTS ( 1.000000000000000000, 0.000000000000000000, 0.000000000000000000, 0.000000000000000000, 0.000000000000000000, 0.000000000000000000, 0.000000000000000000 ) ;
#43 = CARTESIAN_POINT ( 'NONE',  ( -1.224646799147353700E-16, 3.000000000000000444, 0.000000000000000000 ) ) ;
#44 = DIRECTION ( 'NONE',  ( -0.000000000000000000, -1.000000000000000000, -0.000000000000000000 ) ) ;
#45 = FILL_AREA_STYLE_COLOUR ( '', #8 ) ;
#46 = AXIS2_PLACEMENT_3D ( 'NONE', #249, #254, #10 ) ;
#47 = CIRCLE ( 'NONE', #369, 0.1875000000000000555 ) ;
#48 = VERTEX_POINT ( 'NONE', #186 ) ;
#49 = EDGE_CURVE ( 'NONE', #122, #117, #70, .T. ) ;
#50 = PRESENTATION_STYLE_ASSIGNMENT (( #4 ) ) ;
#51 = VECTOR ( 'NONE', #175, 39.37007874015748143 ) ;
#52 = AXIS2_PLACEMENT_3D ( 'NONE', #165, #289, #20 ) ;
#53 = AXIS2_PLACEMENT_3D ( 'NONE', #17, #283, #132 ) ;
#54 = UNCERTAINTY_MEASURE_WITH_UNIT (LENGTH_MEASURE( 1.000000000000000082E-05 ), #361, 'distance_accuracy_value', 'NONE');
#55 = VERTEX_POINT ( 'NONE', #185 ) ;
#56 = FILL_AREA_STYLE ('',( #240 ) ) ;
#57 = LENGTH_MEASURE_WITH_UNIT ( LENGTH_MEASURE( 0.02539999999999999897 ), #81 );
#58 = PRESENTATION_STYLE_ASSIGNMENT (( #116 ) ) ;
#59 = ORIENTED_EDGE ( 'NONE', *, *, #65, .F. ) ;
#60 = APPLICATION_PROTOCOL_DEFINITION ( 'draft international standard', 'automotive_design', 1998, #22 ) ;
#61 = CARTESIAN_POINT ( 'NONE',  ( 0.1874999999999999167, 3.000000000000000444, 0.000000000000000000 ) ) ;
#62 = APPLICATION_PROTOCOL_DEFINITION ( 'draft international standard', 'automotive_design', 1998, #208 ) ;
#63 = CARTESIAN_POINT ( 'NONE',  ( -1.148106374200643555E-17, -3.414809992080329023E-17, 0.000000000000000000 ) ) ;
#64 = CARTESIAN_POINT ( 'NONE',  ( 0.1874999999999998335, 1.250000000000000000, 2.296212748401286493E-17 ) ) ;
#65 = EDGE_CURVE ( 'NONE', #171, #326, #244, .T. ) ;
#66 = DIRECTION ( 'NONE',  ( 0.000000000000000000, 1.000000000000000000, 0.000000000000000000 ) ) ;
#67 = AXIS2_PLACEMENT_3D ( 'NONE', #323, #211, #217 ) ;
#68 = PRODUCT ( '83294', '83294', '', ( #354 ) ) ;
#69 = FILL_AREA_STYLE ('',( #334 ) ) ;
#70 = CIRCLE ( 'NONE', #264, 0.1874999999999996392 ) ;
#71 = PRESENTATION_LAYER_ASSIGNMENT (  '', '', ( #189 ) ) ;
#72 = DIRECTION ( 'NONE',  ( -1.000000000000000000, 0.000000000000000000, 0.000000000000000000 ) ) ;
#73 = LINE ( 'NONE', #293, #302 ) ;
#74 = ORIENTED_EDGE ( 'NONE', *, *, #164, .T. ) ;
#75 = DIRECTION ( 'NONE',  ( -0.000000000000000000, -1.000000000000000000, -0.000000000000000000 ) ) ;
#76 = AXIS2_PLACEMENT_3D ( 'NONE', #104, #44, #371 ) ;
#77 = ORIENTED_EDGE ( 'NONE', *, *, #317, .F. ) ;
#78 = SURFACE_SIDE_STYLE ('',( #228 ) ) ;
#79 = PRESENTATION_STYLE_ASSIGNMENT (( #270 ) ) ;
#80 = ORIENTED_EDGE ( 'NONE', *, *, #237, .T. ) ;
#81 =( LENGTH_UNIT ( ) NAMED_UNIT ( * ) SI_UNIT ( $, .METRE. ) );
#82 =( GEOMETRIC_REPRESENTATION_CONTEXT ( 3 ) GLOBAL_UNCERTAINTY_ASSIGNED_CONTEXT ( ( #291 ) ) GLOBAL_UNIT_ASSIGNED_CONTEXT ( ( #219, #170, #24 ) ) REPRESENTATION_CONTEXT ( 'NONE', 'WORKASPACE' ) );
#83 = SURFACE_STYLE_USAGE ( .BOTH. , #78 ) ;
#84 = EDGE_CURVE ( 'NONE', #230, #48, #35, .T. ) ;
#85 = CIRCLE ( 'NONE', #52, 0.1874999999999998335 ) ;
#86 = CIRCLE ( 'NONE', #194, 0.1875000000000000555 ) ;
#87 = EDGE_LOOP ( 'NONE', ( #30, #353, #232, #108 ) ) ;
#88 =( NAMED_UNIT ( * ) SI_UNIT ( $, .STERADIAN. ) SOLID_ANGLE_UNIT ( ) );
#89 =( NAMED_UNIT ( * ) SI_UNIT ( $, .STERADIAN. ) SOLID_ANGLE_UNIT ( ) );
#90 = ORIENTED_EDGE ( 'NONE', *, *, #332, .F. ) ;
#91 = DIRECTION ( 'NONE',  ( 0.000000000000000000, 0.000000000000000000, 1.000000000000000000 ) ) ;
#92 = PLANE ( 'NONE',  #7 ) ;
#93 = PRESENTATION_LAYER_ASSIGNMENT (  '', '', ( #280 ) ) ;
#94 = FACE_OUTER_BOUND ( 'NONE', #3, .T. ) ;
#95 = CARTESIAN_POINT ( 'NONE',  ( 0.000000000000000000, 0.1875000000000000555, 0.000000000000000000 ) ) ;
#96 =( NAMED_UNIT ( * ) SI_UNIT ( $, .STERADIAN. ) SOLID_ANGLE_UNIT ( ) );
#97 = SURFACE_STYLE_FILL_AREA ( #125 ) ;
#98 = PLANE ( 'NONE',  #253 ) ;
#99 = DIRECTION ( 'NONE',  ( -1.924444970088698003E-16, 1.000000000000000000, -0.000000000000000000 ) ) ;
#100 = VECTOR ( 'NONE', #18, 39.37007874015748143 ) ;
#101 = DIRECTION ( 'NONE',  ( -1.000000000000000000, 0.000000000000000000, 0.000000000000000000 ) ) ;
#102 = DIRECTION ( 'NONE',  ( -0.000000000000000000, -1.000000000000000000, -0.000000000000000000 ) ) ;
#103 =( NAMED_UNIT ( * ) SI_UNIT ( $, .STERADIAN. ) SOLID_ANGLE_UNIT ( ) );
#104 = CARTESIAN_POINT ( 'NONE',  ( 0.000000000000000000, 1.250000000000000000, 0.000000000000000000 ) ) ;
#105 = CIRCLE ( 'NONE', #53, 0.1875000000000000278 ) ;
#106 = SPHERICAL_SURFACE ( 'NONE', #153, 0.1875000000000000555 ) ;
#107 = EDGE_CURVE ( 'NONE', #117, #122, #12, .T. ) ;
#108 = ORIENTED_EDGE ( 'NONE', *, *, #156, .F. ) ;
#109 = VECTOR ( 'NONE', #102, 39.37007874015748143 ) ;
#110 = AXIS2_PLACEMENT_3D ( 'NONE', #216, #161, #15 ) ;
#111 =( LENGTH_UNIT ( ) NAMED_UNIT ( * ) SI_UNIT ( $, .METRE. ) );
#112 = FILL_AREA_STYLE_COLOUR ( '', #290 ) ;
#113 = ORIENTED_EDGE ( 'NONE', *, *, #310, .T. ) ;
#114 = EDGE_LOOP ( 'NONE', ( #80, #269, #26, #149, #300 ) ) ;
#115 = ORIENTED_EDGE ( 'NONE', *, *, #271, .T. ) ;
#116 = SURFACE_STYLE_USAGE ( .BOTH. , #172 ) ;
#117 = VERTEX_POINT ( 'NONE', #306 ) ;
#118 = CIRCLE ( 'NONE', #202, 0.1875000000000000278 ) ;
#119 = CARTESIAN_POINT ( 'NONE',  ( -1.224646799147353700E-16, 3.000000000000000444, 0.000000000000000000 ) ) ;
#120 = ORIENTED_EDGE ( 'NONE', *, *, #237, .F. ) ;
#121 = FILL_AREA_STYLE ('',( #45 ) ) ;
#122 = VERTEX_POINT ( 'NONE', #64 ) ;
#123 = ADVANCED_FACE ( 'NONE', ( #312 ), #160, .T. ) ;
#124 = CARTESIAN_POINT ( 'NONE',  ( 0.1874999999999996947, 3.000000000000000444, 2.296212748401285260E-17 ) ) ;
#125 = FILL_AREA_STYLE ('',( #13 ) ) ;
#126 = MANIFOLD_SOLID_BREP ( 'Revolve - Tool Body (Straight Shanked)', #233 ) ;
#127 = CARTESIAN_POINT ( 'NONE',  ( 2.143131898507868297E-16, 1.250000000000000000, 0.000000000000000000 ) ) ;
#128 = SURFACE_STYLE_FILL_AREA ( #69 ) ;
#129 = DIRECTION ( 'NONE',  ( 0.000000000000000000, -0.000000000000000000, 1.000000000000000000 ) ) ;
#130 = PRODUCT_DEFINITION_SHAPE ( 'NONE', 'NONE',  #251 ) ;
#131 =( NAMED_UNIT ( * ) PLANE_ANGLE_UNIT ( ) SI_UNIT ( $, .RADIAN. ) );
#132 = DIRECTION ( 'NONE',  ( 0.000000000000000000, 0.000000000000000000, -1.000000000000000000 ) ) ;
#133 = ADVANCED_FACE ( 'NONE', ( #152 ), #106, .T. ) ;
#134 = STYLED_ITEM ( 'NONE', ( #50 ), #257 ) ;
#135 = CARTESIAN_POINT ( 'NONE',  ( 0.000000000000000000, 0.000000000000000000, -0.1874999999999999167 ) ) ;
#136 = AXIS2_PLACEMENT_3D ( 'NONE', #119, #268, #272 ) ;
#137 =( GEOMETRIC_REPRESENTATION_CONTEXT ( 3 ) GLOBAL_UNCERTAINTY_ASSIGNED_CONTEXT ( ( #54 ) ) GLOBAL_UNIT_ASSIGNED_CONTEXT ( ( #361, #131, #181 ) ) REPRESENTATION_CONTEXT ( 'NONE', 'WORKASPACE' ) );
#138 = CIRCLE ( 'NONE', #67, 0.1875000000000000278 ) ;
#139 =( CONVERSION_BASED_UNIT ( 'INCH', #319 ) LENGTH_UNIT ( ) NAMED_UNIT ( #214 ) );
#140 = ORIENTED_EDGE ( 'NONE', *, *, #297, .T. ) ;
#141 = LENGTH_MEASURE_WITH_UNIT ( LENGTH_MEASURE( 0.02539999999999999897 ), #320 );
#142 =( CONVERSION_BASED_UNIT ( 'INCH', #57 ) LENGTH_UNIT ( ) NAMED_UNIT ( #183 ) );
#143 = PLANE ( 'NONE',  #321 ) ;
#144 = VERTEX_POINT ( 'NONE', #363 ) ;
#145 = MECHANICAL_DESIGN_GEOMETRIC_PRESENTATION_REPRESENTATION (  '', ( #134 ), #169 ) ;
#146 =( GEOMETRIC_REPRESENTATION_CONTEXT ( 3 ) GLOBAL_UNCERTAINTY_ASSIGNED_CONTEXT ( ( #298 ) ) GLOBAL_UNIT_ASSIGNED_CONTEXT ( ( #5, #147, #88 ) ) REPRESENTATION_CONTEXT ( 'NONE', 'WORKASPACE' ) );
#147 =( NAMED_UNIT ( * ) PLANE_ANGLE_UNIT ( ) SI_UNIT ( $, .RADIAN. ) );
#148 = SURFACE_STYLE_FILL_AREA ( #206 ) ;
#149 = ORIENTED_EDGE ( 'NONE', *, *, #310, .F. ) ;
#150 = CARTESIAN_POINT ( 'NONE',  ( 0.000000000000000000, 0.000000000000000000, 0.000000000000000000 ) ) ;
#151 =( CONVERSION_BASED_UNIT ( 'INCH', #209 ) LENGTH_UNIT ( ) NAMED_UNIT ( #166 ) );
#152 = FACE_OUTER_BOUND ( 'NONE', #343, .T. ) ;
#153 = AXIS2_PLACEMENT_3D ( 'NONE', #338, #224, #258 ) ;
#154 = MECHANICAL_DESIGN_GEOMETRIC_PRESENTATION_REPRESENTATION (  '', ( #308 ), #362 ) ;
#155 =( CONVERSION_BASED_UNIT ( 'INCH', #36 ) LENGTH_UNIT ( ) NAMED_UNIT ( #19 ) );
#156 = EDGE_CURVE ( 'NONE', #117, #273, #73, .T. ) ;
#157 = PRODUCT_DEFINITION_FORMATION_WITH_SPECIFIED_SOURCE ( 'ANY', '', #68, .NOT_KNOWN. ) ;
#158 = SURFACE_SIDE_STYLE ('',( #97 ) ) ;
#159 = FACE_OUTER_BOUND ( 'NONE', #327, .T. ) ;
#160 = CYLINDRICAL_SURFACE ( 'NONE', #315, 0.1874999999999998335 ) ;
#161 = DIRECTION ( 'NONE',  ( 0.000000000000000000, 0.000000000000000000, 1.000000000000000000 ) ) ;
#162 = AXIS2_PLACEMENT_3D ( 'NONE', #284, #99, #101 ) ;
#163 = LINE ( 'NONE', #135, #100 ) ;
#164 = EDGE_CURVE ( 'NONE', #227, #273, #47, .T. ) ;
#165 = CARTESIAN_POINT ( 'NONE',  ( 0.000000000000000000, 1.250000000000000000, 0.000000000000000000 ) ) ;
#166 = DIMENSIONAL_EXPONENTS ( 1.000000000000000000, 0.000000000000000000, 0.000000000000000000, 0.000000000000000000, 0.000000000000000000, 0.000000000000000000, 0.000000000000000000 ) ;
#167 = DIRECTION ( 'NONE',  ( -1.924444970088698003E-16, 1.000000000000000000, -0.000000000000000000 ) ) ;
#168 = EDGE_CURVE ( 'NONE', #230, #55, #85, .T. ) ;
#169 =( GEOMETRIC_REPRESENTATION_CONTEXT ( 3 ) GLOBAL_UNCERTAINTY_ASSIGNED_CONTEXT ( ( #373 ) ) GLOBAL_UNIT_ASSIGNED_CONTEXT ( ( #139, #345, #89 ) ) REPRESENTATION_CONTEXT ( 'NONE', 'WORKASPACE' ) );
#170 =( NAMED_UNIT ( * ) PLANE_ANGLE_UNIT ( ) SI_UNIT ( $, .RADIAN. ) );
#171 = VERTEX_POINT ( 'NONE', #341 ) ;
#172 = SURFACE_SIDE_STYLE ('',( #348 ) ) ;
#173 =( GEOMETRIC_REPRESENTATION_CONTEXT ( 3 ) GLOBAL_UNCERTAINTY_ASSIGNED_CONTEXT ( ( #241 ) ) GLOBAL_UNIT_ASSIGNED_CONTEXT ( ( #301, #285, #331 ) ) REPRESENTATION_CONTEXT ( 'NONE', 'WORKASPACE' ) );
#174 = CIRCLE ( 'NONE', #76, 0.1874999999999998335 ) ;
#175 = DIRECTION ( 'NONE',  ( -1.924444970088698003E-16, 1.000000000000000000, -0.000000000000000000 ) ) ;
#176 = CYLINDRICAL_SURFACE ( 'NONE', #303, 0.1874999999999999167 ) ;
#177 = EDGE_CURVE ( 'NONE', #197, #48, #118, .T. ) ;
#178 = PRESENTATION_LAYER_ASSIGNMENT (  '', '', ( #286 ) ) ;
#179 = FACE_OUTER_BOUND ( 'NONE', #357, .T. ) ;
#180 = PRESENTATION_STYLE_ASSIGNMENT (( #328 ) ) ;
#181 =( NAMED_UNIT ( * ) SI_UNIT ( $, .STERADIAN. ) SOLID_ANGLE_UNIT ( ) );
#182 = CARTESIAN_POINT ( 'NONE',  ( 2.296212748401286185E-17, 0.000000000000000000, 0.1874999999999999167 ) ) ;
#183 = DIMENSIONAL_EXPONENTS ( 1.000000000000000000, 0.000000000000000000, 0.000000000000000000, 0.000000000000000000, 0.000000000000000000, 0.000000000000000000, 0.000000000000000000 ) ;
#184 =( NAMED_UNIT ( * ) PLANE_ANGLE_UNIT ( ) SI_UNIT ( $, .RADIAN. ) );
#185 = CARTESIAN_POINT ( 'NONE',  ( 0.000000000000000000, 1.250000000000000000, -0.1874999999999998335 ) ) ;
#186 = CARTESIAN_POINT ( 'NONE',  ( 2.296212748401287109E-17, 0.1875000000000000555, 0.1874999999999999722 ) ) ;
#187 = ADVANCED_FACE ( 'NONE', ( #262 ), #1, .T. ) ;
#188 = DIRECTION ( 'NONE',  ( 0.000000000000000000, 0.000000000000000000, -1.000000000000000000 ) ) ;
#189 = STYLED_ITEM ( 'NONE', ( #336 ), #133 ) ;
#190 = MECHANICAL_DESIGN_GEOMETRIC_PRESENTATION_REPRESENTATION (  '', ( #222 ), #146 ) ;
#191 = CARTESIAN_POINT ( 'NONE',  ( -1.224646799147353700E-16, 3.000000000000000444, 0.000000000000000000 ) ) ;
#192 = COLOUR_RGB ( '',1.000000000000000000, 0.000000000000000000, 0.000000000000000000 ) ;
#193 =( GEOMETRIC_REPRESENTATION_CONTEXT ( 3 ) GLOBAL_UNCERTAINTY_ASSIGNED_CONTEXT ( ( #274 ) ) GLOBAL_UNIT_ASSIGNED_CONTEXT ( ( #151, #305, #96 ) ) REPRESENTATION_CONTEXT ( 'NONE', 'WORKASPACE' ) );
#194 = AXIS2_PLACEMENT_3D ( 'NONE', #359, #11, #311 ) ;
#195 = LENGTH_MEASURE_WITH_UNIT ( LENGTH_MEASURE( 0.02539999999999999897 ), #339 );
#196 = ORIENTED_EDGE ( 'NONE', *, *, #156, .T. ) ;
#197 = VERTEX_POINT ( 'NONE', #313 ) ;
#198 = FILL_AREA_STYLE ('',( #299 ) ) ;
#199 = SURFACE_STYLE_FILL_AREA ( #198 ) ;
#200 = PRESENTATION_STYLE_ASSIGNMENT (( #83 ) ) ;
#201 = ORIENTED_EDGE ( 'NONE', *, *, #107, .F. ) ;
#202 = AXIS2_PLACEMENT_3D ( 'NONE', #256, #75, #188 ) ;
#203 = ORIENTED_EDGE ( 'NONE', *, *, #177, .T. ) ;
#204 = AXIS2_PLACEMENT_3D ( 'NONE', #95, #14, #279 ) ;
#205 = DIRECTION ( 'NONE',  ( 0.000000000000000000, 0.000000000000000000, -1.000000000000000000 ) ) ;
#206 = FILL_AREA_STYLE ('',( #242 ) ) ;
#207 = ORIENTED_EDGE ( 'NONE', *, *, #84, .F. ) ;
#208 = APPLICATION_CONTEXT ( 'automotive_design' ) ;
#209 = LENGTH_MEASURE_WITH_UNIT ( LENGTH_MEASURE( 0.02539999999999999897 ), #307 );
#210 = EDGE_LOOP ( 'NONE', ( #115, #74 ) ) ;
#211 = DIRECTION ( 'NONE',  ( -0.000000000000000000, -1.000000000000000000, -0.000000000000000000 ) ) ;
#212 = CARTESIAN_POINT ( 'NONE',  ( -1.224646799147353700E-16, 3.000000000000000444, 0.000000000000000000 ) ) ;
#213 =( LENGTH_UNIT ( ) NAMED_UNIT ( * ) SI_UNIT ( $, .METRE. ) );
#214 = DIMENSIONAL_EXPONENTS ( 1.000000000000000000, 0.000000000000000000, 0.000000000000000000, 0.000000000000000000, 0.000000000000000000, 0.000000000000000000, 0.000000000000000000 ) ;
#215 = PRESENTATION_LAYER_ASSIGNMENT (  '', '', ( #308 ) ) ;
#216 = CARTESIAN_POINT ( 'NONE',  ( -2.296212748401287726E-17, 0.1875000000000000278, 0.000000000000000000 ) ) ;
#217 = DIRECTION ( 'NONE',  ( 0.000000000000000000, 0.000000000000000000, -1.000000000000000000 ) ) ;
#218 = SURFACE_STYLE_USAGE ( .BOTH. , #158 ) ;
#219 =( CONVERSION_BASED_UNIT ( 'INCH', #195 ) LENGTH_UNIT ( ) NAMED_UNIT ( #42 ) );
#220 = STYLED_ITEM ( 'NONE', ( #180 ), #263 ) ;
#221 = EDGE_CURVE ( 'NONE', #55, #144, #163, .T. ) ;
#222 = STYLED_ITEM ( 'NONE', ( #79 ), #294 ) ;
#223 = UNCERTAINTY_MEASURE_WITH_UNIT (LENGTH_MEASURE( 1.000000000000000082E-05 ), #155, 'distance_accuracy_value', 'NONE');
#224 = DIRECTION ( 'NONE',  ( 0.000000000000000000, 0.000000000000000000, 1.000000000000000000 ) ) ;
#225 = ORIENTED_EDGE ( 'NONE', *, *, #168, .T. ) ;
#226 = DIRECTION ( 'NONE',  ( -1.924444970088698003E-16, 1.000000000000000000, -0.000000000000000000 ) ) ;
#227 = VERTEX_POINT ( 'NONE', #368 ) ;
#228 = SURFACE_STYLE_FILL_AREA ( #236 ) ;
#229 = CARTESIAN_POINT ( 'NONE',  ( -0.1875000000000001943, 3.000000000000000444, 0.000000000000000000 ) ) ;
#230 = VERTEX_POINT ( 'NONE', #260 ) ;
#231 =( LENGTH_UNIT ( ) NAMED_UNIT ( * ) SI_UNIT ( $, .METRE. ) );
#232 = ORIENTED_EDGE ( 'NONE', *, *, #271, .F. ) ;
#233 = CLOSED_SHELL ( 'NONE', ( #187, #372, #123, #16 ) ) ;
#234 = MECHANICAL_DESIGN_GEOMETRIC_PRESENTATION_REPRESENTATION (  '', ( #220 ), #193 ) ;
#235 =( GEOMETRIC_REPRESENTATION_CONTEXT ( 3 ) GLOBAL_UNCERTAINTY_ASSIGNED_CONTEXT ( ( #223 ) ) GLOBAL_UNIT_ASSIGNED_CONTEXT ( ( #155, #184, #103 ) ) REPRESENTATION_CONTEXT ( 'NONE', 'WORKASPACE' ) );
#236 = FILL_AREA_STYLE ('',( #112 ) ) ;
#237 = EDGE_CURVE ( 'NONE', #55, #230, #174, .T. ) ;
#238 = DIRECTION ( 'NONE',  ( 0.000000000000000000, 0.000000000000000000, -1.000000000000000000 ) ) ;
#239 = ORIENTED_EDGE ( 'NONE', *, *, #49, .T. ) ;
#240 = FILL_AREA_STYLE_COLOUR ( '', #192 ) ;
#241 = UNCERTAINTY_MEASURE_WITH_UNIT (LENGTH_MEASURE( 1.000000000000000082E-05 ), #301, 'distance_accuracy_value', 'NONE');
#242 = FILL_AREA_STYLE_COLOUR ( '', #333 ) ;
#243 = ORIENTED_EDGE ( 'NONE', *, *, #49, .F. ) ;
#244 = CIRCLE ( 'NONE', #46, 0.1875000000000000555 ) ;
#245 = PRESENTATION_STYLE_ASSIGNMENT (( #218 ) ) ;
#246 = DIRECTION ( 'NONE',  ( -1.924444970088698003E-16, 1.000000000000000000, 0.000000000000000000 ) ) ;
#247 = ADVANCED_FACE ( 'NONE', ( #287 ), #314, .T. ) ;
#248 = CARTESIAN_POINT ( 'NONE',  ( 2.143131898507867804E-16, 1.250000000000000000, 0.000000000000000000 ) ) ;
#249 = CARTESIAN_POINT ( 'NONE',  ( -2.296212748401287726E-17, 0.1875000000000000278, 0.000000000000000000 ) ) ;
#250 = MECHANICAL_DESIGN_GEOMETRIC_PRESENTATION_REPRESENTATION (  '', ( #280 ), #137 ) ;
#251 = PRODUCT_DEFINITION ( 'UNKNOWN', '', #157, #23 ) ;
#252 = PRESENTATION_LAYER_ASSIGNMENT (  '', '', ( #220 ) ) ;
#253 = AXIS2_PLACEMENT_3D ( 'NONE', #127, #246, #330 ) ;
#254 = DIRECTION ( 'NONE',  ( 1.224646799147353207E-16, -0.000000000000000000, 1.000000000000000000 ) ) ;
#255 = SPHERICAL_SURFACE ( 'NONE', #110, 0.1875000000000000555 ) ;
#256 = CARTESIAN_POINT ( 'NONE',  ( 0.000000000000000000, 0.1875000000000000555, 0.000000000000000000 ) ) ;
#257 = MANIFOLD_SOLID_BREP ( 'Revolve - Cutting Edge', #21 ) ;
#258 = DIRECTION ( 'NONE',  ( 1.000000000000000000, 0.000000000000000000, 0.000000000000000000 ) ) ;
#259 = MECHANICAL_DESIGN_GEOMETRIC_PRESENTATION_REPRESENTATION (  '', ( #189 ), #82 ) ;
#260 = CARTESIAN_POINT ( 'NONE',  ( 2.296212748401285877E-17, 1.250000000000000000, 0.1874999999999998335 ) ) ;
#261 = UNCERTAINTY_MEASURE_WITH_UNIT (LENGTH_MEASURE( 1.000000000000000082E-05 ), #142, 'distance_accuracy_value', 'NONE');
#262 = FACE_OUTER_BOUND ( 'NONE', #87, .T. ) ;
#263 = ADVANCED_FACE ( 'NONE', ( #6 ), #176, .T. ) ;
#264 = AXIS2_PLACEMENT_3D ( 'NONE', #248, #282, #39 ) ;
#265 = ORIENTED_EDGE ( 'NONE', *, *, #164, .F. ) ;
#266 =( NAMED_UNIT ( * ) PLANE_ANGLE_UNIT ( ) SI_UNIT ( $, .RADIAN. ) );
#267 = DIRECTION ( 'NONE',  ( 1.924444970088698003E-16, -1.000000000000000000, 0.000000000000000000 ) ) ;
#268 = DIRECTION ( 'NONE',  ( -1.924444970088698003E-16, 1.000000000000000000, -0.000000000000000000 ) ) ;
#269 = ORIENTED_EDGE ( 'NONE', *, *, #84, .T. ) ;
#270 = SURFACE_STYLE_USAGE ( .BOTH. , #325 ) ;
#271 = EDGE_CURVE ( 'NONE', #273, #227, #32, .T. ) ;
#272 = DIRECTION ( 'NONE',  ( -1.000000000000000000, 0.000000000000000000, 0.000000000000000000 ) ) ;
#273 = VERTEX_POINT ( 'NONE', #229 ) ;
#274 = UNCERTAINTY_MEASURE_WITH_UNIT (LENGTH_MEASURE( 1.000000000000000082E-05 ), #151, 'distance_accuracy_value', 'NONE');
#275 =( NAMED_UNIT ( * ) SI_UNIT ( $, .STERADIAN. ) SOLID_ANGLE_UNIT ( ) );
#276 = ADVANCED_BREP_SHAPE_REPRESENTATION ( '83294', ( #257, #126, #27 ), #235 ) ;
#277 = EDGE_LOOP ( 'NONE', ( #207, #225, #340, #324, #77 ) ) ;
#278 = ORIENTED_EDGE ( 'NONE', *, *, #168, .F. ) ;
#279 = DIRECTION ( 'NONE',  ( 0.000000000000000000, 0.000000000000000000, -1.000000000000000000 ) ) ;
#280 = STYLED_ITEM ( 'NONE', ( #245 ), #126 ) ;
#281 = CARTESIAN_POINT ( 'NONE',  ( 0.000000000000000000, 1.250000000000000000, 0.000000000000000000 ) ) ;
#282 = DIRECTION ( 'NONE',  ( -1.924444970088698003E-16, 1.000000000000000000, -0.000000000000000000 ) ) ;
#283 = DIRECTION ( 'NONE',  ( -0.000000000000000000, -1.000000000000000000, -0.000000000000000000 ) ) ;
#284 = CARTESIAN_POINT ( 'NONE',  ( 2.143131898507867804E-16, 1.250000000000000000, 0.000000000000000000 ) ) ;
#285 =( NAMED_UNIT ( * ) PLANE_ANGLE_UNIT ( ) SI_UNIT ( $, .RADIAN. ) );
#286 = STYLED_ITEM ( 'NONE', ( #200 ), #40 ) ;
#287 = FACE_OUTER_BOUND ( 'NONE', #277, .T. ) ;
#288 = EDGE_CURVE ( 'NONE', #122, #227, #347, .T. ) ;
#289 = DIRECTION ( 'NONE',  ( -0.000000000000000000, -1.000000000000000000, -0.000000000000000000 ) ) ;
#290 = COLOUR_RGB ( '',1.000000000000000000, 0.000000000000000000, 0.000000000000000000 ) ;
#291 = UNCERTAINTY_MEASURE_WITH_UNIT (LENGTH_MEASURE( 1.000000000000000082E-05 ), #219, 'distance_accuracy_value', 'NONE');
#292 = CARTESIAN_POINT ( 'NONE',  ( 0.000000000000000000, 0.000000000000000000, 0.000000000000000000 ) ) ;
#293 = CARTESIAN_POINT ( 'NONE',  ( -0.1874999999999999722, 3.000000000000000444, 0.000000000000000000 ) ) ;
#294 = ADVANCED_FACE ( 'NONE', ( #94 ), #255, .T. ) ;
#295 = CARTESIAN_POINT ( 'NONE',  ( 0.000000000000000000, 0.000000000000000000, 0.000000000000000000 ) ) ;
#296 = LENGTH_MEASURE_WITH_UNIT ( LENGTH_MEASURE( 0.02539999999999999897 ), #231 );
#297 = EDGE_CURVE ( 'NONE', #171, #144, #138, .T. ) ;
#298 = UNCERTAINTY_MEASURE_WITH_UNIT (LENGTH_MEASURE( 1.000000000000000082E-05 ), #5, 'distance_accuracy_value', 'NONE');
#299 = FILL_AREA_STYLE_COLOUR ( '', #337 ) ;
#300 = ORIENTED_EDGE ( 'NONE', *, *, #221, .F. ) ;
#301 =( CONVERSION_BASED_UNIT ( 'INCH', #296 ) LENGTH_UNIT ( ) NAMED_UNIT ( #335 ) );
#302 = VECTOR ( 'NONE', #318, 39.37007874015748143 ) ;
#303 = AXIS2_PLACEMENT_3D ( 'NONE', #150, #349, #205 ) ;
#304 = FACE_OUTER_BOUND ( 'NONE', #210, .T. ) ;
#305 =( NAMED_UNIT ( * ) PLANE_ANGLE_UNIT ( ) SI_UNIT ( $, .RADIAN. ) );
#306 = CARTESIAN_POINT ( 'NONE',  ( -0.1874999999999994449, 1.250000000000000000, 0.000000000000000000 ) ) ;
#307 =( LENGTH_UNIT ( ) NAMED_UNIT ( * ) SI_UNIT ( $, .METRE. ) );
#308 = STYLED_ITEM ( 'NONE', ( #58 ), #247 ) ;
#309 = DIRECTION ( 'NONE',  ( -1.924444970088698003E-16, 1.000000000000000000, -0.000000000000000000 ) ) ;
#310 = EDGE_CURVE ( 'NONE', #144, #197, #105, .T. ) ;
#311 = DIRECTION ( 'NONE',  ( -1.000000000000000000, 0.000000000000000000, 0.000000000000000000 ) ) ;
#312 = FACE_OUTER_BOUND ( 'NONE', #33, .T. ) ;
#313 = CARTESIAN_POINT ( 'NONE',  ( 0.1875000000000000278, 0.1875000000000000555, 0.000000000000000000 ) ) ;
#314 = CYLINDRICAL_SURFACE ( 'NONE', #350, 0.1874999999999999167 ) ;
#315 = AXIS2_PLACEMENT_3D ( 'NONE', #212, #309, #38 ) ;
#316 = PRESENTATION_LAYER_ASSIGNMENT (  '', '', ( #134 ) ) ;
#317 = EDGE_CURVE ( 'NONE', #48, #171, #342, .T. ) ;
#318 = DIRECTION ( 'NONE',  ( -1.924444970088698003E-16, 1.000000000000000000, -0.000000000000000000 ) ) ;
#319 = LENGTH_MEASURE_WITH_UNIT ( LENGTH_MEASURE( 0.02539999999999999897 ), #111 );
#320 =( LENGTH_UNIT ( ) NAMED_UNIT ( * ) SI_UNIT ( $, .METRE. ) );
#321 = AXIS2_PLACEMENT_3D ( 'NONE', #281, #66, #129 ) ;
#322 = AXIS2_PLACEMENT_3D ( 'NONE', #191, #226, #344 ) ;
#323 = CARTESIAN_POINT ( 'NONE',  ( 0.000000000000000000, 0.1875000000000000555, 0.000000000000000000 ) ) ;
#324 = ORIENTED_EDGE ( 'NONE', *, *, #297, .F. ) ;
#325 = SURFACE_SIDE_STYLE ('',( #356 ) ) ;
#326 = VERTEX_POINT ( 'NONE', #63 ) ;
#327 = EDGE_LOOP ( 'NONE', ( #201, #243 ) ) ;
#328 = SURFACE_STYLE_USAGE ( .BOTH. , #9 ) ;
#329 = LENGTH_MEASURE_WITH_UNIT ( LENGTH_MEASURE( 0.02539999999999999897 ), #41 );
#330 = DIRECTION ( 'NONE',  ( -1.000000000000000000, -1.924444970088698003E-16, 0.000000000000000000 ) ) ;
#331 =( NAMED_UNIT ( * ) SI_UNIT ( $, .STERADIAN. ) SOLID_ANGLE_UNIT ( ) );
#332 = EDGE_CURVE ( 'NONE', #197, #326, #86, .T. ) ;
#333 = COLOUR_RGB ( '',0.7921568627450980005, 0.8196078431372548767, 0.9333333333333333481 ) ;
#334 = FILL_AREA_STYLE_COLOUR ( '', #358 ) ;
#335 = DIMENSIONAL_EXPONENTS ( 1.000000000000000000, 0.000000000000000000, 0.000000000000000000, 0.000000000000000000, 0.000000000000000000, 0.000000000000000000, 0.000000000000000000 ) ;
#336 = PRESENTATION_STYLE_ASSIGNMENT (( #360 ) ) ;
#337 = COLOUR_RGB ( '',1.000000000000000000, 0.000000000000000000, 0.000000000000000000 ) ;
#338 = CARTESIAN_POINT ( 'NONE',  ( -2.296212748401287726E-17, 0.1875000000000000278, 0.000000000000000000 ) ) ;
#339 =( LENGTH_UNIT ( ) NAMED_UNIT ( * ) SI_UNIT ( $, .METRE. ) );
#340 = ORIENTED_EDGE ( 'NONE', *, *, #221, .T. ) ;
#341 = CARTESIAN_POINT ( 'NONE',  ( -0.1875000000000000555, 0.1875000000000000555, 2.296212748401288034E-17 ) ) ;
#342 = CIRCLE ( 'NONE', #204, 0.1875000000000000278 ) ;
#343 = EDGE_LOOP ( 'NONE', ( #59, #140, #113, #2 ) ) ;
#344 = DIRECTION ( 'NONE',  ( -1.000000000000000000, 0.000000000000000000, 0.000000000000000000 ) ) ;
#345 =( NAMED_UNIT ( * ) PLANE_ANGLE_UNIT ( ) SI_UNIT ( $, .RADIAN. ) );
#346 = DIRECTION ( 'NONE',  ( 1.000000000000000000, 1.924444970088698003E-16, 0.000000000000000000 ) ) ;
#347 = LINE ( 'NONE', #124, #51 ) ;
#348 = SURFACE_STYLE_FILL_AREA ( #121 ) ;
#349 = DIRECTION ( 'NONE',  ( -0.000000000000000000, -1.000000000000000000, -0.000000000000000000 ) ) ;
#350 = AXIS2_PLACEMENT_3D ( 'NONE', #295, #25, #238 ) ;
#351 = ORIENTED_EDGE ( 'NONE', *, *, #65, .T. ) ;
#352 = SHAPE_DEFINITION_REPRESENTATION ( #130, #276 ) ;
#353 = ORIENTED_EDGE ( 'NONE', *, *, #288, .T. ) ;
#354 = PRODUCT_CONTEXT ( 'NONE', #22, 'mechanical' ) ;
#355 = PRODUCT_RELATED_PRODUCT_CATEGORY ( 'part', '', ( #68 ) ) ;
#356 = SURFACE_STYLE_FILL_AREA ( #56 ) ;
#357 = EDGE_LOOP ( 'NONE', ( #120, #278 ) ) ;
#358 = COLOUR_RGB ( '',1.000000000000000000, 0.000000000000000000, 0.000000000000000000 ) ;
#359 = CARTESIAN_POINT ( 'NONE',  ( -2.296212748401287726E-17, 0.1875000000000000278, 0.000000000000000000 ) ) ;
#360 = SURFACE_STYLE_USAGE ( .BOTH. , #367 ) ;
#361 =( CONVERSION_BASED_UNIT ( 'INCH', #329 ) LENGTH_UNIT ( ) NAMED_UNIT ( #366 ) );
#362 =( GEOMETRIC_REPRESENTATION_CONTEXT ( 3 ) GLOBAL_UNCERTAINTY_ASSIGNED_CONTEXT ( ( #261 ) ) GLOBAL_UNIT_ASSIGNED_CONTEXT ( ( #142, #266, #275 ) ) REPRESENTATION_CONTEXT ( 'NONE', 'WORKASPACE' ) );
#363 = CARTESIAN_POINT ( 'NONE',  ( 0.000000000000000000, 0.1875000000000000555, -0.1875000000000000278 ) ) ;
#364 = PRESENTATION_LAYER_ASSIGNMENT (  '', '', ( #222 ) ) ;
#365 = ORIENTED_EDGE ( 'NONE', *, *, #288, .F. ) ;
#366 = DIMENSIONAL_EXPONENTS ( 1.000000000000000000, 0.000000000000000000, 0.000000000000000000, 0.000000000000000000, 0.000000000000000000, 0.000000000000000000, 0.000000000000000000 ) ;
#367 = SURFACE_SIDE_STYLE ('',( #128 ) ) ;
#368 = CARTESIAN_POINT ( 'NONE',  ( 0.1874999999999998890, 3.000000000000000444, 2.296212748401286493E-17 ) ) ;
#369 = AXIS2_PLACEMENT_3D ( 'NONE', #43, #167, #72 ) ;
#370 = DIMENSIONAL_EXPONENTS ( 1.000000000000000000, 0.000000000000000000, 0.000000000000000000, 0.000000000000000000, 0.000000000000000000, 0.000000000000000000, 0.000000000000000000 ) ;
#371 = DIRECTION ( 'NONE',  ( 0.000000000000000000, 0.000000000000000000, -1.000000000000000000 ) ) ;
#372 = ADVANCED_FACE ( 'NONE', ( #159 ), #98, .F. ) ;
#373 = UNCERTAINTY_MEASURE_WITH_UNIT (LENGTH_MEASURE( 1.000000000000000082E-05 ), #139, 'distance_accuracy_value', 'NONE');
ENDSEC;
END-ISO-10303-21;
