ISO-10303-21;
HEADER;
FILE_DESCRIPTION (( 'STEP AP214' ),
    '1' );
FILE_NAME ('24187.STEP',
    '2023-06-22T17:02:09',
    ( '' ),
    ( '' ),
    'SwSTEP 2.0',
    'SolidWorks 2023',
    '' );
FILE_SCHEMA (( 'AUTOMOTIVE_DESIGN' ));
ENDSEC;

DATA;
#1 = ADVANCED_FACE ( 'NONE', ( #50 ), #8, .T. ) ;
#2 = CIRCLE ( 'NONE', #269, 0.1875000000000000278 ) ;
#3 = PRESENTATION_STYLE_ASSIGNMENT (( #257 ) ) ;
#4 = PRODUCT_RELATED_PRODUCT_CATEGORY ( 'part', '', ( #77 ) ) ;
#5 = UNCERTAINTY_MEASURE_WITH_UNIT (LENGTH_MEASURE( 1.000000000000000082E-05 ), #120, 'distance_accuracy_value', 'NONE');
#6 = LENGTH_MEASURE_WITH_UNIT ( LENGTH_MEASURE( 0.02539999999999999897 ), #297 );
#7 = FACE_OUTER_BOUND ( 'NONE', #157, .T. ) ;
#8 = CYLINDRICAL_SURFACE ( 'NONE', #175, 0.1875000000000000278 ) ;
#9 = AXIS2_PLACEMENT_3D ( 'NONE', #196, #177, #43 ) ;
#10 = LENGTH_MEASURE_WITH_UNIT ( LENGTH_MEASURE( 0.02539999999999999897 ), #53 );
#11 = APPLICATION_CONTEXT ( 'automotive_design' ) ;
#12 = VERTEX_POINT ( 'NONE', #138 ) ;
#13 = FILL_AREA_STYLE ('',( #241 ) ) ;
#14 = ADVANCED_FACE ( 'NONE', ( #188 ), #29, .T. ) ;
#15 = CARTESIAN_POINT ( 'NONE',  ( -0.1874999999999999722, 1.000000000000000000, 0.000000000000000000 ) ) ;
#16 = FACE_OUTER_BOUND ( 'NONE', #182, .T. ) ;
#17 = CARTESIAN_POINT ( 'NONE',  ( 2.296212748401287109E-17, 0.000000000000000000, 0.1875000000000000278 ) ) ;
#18 = LINE ( 'NONE', #41, #158 ) ;
#19 = SURFACE_STYLE_FILL_AREA ( #156 ) ;
#20 = DIRECTION ( 'NONE',  ( -3.061616997868386099E-17, 1.000000000000000000, -0.000000000000000000 ) ) ;
#21 = MECHANICAL_DESIGN_GEOMETRIC_PRESENTATION_REPRESENTATION (  '', ( #90 ), #255 ) ;
#22 = STYLED_ITEM ( 'NONE', ( #66 ), #275 ) ;
#23 = FACE_OUTER_BOUND ( 'NONE', #45, .T. ) ;
#24 = ORIENTED_EDGE ( 'NONE', *, *, #98, .T. ) ;
#25 = AXIS2_PLACEMENT_3D ( 'NONE', #171, #201, #248 ) ;
#26 = AXIS2_PLACEMENT_3D ( 'NONE', #42, #285, #302 ) ;
#27 = DIRECTION ( 'NONE',  ( -0.000000000000000000, -1.000000000000000000, -0.000000000000000000 ) ) ;
#28 = PRODUCT_DEFINITION_SHAPE ( 'NONE', 'NONE',  #288 ) ;
#29 = CYLINDRICAL_SURFACE ( 'NONE', #298, 0.1874999999999999722 ) ;
#30 = PRODUCT_CONTEXT ( 'NONE', #11, 'mechanical' ) ;
#31 = EDGE_LOOP ( 'NONE', ( #81, #258, #82, #289 ) ) ;
#32 = EDGE_CURVE ( 'NONE', #136, #140, #237, .T. ) ;
#33 =( CONVERSION_BASED_UNIT ( 'INCH', #6 ) LENGTH_UNIT ( ) NAMED_UNIT ( #300 ) );
#34 = COLOUR_RGB ( '',1.000000000000000000, 0.000000000000000000, 0.000000000000000000 ) ;
#35 = DIRECTION ( 'NONE',  ( 0.000000000000000000, 0.000000000000000000, -1.000000000000000000 ) ) ;
#36 = DIRECTION ( 'NONE',  ( -0.000000000000000000, -1.000000000000000000, -0.000000000000000000 ) ) ;
#37 =( LENGTH_UNIT ( ) NAMED_UNIT ( * ) SI_UNIT ( $, .METRE. ) );
#38 = PRESENTATION_LAYER_ASSIGNMENT (  '', '', ( #228 ) ) ;
#39 = DIRECTION ( 'NONE',  ( -0.000000000000000000, -1.000000000000000000, -0.000000000000000000 ) ) ;
#40 = CARTESIAN_POINT ( 'NONE',  ( 8.787654976534340096E-35, 1.000000000000000000, 0.000000000000000000 ) ) ;
#41 = CARTESIAN_POINT ( 'NONE',  ( 0.1874999999999999445, 3.000000000000000444, 2.296212748401287726E-17 ) ) ;
#42 = CARTESIAN_POINT ( 'NONE',  ( 0.000000000000000000, 1.000000000000000000, 0.000000000000000000 ) ) ;
#43 = DIRECTION ( 'NONE',  ( 0.000000000000000000, 0.000000000000000000, -1.000000000000000000 ) ) ;
#44 =( GEOMETRIC_REPRESENTATION_CONTEXT ( 3 ) GLOBAL_UNCERTAINTY_ASSIGNED_CONTEXT ( ( #279 ) ) GLOBAL_UNIT_ASSIGNED_CONTEXT ( ( #230, #113, #210 ) ) REPRESENTATION_CONTEXT ( 'NONE', 'WORKASPACE' ) );
#45 = EDGE_LOOP ( 'NONE', ( #292, #254 ) ) ;
#46 = AXIS2_PLACEMENT_3D ( 'NONE', #116, #87, #198 ) ;
#47 = VERTEX_POINT ( 'NONE', #54 ) ;
#48 = MANIFOLD_SOLID_BREP ( 'Revolve - Tool Body (Straight Shanked)', #108 ) ;
#49 = EDGE_CURVE ( 'NONE', #218, #281, #2, .T. ) ;
#50 = FACE_OUTER_BOUND ( 'NONE', #273, .T. ) ;
#51 = ORIENTED_EDGE ( 'NONE', *, *, #161, .T. ) ;
#52 = ORIENTED_EDGE ( 'NONE', *, *, #135, .F. ) ;
#53 =( LENGTH_UNIT ( ) NAMED_UNIT ( * ) SI_UNIT ( $, .METRE. ) );
#54 = CARTESIAN_POINT ( 'NONE',  ( 0.000000000000000000, 1.000000000000000000, -0.1874999999999999722 ) ) ;
#55 = DIMENSIONAL_EXPONENTS ( 1.000000000000000000, 0.000000000000000000, 0.000000000000000000, 0.000000000000000000, 0.000000000000000000, 0.000000000000000000, 0.000000000000000000 ) ;
#56 =( NAMED_UNIT ( * ) PLANE_ANGLE_UNIT ( ) SI_UNIT ( $, .RADIAN. ) );
#57 = STYLED_ITEM ( 'NONE', ( #61 ), #48 ) ;
#58 = CIRCLE ( 'NONE', #100, 0.1874999999999999722 ) ;
#59 = EDGE_CURVE ( 'NONE', #12, #47, #180, .T. ) ;
#60 = FACE_OUTER_BOUND ( 'NONE', #75, .T. ) ;
#61 = PRESENTATION_STYLE_ASSIGNMENT (( #225 ) ) ;
#62 = FACE_OUTER_BOUND ( 'NONE', #296, .T. ) ;
#63 = SURFACE_SIDE_STYLE ('',( #92 ) ) ;
#64 =( NAMED_UNIT ( * ) SI_UNIT ( $, .STERADIAN. ) SOLID_ANGLE_UNIT ( ) );
#65 = PRESENTATION_LAYER_ASSIGNMENT (  '', '', ( #90 ) ) ;
#66 = PRESENTATION_STYLE_ASSIGNMENT (( #151 ) ) ;
#67 = AXIS2_PLACEMENT_3D ( 'NONE', #126, #36, #96 ) ;
#68 = CARTESIAN_POINT ( 'NONE',  ( 0.000000000000000000, 0.000000000000000000, -0.1874999999999999722 ) ) ;
#69 = DIRECTION ( 'NONE',  ( -1.000000000000000000, 0.000000000000000000, 0.000000000000000000 ) ) ;
#70 = LENGTH_MEASURE_WITH_UNIT ( LENGTH_MEASURE( 0.02539999999999999897 ), #97 );
#71 = UNCERTAINTY_MEASURE_WITH_UNIT (LENGTH_MEASURE( 1.000000000000000082E-05 ), #229, 'distance_accuracy_value', 'NONE');
#72 =( NAMED_UNIT ( * ) SI_UNIT ( $, .STERADIAN. ) SOLID_ANGLE_UNIT ( ) );
#73 = EDGE_CURVE ( 'NONE', #47, #12, #260, .T. ) ;
#74 =( GEOMETRIC_REPRESENTATION_CONTEXT ( 3 ) GLOBAL_UNCERTAINTY_ASSIGNED_CONTEXT ( ( #71 ) ) GLOBAL_UNIT_ASSIGNED_CONTEXT ( ( #229, #102, #72 ) ) REPRESENTATION_CONTEXT ( 'NONE', 'WORKASPACE' ) );
#75 = EDGE_LOOP ( 'NONE', ( #290, #295 ) ) ;
#76 = CARTESIAN_POINT ( 'NONE',  ( 2.296212748401286801E-17, 0.000000000000000000, 0.1874999999999999722 ) ) ;
#77 = PRODUCT ( '24187', '24187', '', ( #30 ) ) ;
#78 =( LENGTH_UNIT ( ) NAMED_UNIT ( * ) SI_UNIT ( $, .METRE. ) );
#79 = PRODUCT_DEFINITION_FORMATION_WITH_SPECIFIED_SOURCE ( 'ANY', '', #77, .NOT_KNOWN. ) ;
#80 = APPLICATION_PROTOCOL_DEFINITION ( 'draft international standard', 'automotive_design', 1998, #11 ) ;
#81 = ORIENTED_EDGE ( 'NONE', *, *, #73, .T. ) ;
#82 = ORIENTED_EDGE ( 'NONE', *, *, #89, .F. ) ;
#83 = DIRECTION ( 'NONE',  ( -1.000000000000000000, 0.000000000000000000, 0.000000000000000000 ) ) ;
#84 = CIRCLE ( 'NONE', #134, 0.1875000000000000555 ) ;
#85 = ORIENTED_EDGE ( 'NONE', *, *, #103, .F. ) ;
#86 = UNCERTAINTY_MEASURE_WITH_UNIT (LENGTH_MEASURE( 1.000000000000000082E-05 ), #247, 'distance_accuracy_value', 'NONE');
#87 = DIRECTION ( 'NONE',  ( -3.061616997868386099E-17, 1.000000000000000000, -0.000000000000000000 ) ) ;
#88 = DIMENSIONAL_EXPONENTS ( 1.000000000000000000, 0.000000000000000000, 0.000000000000000000, 0.000000000000000000, 0.000000000000000000, 0.000000000000000000, 0.000000000000000000 ) ;
#89 = EDGE_CURVE ( 'NONE', #281, #218, #149, .T. ) ;
#90 = STYLED_ITEM ( 'NONE', ( #3 ), #14 ) ;
#91 = COLOUR_RGB ( '',1.000000000000000000, 0.000000000000000000, 0.000000000000000000 ) ;
#92 = SURFACE_STYLE_FILL_AREA ( #95 ) ;
#93 = ADVANCED_FACE ( 'NONE', ( #16 ), #227, .T. ) ;
#94 = SURFACE_STYLE_FILL_AREA ( #148 ) ;
#95 = FILL_AREA_STYLE ('',( #301 ) ) ;
#96 = DIRECTION ( 'NONE',  ( 0.000000000000000000, 0.000000000000000000, -1.000000000000000000 ) ) ;
#97 =( LENGTH_UNIT ( ) NAMED_UNIT ( * ) SI_UNIT ( $, .METRE. ) );
#98 = EDGE_CURVE ( 'NONE', #235, #133, #18, .T. ) ;
#99 = DIRECTION ( 'NONE',  ( -0.000000000000000000, -1.000000000000000000, -0.000000000000000000 ) ) ;
#100 = AXIS2_PLACEMENT_3D ( 'NONE', #204, #286, #69 ) ;
#101 =( NAMED_UNIT ( * ) SI_UNIT ( $, .STERADIAN. ) SOLID_ANGLE_UNIT ( ) );
#102 =( NAMED_UNIT ( * ) PLANE_ANGLE_UNIT ( ) SI_UNIT ( $, .RADIAN. ) );
#103 = EDGE_CURVE ( 'NONE', #136, #235, #58, .T. ) ;
#104 = SURFACE_STYLE_FILL_AREA ( #266 ) ;
#105 = CARTESIAN_POINT ( 'NONE',  ( 0.1874999999999999722, 3.000000000000000444, 2.296212748401287726E-17 ) ) ;
#106 = EDGE_LOOP ( 'NONE', ( #85, #193 ) ) ;
#107 = DIRECTION ( 'NONE',  ( -1.000000000000000000, -3.061616997868386099E-17, 0.000000000000000000 ) ) ;
#108 = CLOSED_SHELL ( 'NONE', ( #155, #268, #1, #160 ) ) ;
#109 = VECTOR ( 'NONE', #99, 39.37007874015748143 ) ;
#110 = APPLICATION_CONTEXT ( 'automotive_design' ) ;
#111 = DIRECTION ( 'NONE',  ( 0.000000000000000000, 0.000000000000000000, -1.000000000000000000 ) ) ;
#112 = AXIS2_PLACEMENT_3D ( 'NONE', #190, #142, #236 ) ;
#113 =( NAMED_UNIT ( * ) PLANE_ANGLE_UNIT ( ) SI_UNIT ( $, .RADIAN. ) );
#114 = CARTESIAN_POINT ( 'NONE',  ( -0.1875000000000000833, 3.000000000000000444, 0.000000000000000000 ) ) ;
#115 = DIRECTION ( 'NONE',  ( -1.000000000000000000, 0.000000000000000000, 0.000000000000000000 ) ) ;
#116 = CARTESIAN_POINT ( 'NONE',  ( -6.123233995736772199E-17, 3.000000000000000444, 0.000000000000000000 ) ) ;
#117 = COLOUR_RGB ( '',0.7921568627450980005, 0.8196078431372548767, 0.9333333333333333481 ) ;
#118 = ORIENTED_EDGE ( 'NONE', *, *, #103, .T. ) ;
#119 = MECHANICAL_DESIGN_GEOMETRIC_PRESENTATION_REPRESENTATION (  '', ( #22 ), #74 ) ;
#120 =( CONVERSION_BASED_UNIT ( 'INCH', #10 ) LENGTH_UNIT ( ) NAMED_UNIT ( #267 ) );
#121 = SURFACE_STYLE_FILL_AREA ( #163 ) ;
#122 =( LENGTH_UNIT ( ) NAMED_UNIT ( * ) SI_UNIT ( $, .METRE. ) );
#123 = CYLINDRICAL_SURFACE ( 'NONE', #46, 0.1875000000000000278 ) ;
#124 = DIRECTION ( 'NONE',  ( -0.000000000000000000, -1.000000000000000000, -0.000000000000000000 ) ) ;
#125 = PLANE ( 'NONE',  #181 ) ;
#126 = CARTESIAN_POINT ( 'NONE',  ( 0.000000000000000000, 0.000000000000000000, 0.000000000000000000 ) ) ;
#127 = LENGTH_MEASURE_WITH_UNIT ( LENGTH_MEASURE( 0.02539999999999999897 ), #37 );
#128 =( GEOMETRIC_REPRESENTATION_CONTEXT ( 3 ) GLOBAL_UNCERTAINTY_ASSIGNED_CONTEXT ( ( #159 ) ) GLOBAL_UNIT_ASSIGNED_CONTEXT ( ( #261, #152, #64 ) ) REPRESENTATION_CONTEXT ( 'NONE', 'WORKASPACE' ) );
#129 = DIRECTION ( 'NONE',  ( 0.000000000000000000, -1.000000000000000000, -0.000000000000000000 ) ) ;
#130 = STYLED_ITEM ( 'NONE', ( #205 ), #215 ) ;
#131 = EDGE_CURVE ( 'NONE', #133, #140, #84, .T. ) ;
#132 = ORIENTED_EDGE ( 'NONE', *, *, #49, .F. ) ;
#133 = VERTEX_POINT ( 'NONE', #105 ) ;
#134 = AXIS2_PLACEMENT_3D ( 'NONE', #274, #234, #83 ) ;
#135 = EDGE_CURVE ( 'NONE', #140, #133, #308, .T. ) ;
#136 = VERTEX_POINT ( 'NONE', #15 ) ;
#137 = MECHANICAL_DESIGN_GEOMETRIC_PRESENTATION_REPRESENTATION (  '', ( #228 ), #239 ) ;
#138 = CARTESIAN_POINT ( 'NONE',  ( 2.296212748401286801E-17, 1.000000000000000000, 0.1874999999999999722 ) ) ;
#139 = UNCERTAINTY_MEASURE_WITH_UNIT (LENGTH_MEASURE( 1.000000000000000082E-05 ), #223, 'distance_accuracy_value', 'NONE');
#140 = VERTEX_POINT ( 'NONE', #262 ) ;
#141 = CARTESIAN_POINT ( 'NONE',  ( 0.000000000000000000, 0.000000000000000000, 0.000000000000000000 ) ) ;
#142 = DIRECTION ( 'NONE',  ( -3.061616997868386099E-17, 1.000000000000000000, -0.000000000000000000 ) ) ;
#143 = PRESENTATION_LAYER_ASSIGNMENT (  '', '', ( #251 ) ) ;
#144 = PLANE ( 'NONE',  #203 ) ;
#145 = CARTESIAN_POINT ( 'NONE',  ( 0.000000000000000000, 0.000000000000000000, 0.000000000000000000 ) ) ;
#146 =( NAMED_UNIT ( * ) PLANE_ANGLE_UNIT ( ) SI_UNIT ( $, .RADIAN. ) );
#147 = SURFACE_SIDE_STYLE ('',( #94 ) ) ;
#148 = FILL_AREA_STYLE ('',( #199 ) ) ;
#149 = CIRCLE ( 'NONE', #67, 0.1875000000000000278 ) ;
#150 = CARTESIAN_POINT ( 'NONE',  ( 0.000000000000000000, 1.000000000000000000, 0.000000000000000000 ) ) ;
#151 = SURFACE_STYLE_USAGE ( .BOTH. , #252 ) ;
#152 =( NAMED_UNIT ( * ) PLANE_ANGLE_UNIT ( ) SI_UNIT ( $, .RADIAN. ) );
#153 = FILL_AREA_STYLE_COLOUR ( '', #34 ) ;
#154 = CARTESIAN_POINT ( 'NONE',  ( 0.1874999999999999722, 1.000000000000000000, 2.296212748401287726E-17 ) ) ;
#155 = ADVANCED_FACE ( 'NONE', ( #7 ), #123, .T. ) ;
#156 = FILL_AREA_STYLE ('',( #305 ) ) ;
#157 = EDGE_LOOP ( 'NONE', ( #118, #24, #52, #270 ) ) ;
#158 = VECTOR ( 'NONE', #20, 39.37007874015748143 ) ;
#159 = UNCERTAINTY_MEASURE_WITH_UNIT (LENGTH_MEASURE( 1.000000000000000082E-05 ), #261, 'distance_accuracy_value', 'NONE');
#160 = ADVANCED_FACE ( 'NONE', ( #62 ), #144, .F. ) ;
#161 = EDGE_CURVE ( 'NONE', #235, #136, #233, .T. ) ;
#162 = MANIFOLD_SOLID_BREP ( 'Revolve - Cutting Edge', #202 ) ;
#163 = FILL_AREA_STYLE ('',( #212 ) ) ;
#164 = SHAPE_DEFINITION_REPRESENTATION ( #28, #170 ) ;
#165 = SURFACE_SIDE_STYLE ('',( #121 ) ) ;
#166 = PRODUCT_DEFINITION_CONTEXT ( 'detailed design', #110, 'design' ) ;
#167 = CARTESIAN_POINT ( 'NONE',  ( 0.1874999999999999722, 3.000000000000000444, 0.000000000000000000 ) ) ;
#168 =( NAMED_UNIT ( * ) SI_UNIT ( $, .STERADIAN. ) SOLID_ANGLE_UNIT ( ) );
#169 =( GEOMETRIC_REPRESENTATION_CONTEXT ( 3 ) GLOBAL_UNCERTAINTY_ASSIGNED_CONTEXT ( ( #86 ) ) GLOBAL_UNIT_ASSIGNED_CONTEXT ( ( #247, #206, #253 ) ) REPRESENTATION_CONTEXT ( 'NONE', 'WORKASPACE' ) );
#170 = ADVANCED_BREP_SHAPE_REPRESENTATION ( '24187', ( #162, #48, #291 ), #44 ) ;
#171 = CARTESIAN_POINT ( 'NONE',  ( 0.000000000000000000, 0.000000000000000000, 0.000000000000000000 ) ) ;
#172 = DIMENSIONAL_EXPONENTS ( 1.000000000000000000, 0.000000000000000000, 0.000000000000000000, 0.000000000000000000, 0.000000000000000000, 0.000000000000000000, 0.000000000000000000 ) ;
#173 = SURFACE_STYLE_USAGE ( .BOTH. , #63 ) ;
#174 = LENGTH_MEASURE_WITH_UNIT ( LENGTH_MEASURE( 0.02539999999999999897 ), #263 );
#175 = AXIS2_PLACEMENT_3D ( 'NONE', #276, #191, #115 ) ;
#176 = PRESENTATION_LAYER_ASSIGNMENT (  '', '', ( #130 ) ) ;
#177 = DIRECTION ( 'NONE',  ( -0.000000000000000000, -1.000000000000000000, -0.000000000000000000 ) ) ;
#178 = PLANE ( 'NONE',  #217 ) ;
#179 = SURFACE_STYLE_USAGE ( .BOTH. , #226 ) ;
#180 = CIRCLE ( 'NONE', #9, 0.1874999999999999722 ) ;
#181 = AXIS2_PLACEMENT_3D ( 'NONE', #224, #129, #111 ) ;
#182 = EDGE_LOOP ( 'NONE', ( #306, #219, #278, #132 ) ) ;
#183 = COLOUR_RGB ( '',1.000000000000000000, 0.000000000000000000, 0.000000000000000000 ) ;
#184 = APPLICATION_PROTOCOL_DEFINITION ( 'draft international standard', 'automotive_design', 1998, #110 ) ;
#185 = EDGE_CURVE ( 'NONE', #47, #281, #307, .T. ) ;
#186 = ORIENTED_EDGE ( 'NONE', *, *, #32, .T. ) ;
#187 = DIRECTION ( 'NONE',  ( 1.000000000000000000, 0.000000000000000000, 0.000000000000000000 ) ) ;
#188 = FACE_OUTER_BOUND ( 'NONE', #31, .T. ) ;
#189 = COLOUR_RGB ( '',1.000000000000000000, 0.000000000000000000, 0.000000000000000000 ) ;
#190 = CARTESIAN_POINT ( 'NONE',  ( -6.123233995736772199E-17, 3.000000000000000444, 0.000000000000000000 ) ) ;
#191 = DIRECTION ( 'NONE',  ( -3.061616997868386099E-17, 1.000000000000000000, -0.000000000000000000 ) ) ;
#192 = DIRECTION ( 'NONE',  ( 1.000000000000000000, 3.061616997868386099E-17, 0.000000000000000000 ) ) ;
#193 = ORIENTED_EDGE ( 'NONE', *, *, #161, .F. ) ;
#194 = DIRECTION ( 'NONE',  ( 3.061616997868386099E-17, -1.000000000000000000, 0.000000000000000000 ) ) ;
#195 = MECHANICAL_DESIGN_GEOMETRIC_PRESENTATION_REPRESENTATION (  '', ( #57 ), #128 ) ;
#196 = CARTESIAN_POINT ( 'NONE',  ( 0.000000000000000000, 1.000000000000000000, 0.000000000000000000 ) ) ;
#197 =( GEOMETRIC_REPRESENTATION_CONTEXT ( 3 ) GLOBAL_UNCERTAINTY_ASSIGNED_CONTEXT ( ( #5 ) ) GLOBAL_UNIT_ASSIGNED_CONTEXT ( ( #120, #146, #242 ) ) REPRESENTATION_CONTEXT ( 'NONE', 'WORKASPACE' ) );
#198 = DIRECTION ( 'NONE',  ( -1.000000000000000000, 0.000000000000000000, 0.000000000000000000 ) ) ;
#199 = FILL_AREA_STYLE_COLOUR ( '', #189 ) ;
#200 = DIMENSIONAL_EXPONENTS ( 1.000000000000000000, 0.000000000000000000, 0.000000000000000000, 0.000000000000000000, 0.000000000000000000, 0.000000000000000000, 0.000000000000000000 ) ;
#201 = DIRECTION ( 'NONE',  ( -0.000000000000000000, -1.000000000000000000, -0.000000000000000000 ) ) ;
#202 = CLOSED_SHELL ( 'NONE', ( #14, #215, #93, #275 ) ) ;
#203 = AXIS2_PLACEMENT_3D ( 'NONE', #167, #194, #192 ) ;
#204 = CARTESIAN_POINT ( 'NONE',  ( 7.582401355855259480E-33, 1.000000000000000000, 0.000000000000000000 ) ) ;
#205 = PRESENTATION_STYLE_ASSIGNMENT (( #179 ) ) ;
#206 =( NAMED_UNIT ( * ) PLANE_ANGLE_UNIT ( ) SI_UNIT ( $, .RADIAN. ) );
#207 = FACE_OUTER_BOUND ( 'NONE', #106, .T. ) ;
#208 = AXIS2_PLACEMENT_3D ( 'NONE', #214, #280, #222 ) ;
#209 = UNCERTAINTY_MEASURE_WITH_UNIT (LENGTH_MEASURE( 1.000000000000000082E-05 ), #33, 'distance_accuracy_value', 'NONE');
#210 =( NAMED_UNIT ( * ) SI_UNIT ( $, .STERADIAN. ) SOLID_ANGLE_UNIT ( ) );
#211 = CARTESIAN_POINT ( 'NONE',  ( 0.000000000000000000, 0.000000000000000000, 0.000000000000000000 ) ) ;
#212 = FILL_AREA_STYLE_COLOUR ( '', #183 ) ;
#213 = DIRECTION ( 'NONE',  ( -0.000000000000000000, -1.000000000000000000, -0.000000000000000000 ) ) ;
#214 = CARTESIAN_POINT ( 'NONE',  ( 7.582401355855259480E-33, 1.000000000000000000, 0.000000000000000000 ) ) ;
#215 = ADVANCED_FACE ( 'NONE', ( #60 ), #264, .T. ) ;
#216 = VECTOR ( 'NONE', #27, 39.37007874015748143 ) ;
#217 = AXIS2_PLACEMENT_3D ( 'NONE', #40, #303, #107 ) ;
#218 = VERTEX_POINT ( 'NONE', #17 ) ;
#219 = ORIENTED_EDGE ( 'NONE', *, *, #59, .T. ) ;
#220 = SURFACE_STYLE_FILL_AREA ( #13 ) ;
#221 = MECHANICAL_DESIGN_GEOMETRIC_PRESENTATION_REPRESENTATION (  '', ( #130 ), #169 ) ;
#222 = DIRECTION ( 'NONE',  ( -1.000000000000000000, 0.000000000000000000, 0.000000000000000000 ) ) ;
#223 =( CONVERSION_BASED_UNIT ( 'INCH', #243 ) LENGTH_UNIT ( ) NAMED_UNIT ( #55 ) );
#224 = CARTESIAN_POINT ( 'NONE',  ( 0.000000000000000000, 0.000000000000000000, 0.000000000000000000 ) ) ;
#225 = SURFACE_STYLE_USAGE ( .BOTH. , #283 ) ;
#226 = SURFACE_SIDE_STYLE ('',( #19 ) ) ;
#227 = CYLINDRICAL_SURFACE ( 'NONE', #25, 0.1874999999999999722 ) ;
#228 = STYLED_ITEM ( 'NONE', ( #246 ), #93 ) ;
#229 =( CONVERSION_BASED_UNIT ( 'INCH', #127 ) LENGTH_UNIT ( ) NAMED_UNIT ( #265 ) );
#230 =( CONVERSION_BASED_UNIT ( 'INCH', #231 ) LENGTH_UNIT ( ) NAMED_UNIT ( #200 ) );
#231 = LENGTH_MEASURE_WITH_UNIT ( LENGTH_MEASURE( 0.02539999999999999897 ), #78 );
#232 = LINE ( 'NONE', #76, #216 ) ;
#233 = CIRCLE ( 'NONE', #208, 0.1874999999999999722 ) ;
#234 = DIRECTION ( 'NONE',  ( -3.061616997868386099E-17, 1.000000000000000000, -0.000000000000000000 ) ) ;
#235 = VERTEX_POINT ( 'NONE', #154 ) ;
#236 = DIRECTION ( 'NONE',  ( -1.000000000000000000, 0.000000000000000000, 0.000000000000000000 ) ) ;
#237 = LINE ( 'NONE', #114, #250 ) ;
#238 = PRESENTATION_LAYER_ASSIGNMENT (  '', '', ( #57 ) ) ;
#239 =( GEOMETRIC_REPRESENTATION_CONTEXT ( 3 ) GLOBAL_UNCERTAINTY_ASSIGNED_CONTEXT ( ( #139 ) ) GLOBAL_UNIT_ASSIGNED_CONTEXT ( ( #223, #284, #101 ) ) REPRESENTATION_CONTEXT ( 'NONE', 'WORKASPACE' ) );
#240 = ORIENTED_EDGE ( 'NONE', *, *, #135, .T. ) ;
#241 = FILL_AREA_STYLE_COLOUR ( '', #117 ) ;
#242 =( NAMED_UNIT ( * ) SI_UNIT ( $, .STERADIAN. ) SOLID_ANGLE_UNIT ( ) );
#243 = LENGTH_MEASURE_WITH_UNIT ( LENGTH_MEASURE( 0.02539999999999999897 ), #122 );
#244 = SURFACE_STYLE_USAGE ( .BOTH. , #147 ) ;
#245 = PRESENTATION_LAYER_ASSIGNMENT (  '', '', ( #22 ) ) ;
#246 = PRESENTATION_STYLE_ASSIGNMENT (( #244 ) ) ;
#247 =( CONVERSION_BASED_UNIT ( 'INCH', #70 ) LENGTH_UNIT ( ) NAMED_UNIT ( #88 ) );
#248 = DIRECTION ( 'NONE',  ( 0.000000000000000000, 0.000000000000000000, -1.000000000000000000 ) ) ;
#249 = DIRECTION ( 'NONE',  ( 0.000000000000000000, 0.000000000000000000, -1.000000000000000000 ) ) ;
#250 = VECTOR ( 'NONE', #294, 39.37007874015748143 ) ;
#251 = STYLED_ITEM ( 'NONE', ( #277 ), #162 ) ;
#252 = SURFACE_SIDE_STYLE ('',( #104 ) ) ;
#253 =( NAMED_UNIT ( * ) SI_UNIT ( $, .STERADIAN. ) SOLID_ANGLE_UNIT ( ) );
#254 = ORIENTED_EDGE ( 'NONE', *, *, #49, .T. ) ;
#255 =( GEOMETRIC_REPRESENTATION_CONTEXT ( 3 ) GLOBAL_UNCERTAINTY_ASSIGNED_CONTEXT ( ( #209 ) ) GLOBAL_UNIT_ASSIGNED_CONTEXT ( ( #33, #56, #168 ) ) REPRESENTATION_CONTEXT ( 'NONE', 'WORKASPACE' ) );
#256 = ORIENTED_EDGE ( 'NONE', *, *, #131, .F. ) ;
#257 = SURFACE_STYLE_USAGE ( .BOTH. , #165 ) ;
#258 = ORIENTED_EDGE ( 'NONE', *, *, #287, .T. ) ;
#259 = ORIENTED_EDGE ( 'NONE', *, *, #98, .F. ) ;
#260 = CIRCLE ( 'NONE', #299, 0.1874999999999999722 ) ;
#261 =( CONVERSION_BASED_UNIT ( 'INCH', #174 ) LENGTH_UNIT ( ) NAMED_UNIT ( #172 ) );
#262 = CARTESIAN_POINT ( 'NONE',  ( -0.1875000000000001110, 3.000000000000000444, 0.000000000000000000 ) ) ;
#263 =( LENGTH_UNIT ( ) NAMED_UNIT ( * ) SI_UNIT ( $, .METRE. ) );
#264 = PLANE ( 'NONE',  #26 ) ;
#265 = DIMENSIONAL_EXPONENTS ( 1.000000000000000000, 0.000000000000000000, 0.000000000000000000, 0.000000000000000000, 0.000000000000000000, 0.000000000000000000, 0.000000000000000000 ) ;
#266 = FILL_AREA_STYLE ('',( #153 ) ) ;
#267 = DIMENSIONAL_EXPONENTS ( 1.000000000000000000, 0.000000000000000000, 0.000000000000000000, 0.000000000000000000, 0.000000000000000000, 0.000000000000000000, 0.000000000000000000 ) ;
#268 = ADVANCED_FACE ( 'NONE', ( #207 ), #178, .F. ) ;
#269 = AXIS2_PLACEMENT_3D ( 'NONE', #145, #124, #304 ) ;
#270 = ORIENTED_EDGE ( 'NONE', *, *, #32, .F. ) ;
#271 = ORIENTED_EDGE ( 'NONE', *, *, #131, .T. ) ;
#272 = COLOUR_RGB ( '',0.7921568627450980005, 0.8196078431372548767, 0.9333333333333333481 ) ;
#273 = EDGE_LOOP ( 'NONE', ( #259, #51, #186, #256 ) ) ;
#274 = CARTESIAN_POINT ( 'NONE',  ( -6.123233995736772199E-17, 3.000000000000000444, 0.000000000000000000 ) ) ;
#275 = ADVANCED_FACE ( 'NONE', ( #23 ), #125, .T. ) ;
#276 = CARTESIAN_POINT ( 'NONE',  ( -6.123233995736772199E-17, 3.000000000000000444, 0.000000000000000000 ) ) ;
#277 = PRESENTATION_STYLE_ASSIGNMENT (( #173 ) ) ;
#278 = ORIENTED_EDGE ( 'NONE', *, *, #185, .T. ) ;
#279 = UNCERTAINTY_MEASURE_WITH_UNIT (LENGTH_MEASURE( 1.000000000000000082E-05 ), #230, 'distance_accuracy_value', 'NONE');
#280 = DIRECTION ( 'NONE',  ( -3.061616997868386099E-17, 1.000000000000000000, -0.000000000000000000 ) ) ;
#281 = VERTEX_POINT ( 'NONE', #309 ) ;
#282 = MECHANICAL_DESIGN_GEOMETRIC_PRESENTATION_REPRESENTATION (  '', ( #251 ), #197 ) ;
#283 = SURFACE_SIDE_STYLE ('',( #220 ) ) ;
#284 =( NAMED_UNIT ( * ) PLANE_ANGLE_UNIT ( ) SI_UNIT ( $, .RADIAN. ) );
#285 = DIRECTION ( 'NONE',  ( 0.000000000000000000, 1.000000000000000000, 0.000000000000000000 ) ) ;
#286 = DIRECTION ( 'NONE',  ( -3.061616997868386099E-17, 1.000000000000000000, -0.000000000000000000 ) ) ;
#287 = EDGE_CURVE ( 'NONE', #12, #218, #232, .T. ) ;
#288 = PRODUCT_DEFINITION ( 'UNKNOWN', '', #79, #166 ) ;
#289 = ORIENTED_EDGE ( 'NONE', *, *, #185, .F. ) ;
#290 = ORIENTED_EDGE ( 'NONE', *, *, #73, .F. ) ;
#291 = AXIS2_PLACEMENT_3D ( 'NONE', #211, #293, #187 ) ;
#292 = ORIENTED_EDGE ( 'NONE', *, *, #89, .T. ) ;
#293 = DIRECTION ( 'NONE',  ( 0.000000000000000000, 0.000000000000000000, 1.000000000000000000 ) ) ;
#294 = DIRECTION ( 'NONE',  ( -3.061616997868386099E-17, 1.000000000000000000, -0.000000000000000000 ) ) ;
#295 = ORIENTED_EDGE ( 'NONE', *, *, #59, .F. ) ;
#296 = EDGE_LOOP ( 'NONE', ( #240, #271 ) ) ;
#297 =( LENGTH_UNIT ( ) NAMED_UNIT ( * ) SI_UNIT ( $, .METRE. ) );
#298 = AXIS2_PLACEMENT_3D ( 'NONE', #141, #213, #35 ) ;
#299 = AXIS2_PLACEMENT_3D ( 'NONE', #150, #39, #249 ) ;
#300 = DIMENSIONAL_EXPONENTS ( 1.000000000000000000, 0.000000000000000000, 0.000000000000000000, 0.000000000000000000, 0.000000000000000000, 0.000000000000000000, 0.000000000000000000 ) ;
#301 = FILL_AREA_STYLE_COLOUR ( '', #272 ) ;
#302 = DIRECTION ( 'NONE',  ( 0.000000000000000000, -0.000000000000000000, 1.000000000000000000 ) ) ;
#303 = DIRECTION ( 'NONE',  ( -3.061616997868386099E-17, 1.000000000000000000, 0.000000000000000000 ) ) ;
#304 = DIRECTION ( 'NONE',  ( 0.000000000000000000, 0.000000000000000000, -1.000000000000000000 ) ) ;
#305 = FILL_AREA_STYLE_COLOUR ( '', #91 ) ;
#306 = ORIENTED_EDGE ( 'NONE', *, *, #287, .F. ) ;
#307 = LINE ( 'NONE', #68, #109 ) ;
#308 = CIRCLE ( 'NONE', #112, 0.1875000000000000555 ) ;
#309 = CARTESIAN_POINT ( 'NONE',  ( 0.000000000000000000, 0.000000000000000000, -0.1875000000000000278 ) ) ;
ENDSEC;
END-ISO-10303-21;
