ISO-10303-21;
HEADER;
FILE_DESCRIPTION (( 'STEP AP214' ),
    '1' );
FILE_NAME ('59807.STEP',
    '2023-07-12T13:05:36',
    ( '' ),
    ( '' ),
    'SwSTEP 2.0',
    'SolidWorks 2023',
    '' );
FILE_SCHEMA (( 'AUTOMOTIVE_DESIGN' ));
ENDSEC;

DATA;
#1 = CARTESIAN_POINT ( 'NONE',  ( 1.530808498934191201E-17, 0.09499999999999966804, -0.1249999999999999584 ) ) ;
#2 = EDGE_CURVE ( 'NONE', #127, #13, #183, .T. ) ;
#3 = COLOUR_RGB ( '',1.000000000000000000, 0.000000000000000000, 0.000000000000000000 ) ;
#4 = AXIS2_PLACEMENT_3D ( 'NONE', #219, #36, #37 ) ;
#5 = CARTESIAN_POINT ( 'NONE',  ( -0.1249999999999999029, 2.500000000000000000, 0.000000000000000000 ) ) ;
#6 = PRODUCT_DEFINITION ( 'UNKNOWN', '', #75, #110 ) ;
#7 = DIRECTION ( 'NONE',  ( 9.700424750002940767E-17, -1.000000000000000000, 0.000000000000000000 ) ) ;
#8 = CARTESIAN_POINT ( 'NONE',  ( 2.945275551949384967E-16, 0.09499999999999966804, 0.000000000000000000 ) ) ;
#9 = AXIS2_PLACEMENT_3D ( 'NONE', #120, #86, #22 ) ;
#10 = DIRECTION ( 'NONE',  ( -0.000000000000000000, -1.000000000000000000, -0.000000000000000000 ) ) ;
#11 = ORIENTED_EDGE ( 'NONE', *, *, #156, .T. ) ;
#12 = SURFACE_SIDE_STYLE ('',( #77 ) ) ;
#13 = VERTEX_POINT ( 'NONE', #225 ) ;
#14 = CARTESIAN_POINT ( 'NONE',  ( 0.000000000000000000, 0.09499999999999966804, 0.1249999999999999584 ) ) ;
#15 = EDGE_LOOP ( 'NONE', ( #42, #272 ) ) ;
#16 = DIRECTION ( 'NONE',  ( -1.000000000000000000, -1.365923996832135307E-16, 0.000000000000000000 ) ) ;
#17 = CIRCLE ( 'NONE', #112, 0.02999999999999999889 ) ;
#18 = ORIENTED_EDGE ( 'NONE', *, *, #54, .T. ) ;
#19 = ADVANCED_FACE ( 'NONE', ( #20 ), #161, .T. ) ;
#20 = FACE_OUTER_BOUND ( 'NONE', #80, .T. ) ;
#21 = CARTESIAN_POINT ( 'NONE',  ( 9.491012693391984829E-18, 0.000000000000000000, -0.02999999999999999889 ) ) ;
#22 = DIRECTION ( 'NONE',  ( 0.000000000000000000, -0.000000000000000000, 1.000000000000000000 ) ) ;
#23 = VECTOR ( 'NONE', #244, 39.37007874015748143 ) ;
#24 =( GEOMETRIC_REPRESENTATION_CONTEXT ( 3 ) GLOBAL_UNCERTAINTY_ASSIGNED_CONTEXT ( ( #105 ) ) GLOBAL_UNIT_ASSIGNED_CONTEXT ( ( #158, #43, #246 ) ) REPRESENTATION_CONTEXT ( 'NONE', 'WORKASPACE' ) );
#25 = APPLICATION_CONTEXT ( 'automotive_design' ) ;
#26 = LENGTH_MEASURE_WITH_UNIT ( LENGTH_MEASURE( 0.02539999999999999897 ), #305 );
#27 = PRODUCT_DEFINITION_SHAPE ( 'NONE', 'NONE',  #6 ) ;
#28 = SURFACE_STYLE_FILL_AREA ( #230 ) ;
#29 = LENGTH_MEASURE_WITH_UNIT ( LENGTH_MEASURE( 0.02539999999999999897 ), #274 );
#30 = DIRECTION ( 'NONE',  ( 0.000000000000000000, 1.000000000000000000, 0.000000000000000000 ) ) ;
#31 = LENGTH_MEASURE_WITH_UNIT ( LENGTH_MEASURE( 0.02539999999999999897 ), #308 );
#32 = FILL_AREA_STYLE ('',( #197 ) ) ;
#33 = DIMENSIONAL_EXPONENTS ( 1.000000000000000000, 0.000000000000000000, 0.000000000000000000, 0.000000000000000000, 0.000000000000000000, 0.000000000000000000, 0.000000000000000000 ) ;
#34 = SURFACE_STYLE_USAGE ( .BOTH. , #142 ) ;
#35 = FILL_AREA_STYLE ('',( #126 ) ) ;
#36 = DIRECTION ( 'NONE',  ( -0.000000000000000000, -1.000000000000000000, -0.000000000000000000 ) ) ;
#37 = DIRECTION ( 'NONE',  ( 0.000000000000000000, 0.000000000000000000, -1.000000000000000000 ) ) ;
#38 = VERTEX_POINT ( 'NONE', #300 ) ;
#39 = DIRECTION ( 'NONE',  ( 0.000000000000000000, 0.7071067811865464625, 0.7071067811865486830 ) ) ;
#40 = ORIENTED_EDGE ( 'NONE', *, *, #148, .T. ) ;
#41 = DIRECTION ( 'NONE',  ( -1.000000000000000000, 0.000000000000000000, 0.000000000000000000 ) ) ;
#42 = ORIENTED_EDGE ( 'NONE', *, *, #90, .T. ) ;
#43 =( NAMED_UNIT ( * ) PLANE_ANGLE_UNIT ( ) SI_UNIT ( $, .RADIAN. ) );
#44 = FACE_OUTER_BOUND ( 'NONE', #109, .T. ) ;
#45 = EDGE_CURVE ( 'NONE', #38, #133, #88, .T. ) ;
#46 =( NAMED_UNIT ( * ) SI_UNIT ( $, .STERADIAN. ) SOLID_ANGLE_UNIT ( ) );
#47 = SURFACE_STYLE_FILL_AREA ( #277 ) ;
#48 =( NAMED_UNIT ( * ) PLANE_ANGLE_UNIT ( ) SI_UNIT ( $, .RADIAN. ) );
#49 = FILL_AREA_STYLE_COLOUR ( '', #147 ) ;
#50 = AXIS2_PLACEMENT_3D ( 'NONE', #163, #185, #250 ) ;
#51 =( NAMED_UNIT ( * ) SI_UNIT ( $, .STERADIAN. ) SOLID_ANGLE_UNIT ( ) );
#52 = ADVANCED_FACE ( 'NONE', ( #134 ), #275, .T. ) ;
#53 = CARTESIAN_POINT ( 'NONE',  ( 2.945275551949384967E-16, 0.09499999999999966804, 0.000000000000000000 ) ) ;
#54 = EDGE_CURVE ( 'NONE', #62, #150, #210, .T. ) ;
#55 = FACE_OUTER_BOUND ( 'NONE', #241, .T. ) ;
#56 =( GEOMETRIC_REPRESENTATION_CONTEXT ( 3 ) GLOBAL_UNCERTAINTY_ASSIGNED_CONTEXT ( ( #177 ) ) GLOBAL_UNIT_ASSIGNED_CONTEXT ( ( #288, #79, #205 ) ) REPRESENTATION_CONTEXT ( 'NONE', 'WORKASPACE' ) );
#57 =( LENGTH_UNIT ( ) NAMED_UNIT ( * ) SI_UNIT ( $, .METRE. ) );
#58 = SURFACE_STYLE_USAGE ( .BOTH. , #12 ) ;
#59 = VECTOR ( 'NONE', #229, 39.37007874015748143 ) ;
#60 = COLOUR_RGB ( '',0.7921568627450980005, 0.8196078431372548767, 0.9333333333333333481 ) ;
#61 = DIRECTION ( 'NONE',  ( -9.700424750002940767E-17, 1.000000000000000000, -0.000000000000000000 ) ) ;
#62 = VERTEX_POINT ( 'NONE', #21 ) ;
#63 = PRESENTATION_STYLE_ASSIGNMENT (( #271 ) ) ;
#64 = CARTESIAN_POINT ( 'NONE',  ( 0.1249999999999999029, 2.500000000000000000, 1.530808498934189352E-17 ) ) ;
#65 = AXIS2_PLACEMENT_3D ( 'NONE', #303, #30, #191 ) ;
#66 = SURFACE_STYLE_USAGE ( .BOTH. , #165 ) ;
#67 = DIRECTION ( 'NONE',  ( -9.700424750002940767E-17, 1.000000000000000000, -0.000000000000000000 ) ) ;
#68 = CARTESIAN_POINT ( 'NONE',  ( 0.000000000000000000, 0.000000000000000000, 0.000000000000000000 ) ) ;
#69 = STYLED_ITEM ( 'NONE', ( #215 ), #203 ) ;
#70 =( GEOMETRIC_REPRESENTATION_CONTEXT ( 3 ) GLOBAL_UNCERTAINTY_ASSIGNED_CONTEXT ( ( #222 ) ) GLOBAL_UNIT_ASSIGNED_CONTEXT ( ( #89, #48, #46 ) ) REPRESENTATION_CONTEXT ( 'NONE', 'WORKASPACE' ) );
#71 = APPLICATION_PROTOCOL_DEFINITION ( 'draft international standard', 'automotive_design', 1998, #190 ) ;
#72 =( CONVERSION_BASED_UNIT ( 'INCH', #87 ) LENGTH_UNIT ( ) NAMED_UNIT ( #287 ) );
#73 = MECHANICAL_DESIGN_GEOMETRIC_PRESENTATION_REPRESENTATION (  '', ( #255 ), #24 ) ;
#74 = CARTESIAN_POINT ( 'NONE',  ( 2.945275551949384967E-16, 0.09499999999999966804, 0.000000000000000000 ) ) ;
#75 = PRODUCT_DEFINITION_FORMATION_WITH_SPECIFIED_SOURCE ( 'ANY', '', #208, .NOT_KNOWN. ) ;
#76 = PRESENTATION_STYLE_ASSIGNMENT (( #58 ) ) ;
#77 = SURFACE_STYLE_FILL_AREA ( #81 ) ;
#78 = AXIS2_PLACEMENT_3D ( 'NONE', #174, #201, #292 ) ;
#79 =( NAMED_UNIT ( * ) PLANE_ANGLE_UNIT ( ) SI_UNIT ( $, .RADIAN. ) );
#80 = EDGE_LOOP ( 'NONE', ( #243, #153, #173, #237 ) ) ;
#81 = FILL_AREA_STYLE ('',( #263 ) ) ;
#82 = ORIENTED_EDGE ( 'NONE', *, *, #54, .F. ) ;
#83 = FILL_AREA_STYLE_COLOUR ( '', #84 ) ;
#84 = COLOUR_RGB ( '',1.000000000000000000, 0.000000000000000000, 0.000000000000000000 ) ;
#85 = DIRECTION ( 'NONE',  ( 8.659560562354947649E-17, 0.7071067811865464625, -0.7071067811865486830 ) ) ;
#86 = DIRECTION ( 'NONE',  ( 0.000000000000000000, 1.000000000000000000, 0.000000000000000000 ) ) ;
#87 = LENGTH_MEASURE_WITH_UNIT ( LENGTH_MEASURE( 0.02539999999999999897 ), #139 );
#88 = LINE ( 'NONE', #278, #59 ) ;
#89 =( CONVERSION_BASED_UNIT ( 'INCH', #309 ) LENGTH_UNIT ( ) NAMED_UNIT ( #223 ) );
#90 = EDGE_CURVE ( 'NONE', #133, #13, #184, .T. ) ;
#91 = FILL_AREA_STYLE_COLOUR ( '', #3 ) ;
#92 = CLOSED_SHELL ( 'NONE', ( #252, #192, #19, #140 ) ) ;
#93 = COLOUR_RGB ( '',1.000000000000000000, 0.000000000000000000, 0.000000000000000000 ) ;
#94 = LENGTH_MEASURE_WITH_UNIT ( LENGTH_MEASURE( 0.02539999999999999897 ), #57 );
#95 = DIRECTION ( 'NONE',  ( 0.000000000000000000, 0.000000000000000000, -1.000000000000000000 ) ) ;
#96 =( CONVERSION_BASED_UNIT ( 'INCH', #31 ) LENGTH_UNIT ( ) NAMED_UNIT ( #132 ) );
#97 = PRESENTATION_LAYER_ASSIGNMENT (  '', '', ( #200 ) ) ;
#98 = DIRECTION ( 'NONE',  ( -0.000000000000000000, -1.000000000000000000, -0.000000000000000000 ) ) ;
#99 = VECTOR ( 'NONE', #85, 39.37007874015748143 ) ;
#100 = CIRCLE ( 'NONE', #234, 0.1249999999999996531 ) ;
#101 = CYLINDRICAL_SURFACE ( 'NONE', #78, 0.1249999999999998335 ) ;
#102 = VERTEX_POINT ( 'NONE', #228 ) ;
#103 = ADVANCED_FACE ( 'NONE', ( #44 ), #107, .T. ) ;
#104 = ORIENTED_EDGE ( 'NONE', *, *, #296, .F. ) ;
#105 = UNCERTAINTY_MEASURE_WITH_UNIT (LENGTH_MEASURE( 1.000000000000000082E-05 ), #158, 'distance_accuracy_value', 'NONE');
#106 = ORIENTED_EDGE ( 'NONE', *, *, #232, .T. ) ;
#107 = CONICAL_SURFACE ( 'NONE', #65, 0.02999999999999999889, 0.7853981633974498333 ) ;
#108 = CARTESIAN_POINT ( 'NONE',  ( 0.000000000000000000, 0.000000000000000000, 0.000000000000000000 ) ) ;
#109 = EDGE_LOOP ( 'NONE', ( #298, #18, #151, #157 ) ) ;
#110 = PRODUCT_DEFINITION_CONTEXT ( 'detailed design', #25, 'design' ) ;
#111 = CARTESIAN_POINT ( 'NONE',  ( 3.673940397442059190E-18, 0.000000000000000000, -0.02999999999999999889 ) ) ;
#112 = AXIS2_PLACEMENT_3D ( 'NONE', #289, #10, #266 ) ;
#113 = DIRECTION ( 'NONE',  ( 0.000000000000000000, 1.000000000000000000, 0.000000000000000000 ) ) ;
#114 = DIRECTION ( 'NONE',  ( 0.000000000000000000, 0.000000000000000000, 1.000000000000000000 ) ) ;
#115 = CARTESIAN_POINT ( 'NONE',  ( 6.123233995736772199E-17, 2.500000000000000000, 0.000000000000000000 ) ) ;
#116 = SURFACE_SIDE_STYLE ('',( #28 ) ) ;
#117 = SURFACE_STYLE_FILL_AREA ( #145 ) ;
#118 = MECHANICAL_DESIGN_GEOMETRIC_PRESENTATION_REPRESENTATION (  '', ( #167 ), #136 ) ;
#119 = MECHANICAL_DESIGN_GEOMETRIC_PRESENTATION_REPRESENTATION (  '', ( #261 ), #231 ) ;
#120 = CARTESIAN_POINT ( 'NONE',  ( 0.000000000000000000, 0.09499999999999965417, 0.000000000000000000 ) ) ;
#121 = DIRECTION ( 'NONE',  ( -1.000000000000000000, -1.365923996832135307E-16, 0.000000000000000000 ) ) ;
#122 = FACE_OUTER_BOUND ( 'NONE', #15, .T. ) ;
#123 = DIRECTION ( 'NONE',  ( -9.700424750002940767E-17, 1.000000000000000000, 0.000000000000000000 ) ) ;
#124 = STYLED_ITEM ( 'NONE', ( #76 ), #273 ) ;
#125 = SURFACE_STYLE_USAGE ( .BOTH. , #233 ) ;
#126 = FILL_AREA_STYLE_COLOUR ( '', #93 ) ;
#127 = VERTEX_POINT ( 'NONE', #281 ) ;
#128 = COLOUR_RGB ( '',0.7921568627450980005, 0.8196078431372548767, 0.9333333333333333481 ) ;
#129 = EDGE_LOOP ( 'NONE', ( #202, #104 ) ) ;
#130 = ORIENTED_EDGE ( 'NONE', *, *, #90, .F. ) ;
#131 = FACE_OUTER_BOUND ( 'NONE', #294, .T. ) ;
#132 = DIMENSIONAL_EXPONENTS ( 1.000000000000000000, 0.000000000000000000, 0.000000000000000000, 0.000000000000000000, 0.000000000000000000, 0.000000000000000000, 0.000000000000000000 ) ;
#133 = VERTEX_POINT ( 'NONE', #5 ) ;
#134 = FACE_OUTER_BOUND ( 'NONE', #207, .T. ) ;
#135 = PRODUCT_CONTEXT ( 'NONE', #190, 'mechanical' ) ;
#136 =( GEOMETRIC_REPRESENTATION_CONTEXT ( 3 ) GLOBAL_UNCERTAINTY_ASSIGNED_CONTEXT ( ( #251 ) ) GLOBAL_UNIT_ASSIGNED_CONTEXT ( ( #72, #137, #247 ) ) REPRESENTATION_CONTEXT ( 'NONE', 'WORKASPACE' ) );
#137 =( NAMED_UNIT ( * ) PLANE_ANGLE_UNIT ( ) SI_UNIT ( $, .RADIAN. ) );
#138 =( LENGTH_UNIT ( ) NAMED_UNIT ( * ) SI_UNIT ( $, .METRE. ) );
#139 =( LENGTH_UNIT ( ) NAMED_UNIT ( * ) SI_UNIT ( $, .METRE. ) );
#140 = ADVANCED_FACE ( 'NONE', ( #122 ), #256, .F. ) ;
#141 = AXIS2_PLACEMENT_3D ( 'NONE', #68, #113, #299 ) ;
#142 = SURFACE_SIDE_STYLE ('',( #235 ) ) ;
#143 = AXIS2_PLACEMENT_3D ( 'NONE', #108, #180, #217 ) ;
#144 = DIRECTION ( 'NONE',  ( 1.000000000000000000, 9.700424750002940767E-17, 0.000000000000000000 ) ) ;
#145 = FILL_AREA_STYLE ('',( #49 ) ) ;
#146 = PRODUCT_RELATED_PRODUCT_CATEGORY ( 'part', '', ( #208 ) ) ;
#147 = COLOUR_RGB ( '',1.000000000000000000, 0.000000000000000000, 0.000000000000000000 ) ;
#148 = EDGE_CURVE ( 'NONE', #38, #127, #276, .T. ) ;
#149 =( LENGTH_UNIT ( ) NAMED_UNIT ( * ) SI_UNIT ( $, .METRE. ) );
#150 = VERTEX_POINT ( 'NONE', #1 ) ;
#151 = ORIENTED_EDGE ( 'NONE', *, *, #160, .T. ) ;
#152 = AXIS2_PLACEMENT_3D ( 'NONE', #196, #7, #144 ) ;
#153 = ORIENTED_EDGE ( 'NONE', *, *, #296, .T. ) ;
#154 = CARTESIAN_POINT ( 'NONE',  ( 6.123233995736772199E-17, 2.500000000000000000, 0.000000000000000000 ) ) ;
#155 = ORIENTED_EDGE ( 'NONE', *, *, #2, .T. ) ;
#156 = EDGE_CURVE ( 'NONE', #206, #150, #199, .T. ) ;
#157 = ORIENTED_EDGE ( 'NONE', *, *, #226, .F. ) ;
#158 =( CONVERSION_BASED_UNIT ( 'INCH', #29 ) LENGTH_UNIT ( ) NAMED_UNIT ( #265 ) );
#159 =( NAMED_UNIT ( * ) SI_UNIT ( $, .STERADIAN. ) SOLID_ANGLE_UNIT ( ) );
#160 = EDGE_CURVE ( 'NONE', #150, #206, #178, .T. ) ;
#161 = CYLINDRICAL_SURFACE ( 'NONE', #259, 0.1249999999999998335 ) ;
#162 = APPLICATION_PROTOCOL_DEFINITION ( 'draft international standard', 'automotive_design', 1998, #25 ) ;
#163 = CARTESIAN_POINT ( 'NONE',  ( 6.123233995736772199E-17, 2.500000000000000000, 0.000000000000000000 ) ) ;
#164 = ADVANCED_BREP_SHAPE_REPRESENTATION ( '59807', ( #175, #273, #295 ), #70 ) ;
#165 = SURFACE_SIDE_STYLE ('',( #47 ) ) ;
#166 = PLANE ( 'NONE',  #143 ) ;
#167 = STYLED_ITEM ( 'NONE', ( #187 ), #52 ) ;
#168 = AXIS2_PLACEMENT_3D ( 'NONE', #74, #169, #121 ) ;
#169 = DIRECTION ( 'NONE',  ( -9.700424750002940767E-17, 1.000000000000000000, -0.000000000000000000 ) ) ;
#170 = PRESENTATION_LAYER_ASSIGNMENT (  '', '', ( #69 ) ) ;
#171 =( NAMED_UNIT ( * ) PLANE_ANGLE_UNIT ( ) SI_UNIT ( $, .RADIAN. ) );
#172 =( NAMED_UNIT ( * ) SI_UNIT ( $, .STERADIAN. ) SOLID_ANGLE_UNIT ( ) );
#173 = ORIENTED_EDGE ( 'NONE', *, *, #45, .T. ) ;
#174 = CARTESIAN_POINT ( 'NONE',  ( 6.123233995736772199E-17, 2.500000000000000000, 0.000000000000000000 ) ) ;
#175 = MANIFOLD_SOLID_BREP ( 'Revolve - Cutting Edge', #193 ) ;
#176 = EDGE_LOOP ( 'NONE', ( #40, #155, #130, #290 ) ) ;
#177 = UNCERTAINTY_MEASURE_WITH_UNIT (LENGTH_MEASURE( 1.000000000000000082E-05 ), #288, 'distance_accuracy_value', 'NONE');
#178 = CIRCLE ( 'NONE', #282, 0.1249999999999999584 ) ;
#179 =( NAMED_UNIT ( * ) PLANE_ANGLE_UNIT ( ) SI_UNIT ( $, .RADIAN. ) );
#180 = DIRECTION ( 'NONE',  ( 0.000000000000000000, -1.000000000000000000, -0.000000000000000000 ) ) ;
#181 = DIMENSIONAL_EXPONENTS ( 1.000000000000000000, 0.000000000000000000, 0.000000000000000000, 0.000000000000000000, 0.000000000000000000, 0.000000000000000000, 0.000000000000000000 ) ;
#182 = SURFACE_SIDE_STYLE ('',( #297 ) ) ;
#183 = LINE ( 'NONE', #64, #23 ) ;
#184 = CIRCLE ( 'NONE', #50, 0.1249999999999999584 ) ;
#185 = DIRECTION ( 'NONE',  ( -9.700424750002940767E-17, 1.000000000000000000, -0.000000000000000000 ) ) ;
#186 = UNCERTAINTY_MEASURE_WITH_UNIT (LENGTH_MEASURE( 1.000000000000000082E-05 ), #189, 'distance_accuracy_value', 'NONE');
#187 = PRESENTATION_STYLE_ASSIGNMENT (( #66 ) ) ;
#188 = PRESENTATION_LAYER_ASSIGNMENT (  '', '', ( #124 ) ) ;
#189 =( CONVERSION_BASED_UNIT ( 'INCH', #94 ) LENGTH_UNIT ( ) NAMED_UNIT ( #33 ) );
#190 = APPLICATION_CONTEXT ( 'automotive_design' ) ;
#191 = DIRECTION ( 'NONE',  ( 0.000000000000000000, 0.000000000000000000, 1.000000000000000000 ) ) ;
#192 = ADVANCED_FACE ( 'NONE', ( #283 ), #257, .F. ) ;
#193 = CLOSED_SHELL ( 'NONE', ( #103, #307, #52, #203 ) ) ;
#194 = DIRECTION ( 'NONE',  ( -0.000000000000000000, -1.000000000000000000, -0.000000000000000000 ) ) ;
#195 = MECHANICAL_DESIGN_GEOMETRIC_PRESENTATION_REPRESENTATION (  '', ( #200 ), #267 ) ;
#196 = CARTESIAN_POINT ( 'NONE',  ( 0.1250000000000000278, 2.500000000000000000, 0.000000000000000000 ) ) ;
#197 = FILL_AREA_STYLE_COLOUR ( '', #128 ) ;
#198 = PRESENTATION_LAYER_ASSIGNMENT (  '', '', ( #167 ) ) ;
#199 = CIRCLE ( 'NONE', #214, 0.1249999999999999584 ) ;
#200 = STYLED_ITEM ( 'NONE', ( #285 ), #175 ) ;
#201 = DIRECTION ( 'NONE',  ( -9.700424750002940767E-17, 1.000000000000000000, -0.000000000000000000 ) ) ;
#202 = ORIENTED_EDGE ( 'NONE', *, *, #148, .F. ) ;
#203 = ADVANCED_FACE ( 'NONE', ( #55 ), #166, .T. ) ;
#204 = ORIENTED_EDGE ( 'NONE', *, *, #160, .F. ) ;
#205 =( NAMED_UNIT ( * ) SI_UNIT ( $, .STERADIAN. ) SOLID_ANGLE_UNIT ( ) );
#206 = VERTEX_POINT ( 'NONE', #14 ) ;
#207 = EDGE_LOOP ( 'NONE', ( #82, #221, #268, #11 ) ) ;
#208 = PRODUCT ( '59807', '59807', '', ( #135 ) ) ;
#209 =( GEOMETRIC_REPRESENTATION_CONTEXT ( 3 ) GLOBAL_UNCERTAINTY_ASSIGNED_CONTEXT ( ( #186 ) ) GLOBAL_UNIT_ASSIGNED_CONTEXT ( ( #189, #171, #172 ) ) REPRESENTATION_CONTEXT ( 'NONE', 'WORKASPACE' ) );
#210 = LINE ( 'NONE', #111, #99 ) ;
#211 = SURFACE_STYLE_USAGE ( .BOTH. , #116 ) ;
#212 = PRESENTATION_LAYER_ASSIGNMENT (  '', '', ( #261 ) ) ;
#213 = CARTESIAN_POINT ( 'NONE',  ( 0.000000000000000000, 0.09499999999999966804, 0.000000000000000000 ) ) ;
#214 = AXIS2_PLACEMENT_3D ( 'NONE', #213, #194, #95 ) ;
#215 = PRESENTATION_STYLE_ASSIGNMENT (( #125 ) ) ;
#216 = CARTESIAN_POINT ( 'NONE',  ( 0.000000000000000000, 0.000000000000000000, 0.02999999999999999889 ) ) ;
#217 = DIRECTION ( 'NONE',  ( 0.000000000000000000, 0.000000000000000000, -1.000000000000000000 ) ) ;
#218 = AXIS2_PLACEMENT_3D ( 'NONE', #154, #242, #41 ) ;
#219 = CARTESIAN_POINT ( 'NONE',  ( 0.000000000000000000, 0.000000000000000000, 0.000000000000000000 ) ) ;
#220 = PLANE ( 'NONE',  #9 ) ;
#221 = ORIENTED_EDGE ( 'NONE', *, *, #232, .F. ) ;
#222 = UNCERTAINTY_MEASURE_WITH_UNIT (LENGTH_MEASURE( 1.000000000000000082E-05 ), #89, 'distance_accuracy_value', 'NONE');
#223 = DIMENSIONAL_EXPONENTS ( 1.000000000000000000, 0.000000000000000000, 0.000000000000000000, 0.000000000000000000, 0.000000000000000000, 0.000000000000000000, 0.000000000000000000 ) ;
#224 = CIRCLE ( 'NONE', #218, 0.1249999999999999584 ) ;
#225 = CARTESIAN_POINT ( 'NONE',  ( 0.1250000000000000278, 2.500000000000000000, 1.530808498934190276E-17 ) ) ;
#226 = EDGE_CURVE ( 'NONE', #102, #206, #236, .T. ) ;
#227 = SHAPE_DEFINITION_REPRESENTATION ( #27, #164 ) ;
#228 = CARTESIAN_POINT ( 'NONE',  ( 0.000000000000000000, 0.000000000000000000, 0.02999999999999999889 ) ) ;
#229 = DIRECTION ( 'NONE',  ( -9.700424750002940767E-17, 1.000000000000000000, -0.000000000000000000 ) ) ;
#230 = FILL_AREA_STYLE ('',( #83 ) ) ;
#231 =( GEOMETRIC_REPRESENTATION_CONTEXT ( 3 ) GLOBAL_UNCERTAINTY_ASSIGNED_CONTEXT ( ( #270 ) ) GLOBAL_UNIT_ASSIGNED_CONTEXT ( ( #284, #179, #159 ) ) REPRESENTATION_CONTEXT ( 'NONE', 'WORKASPACE' ) );
#232 = EDGE_CURVE ( 'NONE', #102, #62, #17, .T. ) ;
#233 = SURFACE_SIDE_STYLE ('',( #117 ) ) ;
#234 = AXIS2_PLACEMENT_3D ( 'NONE', #8, #61, #16 ) ;
#235 = SURFACE_STYLE_FILL_AREA ( #32 ) ;
#236 = LINE ( 'NONE', #216, #245 ) ;
#237 = ORIENTED_EDGE ( 'NONE', *, *, #304, .F. ) ;
#238 = FACE_OUTER_BOUND ( 'NONE', #176, .T. ) ;
#239 = ORIENTED_EDGE ( 'NONE', *, *, #156, .F. ) ;
#240 = LENGTH_MEASURE_WITH_UNIT ( LENGTH_MEASURE( 0.02539999999999999897 ), #149 );
#241 = EDGE_LOOP ( 'NONE', ( #106, #264 ) ) ;
#242 = DIRECTION ( 'NONE',  ( -9.700424750002940767E-17, 1.000000000000000000, -0.000000000000000000 ) ) ;
#243 = ORIENTED_EDGE ( 'NONE', *, *, #2, .F. ) ;
#244 = DIRECTION ( 'NONE',  ( -9.700424750002940767E-17, 1.000000000000000000, -0.000000000000000000 ) ) ;
#245 = VECTOR ( 'NONE', #39, 39.37007874015748143 ) ;
#246 =( NAMED_UNIT ( * ) SI_UNIT ( $, .STERADIAN. ) SOLID_ANGLE_UNIT ( ) );
#247 =( NAMED_UNIT ( * ) SI_UNIT ( $, .STERADIAN. ) SOLID_ANGLE_UNIT ( ) );
#248 = CARTESIAN_POINT ( 'NONE',  ( 0.000000000000000000, 0.000000000000000000, 0.000000000000000000 ) ) ;
#249 = MECHANICAL_DESIGN_GEOMETRIC_PRESENTATION_REPRESENTATION (  '', ( #69 ), #209 ) ;
#250 = DIRECTION ( 'NONE',  ( -1.000000000000000000, 0.000000000000000000, 0.000000000000000000 ) ) ;
#251 = UNCERTAINTY_MEASURE_WITH_UNIT (LENGTH_MEASURE( 1.000000000000000082E-05 ), #72, 'distance_accuracy_value', 'NONE');
#252 = ADVANCED_FACE ( 'NONE', ( #238 ), #101, .T. ) ;
#253 = DIRECTION ( 'NONE',  ( -1.000000000000000000, 0.000000000000000000, 0.000000000000000000 ) ) ;
#254 =( NAMED_UNIT ( * ) PLANE_ANGLE_UNIT ( ) SI_UNIT ( $, .RADIAN. ) );
#255 = STYLED_ITEM ( 'NONE', ( #306 ), #103 ) ;
#256 = PLANE ( 'NONE',  #152 ) ;
#257 = PLANE ( 'NONE',  #301 ) ;
#258 = DIRECTION ( 'NONE',  ( -1.000000000000000000, -9.700424750002940767E-17, 0.000000000000000000 ) ) ;
#259 = AXIS2_PLACEMENT_3D ( 'NONE', #115, #67, #253 ) ;
#260 = DIRECTION ( 'NONE',  ( 0.000000000000000000, 0.000000000000000000, -1.000000000000000000 ) ) ;
#261 = STYLED_ITEM ( 'NONE', ( #63 ), #307 ) ;
#262 = EDGE_CURVE ( 'NONE', #62, #102, #279, .T. ) ;
#263 = FILL_AREA_STYLE_COLOUR ( '', #60 ) ;
#264 = ORIENTED_EDGE ( 'NONE', *, *, #262, .T. ) ;
#265 = DIMENSIONAL_EXPONENTS ( 1.000000000000000000, 0.000000000000000000, 0.000000000000000000, 0.000000000000000000, 0.000000000000000000, 0.000000000000000000, 0.000000000000000000 ) ;
#266 = DIRECTION ( 'NONE',  ( 0.000000000000000000, 0.000000000000000000, -1.000000000000000000 ) ) ;
#267 =( GEOMETRIC_REPRESENTATION_CONTEXT ( 3 ) GLOBAL_UNCERTAINTY_ASSIGNED_CONTEXT ( ( #291 ) ) GLOBAL_UNIT_ASSIGNED_CONTEXT ( ( #96, #254, #51 ) ) REPRESENTATION_CONTEXT ( 'NONE', 'WORKASPACE' ) );
#268 = ORIENTED_EDGE ( 'NONE', *, *, #226, .T. ) ;
#269 = DIMENSIONAL_EXPONENTS ( 1.000000000000000000, 0.000000000000000000, 0.000000000000000000, 0.000000000000000000, 0.000000000000000000, 0.000000000000000000, 0.000000000000000000 ) ;
#270 = UNCERTAINTY_MEASURE_WITH_UNIT (LENGTH_MEASURE( 1.000000000000000082E-05 ), #284, 'distance_accuracy_value', 'NONE');
#271 = SURFACE_STYLE_USAGE ( .BOTH. , #182 ) ;
#272 = ORIENTED_EDGE ( 'NONE', *, *, #304, .T. ) ;
#273 = MANIFOLD_SOLID_BREP ( 'Revolve - Tool Body (Tipped Off)', #92 ) ;
#274 =( LENGTH_UNIT ( ) NAMED_UNIT ( * ) SI_UNIT ( $, .METRE. ) );
#275 = CONICAL_SURFACE ( 'NONE', #141, 0.02999999999999999889, 0.7853981633974498333 ) ;
#276 = CIRCLE ( 'NONE', #168, 0.1249999999999996531 ) ;
#277 = FILL_AREA_STYLE ('',( #91 ) ) ;
#278 = CARTESIAN_POINT ( 'NONE',  ( -0.1249999999999997641, 2.500000000000000000, 0.000000000000000000 ) ) ;
#279 = CIRCLE ( 'NONE', #4, 0.02999999999999999889 ) ;
#280 = CARTESIAN_POINT ( 'NONE',  ( 0.000000000000000000, 0.09499999999999966804, 0.000000000000000000 ) ) ;
#281 = CARTESIAN_POINT ( 'NONE',  ( 0.1249999999999999584, 0.09499999999999968192, 1.530808498934189660E-17 ) ) ;
#282 = AXIS2_PLACEMENT_3D ( 'NONE', #280, #98, #260 ) ;
#283 = FACE_OUTER_BOUND ( 'NONE', #129, .T. ) ;
#284 =( CONVERSION_BASED_UNIT ( 'INCH', #26 ) LENGTH_UNIT ( ) NAMED_UNIT ( #181 ) );
#285 = PRESENTATION_STYLE_ASSIGNMENT (( #34 ) ) ;
#286 = PRESENTATION_LAYER_ASSIGNMENT (  '', '', ( #255 ) ) ;
#287 = DIMENSIONAL_EXPONENTS ( 1.000000000000000000, 0.000000000000000000, 0.000000000000000000, 0.000000000000000000, 0.000000000000000000, 0.000000000000000000, 0.000000000000000000 ) ;
#288 =( CONVERSION_BASED_UNIT ( 'INCH', #240 ) LENGTH_UNIT ( ) NAMED_UNIT ( #269 ) );
#289 = CARTESIAN_POINT ( 'NONE',  ( 0.000000000000000000, 0.000000000000000000, 0.000000000000000000 ) ) ;
#290 = ORIENTED_EDGE ( 'NONE', *, *, #45, .F. ) ;
#291 = UNCERTAINTY_MEASURE_WITH_UNIT (LENGTH_MEASURE( 1.000000000000000082E-05 ), #96, 'distance_accuracy_value', 'NONE');
#292 = DIRECTION ( 'NONE',  ( -1.000000000000000000, 0.000000000000000000, 0.000000000000000000 ) ) ;
#293 = MECHANICAL_DESIGN_GEOMETRIC_PRESENTATION_REPRESENTATION (  '', ( #124 ), #56 ) ;
#294 = EDGE_LOOP ( 'NONE', ( #239, #204 ) ) ;
#295 = AXIS2_PLACEMENT_3D ( 'NONE', #248, #114, #302 ) ;
#296 = EDGE_CURVE ( 'NONE', #127, #38, #100, .T. ) ;
#297 = SURFACE_STYLE_FILL_AREA ( #35 ) ;
#298 = ORIENTED_EDGE ( 'NONE', *, *, #262, .F. ) ;
#299 = DIRECTION ( 'NONE',  ( 0.000000000000000000, 0.000000000000000000, 1.000000000000000000 ) ) ;
#300 = CARTESIAN_POINT ( 'NONE',  ( -0.1249999999999993616, 0.09499999999999965417, 0.000000000000000000 ) ) ;
#301 = AXIS2_PLACEMENT_3D ( 'NONE', #53, #123, #258 ) ;
#302 = DIRECTION ( 'NONE',  ( 1.000000000000000000, 0.000000000000000000, 0.000000000000000000 ) ) ;
#303 = CARTESIAN_POINT ( 'NONE',  ( 0.000000000000000000, 0.000000000000000000, 0.000000000000000000 ) ) ;
#304 = EDGE_CURVE ( 'NONE', #13, #133, #224, .T. ) ;
#305 =( LENGTH_UNIT ( ) NAMED_UNIT ( * ) SI_UNIT ( $, .METRE. ) );
#306 = PRESENTATION_STYLE_ASSIGNMENT (( #211 ) ) ;
#307 = ADVANCED_FACE ( 'NONE', ( #131 ), #220, .T. ) ;
#308 =( LENGTH_UNIT ( ) NAMED_UNIT ( * ) SI_UNIT ( $, .METRE. ) );
#309 = LENGTH_MEASURE_WITH_UNIT ( LENGTH_MEASURE( 0.02539999999999999897 ), #138 );
ENDSEC;
END-ISO-10303-21;
