ISO-10303-21;
HEADER;
FILE_DESCRIPTION (( 'STEP AP214' ),
    '1' );
FILE_NAME ('59774.STEP',
    '2023-07-24T15:37:08',
    ( '' ),
    ( '' ),
    'SwSTEP 2.0',
    'SolidWorks 2023',
    '' );
FILE_SCHEMA (( 'AUTOMOTIVE_DESIGN' ));
ENDSEC;

DATA;
#1 = DIRECTION ( 'NONE',  ( -1.000000000000000000, 1.560495851798313744E-17, 0.000000000000000000 ) ) ;
#2 = SURFACE_SIDE_STYLE ('',( #40 ) ) ;
#3 = EDGE_LOOP ( 'NONE', ( #323, #256 ) ) ;
#4 = CARTESIAN_POINT ( 'NONE',  ( 0.000000000000000000, 0.5000000000000000000, 0.000000000000000000 ) ) ;
#5 = ORIENTED_EDGE ( 'NONE', *, *, #264, .T. ) ;
#6 = AXIS2_PLACEMENT_3D ( 'NONE', #142, #349, #1 ) ;
#7 = PRESENTATION_LAYER_ASSIGNMENT (  '', '', ( #44 ) ) ;
#8 = SURFACE_STYLE_USAGE ( .BOTH. , #13 ) ;
#9 = ADVANCED_FACE ( 'NONE', ( #206 ), #237, .T. ) ;
#10 = SURFACE_STYLE_USAGE ( .BOTH. , #88 ) ;
#11 =( NAMED_UNIT ( * ) SI_UNIT ( $, .STERADIAN. ) SOLID_ANGLE_UNIT ( ) );
#12 = ADVANCED_BREP_SHAPE_REPRESENTATION ( '59774', ( #49, #174, #336 ), #249 ) ;
#13 = SURFACE_SIDE_STYLE ('',( #216 ) ) ;
#14 = DIRECTION ( 'NONE',  ( 0.000000000000000000, 0.000000000000000000, 1.000000000000000000 ) ) ;
#15 = EDGE_CURVE ( 'NONE', #140, #340, #208, .T. ) ;
#16 = STYLED_ITEM ( 'NONE', ( #120 ), #174 ) ;
#17 = CARTESIAN_POINT ( 'NONE',  ( 6.735557395310442023E-16, 0.5000000000000000000, 5.500000000000000000 ) ) ;
#18 = FACE_OUTER_BOUND ( 'NONE', #287, .T. ) ;
#19 = FACE_OUTER_BOUND ( 'NONE', #34, .T. ) ;
#20 = UNCERTAINTY_MEASURE_WITH_UNIT (LENGTH_MEASURE( 1.000000000000000082E-05 ), #153, 'distance_accuracy_value', 'NONE');
#21 = FACE_OUTER_BOUND ( 'NONE', #204, .T. ) ;
#22 = MECHANICAL_DESIGN_GEOMETRIC_PRESENTATION_REPRESENTATION (  '', ( #298 ), #370 ) ;
#23 = ADVANCED_FACE ( 'NONE', ( #59 ), #261, .F. ) ;
#24 = EDGE_LOOP ( 'NONE', ( #54, #77, #84, #144 ) ) ;
#25 =( LENGTH_UNIT ( ) NAMED_UNIT ( * ) SI_UNIT ( .MILLI., .METRE. ) );
#26 = PRODUCT_DEFINITION_CONTEXT ( 'detailed design', #238, 'design' ) ;
#27 = FILL_AREA_STYLE_COLOUR ( '', #192 ) ;
#28 = EDGE_CURVE ( 'NONE', #60, #207, #324, .T. ) ;
#29 = CLOSED_SHELL ( 'NONE', ( #275, #212, #330, #198, #241, #154 ) ) ;
#30 = DIRECTION ( 'NONE',  ( 1.560495851798313744E-17, 1.000000000000000000, -0.000000000000000000 ) ) ;
#31 = ORIENTED_EDGE ( 'NONE', *, *, #357, .F. ) ;
#32 = FACE_OUTER_BOUND ( 'NONE', #173, .T. ) ;
#33 = ORIENTED_EDGE ( 'NONE', *, *, #229, .F. ) ;
#34 = EDGE_LOOP ( 'NONE', ( #345, #239, #33, #200 ) ) ;
#35 = EDGE_CURVE ( 'NONE', #60, #363, #315, .T. ) ;
#36 = DIRECTION ( 'NONE',  ( -1.000000000000000000, 0.000000000000000000, 0.000000000000000000 ) ) ;
#37 =( GEOMETRIC_REPRESENTATION_CONTEXT ( 3 ) GLOBAL_UNCERTAINTY_ASSIGNED_CONTEXT ( ( #219 ) ) GLOBAL_UNIT_ASSIGNED_CONTEXT ( ( #211, #146, #276 ) ) REPRESENTATION_CONTEXT ( 'NONE', 'WORKASPACE' ) );
#38 = CIRCLE ( 'NONE', #76, 5.999999999999993783 ) ;
#39 = DIRECTION ( 'NONE',  ( -1.000000000000000000, 0.000000000000000000, 0.000000000000000000 ) ) ;
#40 = SURFACE_STYLE_FILL_AREA ( #58 ) ;
#41 = SURFACE_SIDE_STYLE ('',( #89 ) ) ;
#42 = FILL_AREA_STYLE ('',( #57 ) ) ;
#43 = CARTESIAN_POINT ( 'NONE',  ( 0.000000000000000000, 0.5000000000000000000, -5.500000000000000000 ) ) ;
#44 = STYLED_ITEM ( 'NONE', ( #83 ), #198 ) ;
#45 = PRESENTATION_STYLE_ASSIGNMENT (( #184 ) ) ;
#46 = CARTESIAN_POINT ( 'NONE',  ( 0.000000000000000000, 0.5000000000000000000, 0.000000000000000000 ) ) ;
#47 =( NAMED_UNIT ( * ) SI_UNIT ( $, .STERADIAN. ) SOLID_ANGLE_UNIT ( ) );
#48 = MECHANICAL_DESIGN_GEOMETRIC_PRESENTATION_REPRESENTATION (  '', ( #227 ), #116 ) ;
#49 = MANIFOLD_SOLID_BREP ( 'Revolve - Cutting Edge', #29 ) ;
#50 = CARTESIAN_POINT ( 'NONE',  ( 5.421010862427522170E-15, 30.00000000000000000, 0.000000000000000000 ) ) ;
#51 = AXIS2_PLACEMENT_3D ( 'NONE', #65, #217, #245 ) ;
#52 = CARTESIAN_POINT ( 'NONE',  ( 0.000000000000000000, 30.00000000000000000, 0.000000000000000000 ) ) ;
#53 = CARTESIAN_POINT ( 'NONE',  ( 0.000000000000000000, 0.000000000000000000, 0.000000000000000000 ) ) ;
#54 = ORIENTED_EDGE ( 'NONE', *, *, #229, .T. ) ;
#55 = VECTOR ( 'NONE', #352, 1000.000000000000000 ) ;
#56 = PRESENTATION_LAYER_ASSIGNMENT (  '', '', ( #361 ) ) ;
#57 = FILL_AREA_STYLE_COLOUR ( '', #147 ) ;
#58 = FILL_AREA_STYLE ('',( #294 ) ) ;
#59 = FACE_OUTER_BOUND ( 'NONE', #3, .T. ) ;
#60 = VERTEX_POINT ( 'NONE', #205 ) ;
#61 = CARTESIAN_POINT ( 'NONE',  ( 0.000000000000000000, 30.00000000000000000, 0.000000000000000000 ) ) ;
#62 = STYLED_ITEM ( 'NONE', ( #266 ), #154 ) ;
#63 =( GEOMETRIC_REPRESENTATION_CONTEXT ( 3 ) GLOBAL_UNCERTAINTY_ASSIGNED_CONTEXT ( ( #194 ) ) GLOBAL_UNIT_ASSIGNED_CONTEXT ( ( #25, #103, #303 ) ) REPRESENTATION_CONTEXT ( 'NONE', 'WORKASPACE' ) );
#64 = DIRECTION ( 'NONE',  ( 1.560495851798313744E-17, 1.000000000000000000, -0.000000000000000000 ) ) ;
#65 = CARTESIAN_POINT ( 'NONE',  ( 0.000000000000000000, 0.5000000000000000000, 0.000000000000000000 ) ) ;
#66 = PRESENTATION_LAYER_ASSIGNMENT (  '', '', ( #79 ) ) ;
#67 = PRESENTATION_STYLE_ASSIGNMENT (( #8 ) ) ;
#68 = CARTESIAN_POINT ( 'NONE',  ( 0.000000000000000000, 30.00000000000000000, -6.000000000000000000 ) ) ;
#69 = FILL_AREA_STYLE ('',( #302 ) ) ;
#70 = PRESENTATION_LAYER_ASSIGNMENT (  '', '', ( #227 ) ) ;
#71 =( NAMED_UNIT ( * ) SI_UNIT ( $, .STERADIAN. ) SOLID_ANGLE_UNIT ( ) );
#72 = PRESENTATION_LAYER_ASSIGNMENT (  '', '', ( #366 ) ) ;
#73 = DIRECTION ( 'NONE',  ( -0.000000000000000000, -1.000000000000000000, -0.000000000000000000 ) ) ;
#74 = CARTESIAN_POINT ( 'NONE',  ( 0.000000000000000000, 0.000000000000000000, 0.000000000000000000 ) ) ;
#75 = EDGE_CURVE ( 'NONE', #164, #232, #291, .T. ) ;
#76 = AXIS2_PLACEMENT_3D ( 'NONE', #254, #159, #337 ) ;
#77 = ORIENTED_EDGE ( 'NONE', *, *, #215, .T. ) ;
#78 = ORIENTED_EDGE ( 'NONE', *, *, #35, .T. ) ;
#79 = STYLED_ITEM ( 'NONE', ( #119 ), #49 ) ;
#80 = ORIENTED_EDGE ( 'NONE', *, *, #223, .T. ) ;
#81 = CIRCLE ( 'NONE', #196, 6.000000000000000000 ) ;
#82 = ORIENTED_EDGE ( 'NONE', *, *, #91, .F. ) ;
#83 = PRESENTATION_STYLE_ASSIGNMENT (( #288 ) ) ;
#84 = ORIENTED_EDGE ( 'NONE', *, *, #75, .F. ) ;
#85 = PRODUCT_DEFINITION ( 'UNKNOWN', '', #356, #26 ) ;
#86 = ORIENTED_EDGE ( 'NONE', *, *, #273, .F. ) ;
#87 = COLOUR_RGB ( '',0.7921568627450980005, 0.8196078431372548767, 0.9333333333333333481 ) ;
#88 = SURFACE_SIDE_STYLE ('',( #351 ) ) ;
#89 = SURFACE_STYLE_FILL_AREA ( #353 ) ;
#90 =( LENGTH_UNIT ( ) NAMED_UNIT ( * ) SI_UNIT ( .MILLI., .METRE. ) );
#91 = EDGE_CURVE ( 'NONE', #255, #140, #341, .T. ) ;
#92 = CIRCLE ( 'NONE', #299, 5.999999999999993783 ) ;
#93 = FILL_AREA_STYLE_COLOUR ( '', #87 ) ;
#94 =( NAMED_UNIT ( * ) PLANE_ANGLE_UNIT ( ) SI_UNIT ( $, .RADIAN. ) );
#95 = ADVANCED_FACE ( 'NONE', ( #32 ), #183, .F. ) ;
#96 = CIRCLE ( 'NONE', #316, 6.000000000000000000 ) ;
#97 = AXIS2_PLACEMENT_3D ( 'NONE', #128, #359, #127 ) ;
#98 = SURFACE_SIDE_STYLE ('',( #133 ) ) ;
#99 = ORIENTED_EDGE ( 'NONE', *, *, #215, .F. ) ;
#100 = ADVANCED_FACE ( 'NONE', ( #143 ), #258, .T. ) ;
#101 = DIRECTION ( 'NONE',  ( -1.000000000000000000, 0.000000000000000000, 0.000000000000000000 ) ) ;
#102 = UNCERTAINTY_MEASURE_WITH_UNIT (LENGTH_MEASURE( 1.000000000000000082E-05 ), #176, 'distance_accuracy_value', 'NONE');
#103 =( NAMED_UNIT ( * ) PLANE_ANGLE_UNIT ( ) SI_UNIT ( $, .RADIAN. ) );
#104 = AXIS2_PLACEMENT_3D ( 'NONE', #43, #329, #14 ) ;
#105 = DIRECTION ( 'NONE',  ( -0.000000000000000000, -1.000000000000000000, -0.000000000000000000 ) ) ;
#106 = PRODUCT_CONTEXT ( 'NONE', #222, 'mechanical' ) ;
#107 = ORIENTED_EDGE ( 'NONE', *, *, #357, .T. ) ;
#108 = MECHANICAL_DESIGN_GEOMETRIC_PRESENTATION_REPRESENTATION (  '', ( #62 ), #360 ) ;
#109 = VECTOR ( 'NONE', #30, 1000.000000000000000 ) ;
#110 = DIRECTION ( 'NONE',  ( -1.560495851798313744E-17, -1.000000000000000000, 0.000000000000000000 ) ) ;
#111 = CARTESIAN_POINT ( 'NONE',  ( 6.000000000000000888, 75.00000000000000000, 7.347880794884112834E-16 ) ) ;
#112 = DIRECTION ( 'NONE',  ( 1.560495851798313744E-17, 1.000000000000000000, -0.000000000000000000 ) ) ;
#113 = CARTESIAN_POINT ( 'NONE',  ( 7.347880794884119736E-16, 0.000000000000000000, 6.000000000000000000 ) ) ;
#114 = FACE_OUTER_BOUND ( 'NONE', #321, .T. ) ;
#115 = VERTEX_POINT ( 'NONE', #348 ) ;
#116 =( GEOMETRIC_REPRESENTATION_CONTEXT ( 3 ) GLOBAL_UNCERTAINTY_ASSIGNED_CONTEXT ( ( #20 ) ) GLOBAL_UNIT_ASSIGNED_CONTEXT ( ( #153, #126, #118 ) ) REPRESENTATION_CONTEXT ( 'NONE', 'WORKASPACE' ) );
#117 = MECHANICAL_DESIGN_GEOMETRIC_PRESENTATION_REPRESENTATION (  '', ( #16 ), #209 ) ;
#118 =( NAMED_UNIT ( * ) SI_UNIT ( $, .STERADIAN. ) SOLID_ANGLE_UNIT ( ) );
#119 = PRESENTATION_STYLE_ASSIGNMENT (( #10 ) ) ;
#120 = PRESENTATION_STYLE_ASSIGNMENT (( #185 ) ) ;
#121 = PRODUCT ( '59774', '59774', '', ( #106 ) ) ;
#122 = DIRECTION ( 'NONE',  ( -1.224646799147353454E-16, 0.000000000000000000, -1.000000000000000000 ) ) ;
#123 = SURFACE_STYLE_FILL_AREA ( #218 ) ;
#124 = AXIS2_PLACEMENT_3D ( 'NONE', #296, #297, #139 ) ;
#125 = COLOUR_RGB ( '',1.000000000000000000, 0.000000000000000000, 0.000000000000000000 ) ;
#126 =( NAMED_UNIT ( * ) PLANE_ANGLE_UNIT ( ) SI_UNIT ( $, .RADIAN. ) );
#127 = DIRECTION ( 'NONE',  ( 0.000000000000000000, 0.000000000000000000, -1.000000000000000000 ) ) ;
#128 = CARTESIAN_POINT ( 'NONE',  ( 0.000000000000000000, 0.000000000000000000, 0.000000000000000000 ) ) ;
#129 = AXIS2_PLACEMENT_3D ( 'NONE', #347, #64, #182 ) ;
#130 = PRESENTATION_LAYER_ASSIGNMENT (  '', '', ( #298 ) ) ;
#131 = CARTESIAN_POINT ( 'NONE',  ( 0.000000000000000000, 0.000000000000000000, 0.000000000000000000 ) ) ;
#132 = CYLINDRICAL_SURFACE ( 'NONE', #97, 6.000000000000000000 ) ;
#133 = SURFACE_STYLE_FILL_AREA ( #362 ) ;
#134 = UNCERTAINTY_MEASURE_WITH_UNIT (LENGTH_MEASURE( 1.000000000000000082E-05 ), #150, 'distance_accuracy_value', 'NONE');
#135 = CARTESIAN_POINT ( 'NONE',  ( -5.999999999999988454, 75.00000000000000000, 0.000000000000000000 ) ) ;
#136 = CARTESIAN_POINT ( 'NONE',  ( 0.000000000000000000, 0.000000000000000000, 0.000000000000000000 ) ) ;
#137 = ORIENTED_EDGE ( 'NONE', *, *, #28, .F. ) ;
#138 = CARTESIAN_POINT ( 'NONE',  ( 6.123233995736762930E-15, 75.00000000000000000, 0.000000000000000000 ) ) ;
#139 = DIRECTION ( 'NONE',  ( 0.000000000000000000, 0.000000000000000000, -1.000000000000000000 ) ) ;
#140 = VERTEX_POINT ( 'NONE', #314 ) ;
#141 = AXIS2_PLACEMENT_3D ( 'NONE', #290, #112, #36 ) ;
#142 = CARTESIAN_POINT ( 'NONE',  ( 5.421010862427522170E-15, 30.00000000000000000, 0.000000000000000000 ) ) ;
#143 = FACE_OUTER_BOUND ( 'NONE', #310, .T. ) ;
#144 = ORIENTED_EDGE ( 'NONE', *, *, #166, .F. ) ;
#145 = PLANE ( 'NONE',  #202 ) ;
#146 =( NAMED_UNIT ( * ) PLANE_ANGLE_UNIT ( ) SI_UNIT ( $, .RADIAN. ) );
#147 = COLOUR_RGB ( '',0.7921568627450980005, 0.8196078431372548767, 0.9333333333333333481 ) ;
#148 = COLOUR_RGB ( '',1.000000000000000000, 0.000000000000000000, 0.000000000000000000 ) ;
#149 = PRODUCT_DEFINITION_SHAPE ( 'NONE', 'NONE',  #85 ) ;
#150 =( LENGTH_UNIT ( ) NAMED_UNIT ( * ) SI_UNIT ( .MILLI., .METRE. ) );
#151 = EDGE_CURVE ( 'NONE', #340, #278, #96, .T. ) ;
#152 = CARTESIAN_POINT ( 'NONE',  ( 0.000000000000000000, 30.00000000000000000, 0.000000000000000000 ) ) ;
#153 =( LENGTH_UNIT ( ) NAMED_UNIT ( * ) SI_UNIT ( .MILLI., .METRE. ) );
#154 = ADVANCED_FACE ( 'NONE', ( #114 ), #145, .T. ) ;
#155 = COLOUR_RGB ( '',1.000000000000000000, 0.000000000000000000, 0.000000000000000000 ) ;
#156 = CIRCLE ( 'NONE', #214, 6.000000000000000000 ) ;
#157 =( LENGTH_UNIT ( ) NAMED_UNIT ( * ) SI_UNIT ( .MILLI., .METRE. ) );
#158 = SURFACE_STYLE_FILL_AREA ( #69 ) ;
#159 = DIRECTION ( 'NONE',  ( 1.560495851798313744E-17, 1.000000000000000000, -0.000000000000000000 ) ) ;
#160 = UNCERTAINTY_MEASURE_WITH_UNIT (LENGTH_MEASURE( 1.000000000000000082E-05 ), #311, 'distance_accuracy_value', 'NONE');
#161 = ORIENTED_EDGE ( 'NONE', *, *, #273, .T. ) ;
#162 = CIRCLE ( 'NONE', #259, 0.5000000000000004441 ) ;
#163 = DIRECTION ( 'NONE',  ( 1.560495851798313744E-17, 1.000000000000000000, -0.000000000000000000 ) ) ;
#164 = VERTEX_POINT ( 'NONE', #304 ) ;
#165 =( NAMED_UNIT ( * ) SI_UNIT ( $, .STERADIAN. ) SOLID_ANGLE_UNIT ( ) );
#166 = EDGE_CURVE ( 'NONE', #278, #164, #274, .T. ) ;
#167 = VECTOR ( 'NONE', #105, 1000.000000000000000 ) ;
#168 = AXIS2_PLACEMENT_3D ( 'NONE', #61, #175, #319 ) ;
#169 = LINE ( 'NONE', #135, #109 ) ;
#170 = ORIENTED_EDGE ( 'NONE', *, *, #151, .F. ) ;
#171 = DIRECTION ( 'NONE',  ( 1.000000000000000000, 0.000000000000000000, 0.000000000000000000 ) ) ;
#172 = ORIENTED_EDGE ( 'NONE', *, *, #15, .F. ) ;
#173 = EDGE_LOOP ( 'NONE', ( #313, #289 ) ) ;
#174 = MANIFOLD_SOLID_BREP ( 'Revolve - Tool Body (Straight Shanked)', #334 ) ;
#175 = DIRECTION ( 'NONE',  ( -0.000000000000000000, -1.000000000000000000, -0.000000000000000000 ) ) ;
#176 =( LENGTH_UNIT ( ) NAMED_UNIT ( * ) SI_UNIT ( .MILLI., .METRE. ) );
#177 = DIRECTION ( 'NONE',  ( 1.560495851798313744E-17, 1.000000000000000000, -0.000000000000000000 ) ) ;
#178 = AXIS2_PLACEMENT_3D ( 'NONE', #50, #163, #280 ) ;
#179 =( GEOMETRIC_REPRESENTATION_CONTEXT ( 3 ) GLOBAL_UNCERTAINTY_ASSIGNED_CONTEXT ( ( #308 ) ) GLOBAL_UNIT_ASSIGNED_CONTEXT ( ( #157, #94, #71 ) ) REPRESENTATION_CONTEXT ( 'NONE', 'WORKASPACE' ) );
#180 = DIRECTION ( 'NONE',  ( -0.000000000000000000, -1.000000000000000000, -0.000000000000000000 ) ) ;
#181 =( NAMED_UNIT ( * ) PLANE_ANGLE_UNIT ( ) SI_UNIT ( $, .RADIAN. ) );
#182 = DIRECTION ( 'NONE',  ( -1.000000000000000000, 0.000000000000000000, 0.000000000000000000 ) ) ;
#183 = PLANE ( 'NONE',  #213 ) ;
#184 = SURFACE_STYLE_USAGE ( .BOTH. , #41 ) ;
#185 = SURFACE_STYLE_USAGE ( .BOTH. , #244 ) ;
#186 = PRESENTATION_LAYER_ASSIGNMENT (  '', '', ( #62 ) ) ;
#187 = MECHANICAL_DESIGN_GEOMETRIC_PRESENTATION_REPRESENTATION (  '', ( #361 ), #63 ) ;
#188 = DIRECTION ( 'NONE',  ( 0.000000000000000000, 0.000000000000000000, -1.000000000000000000 ) ) ;
#189 =( NAMED_UNIT ( * ) SI_UNIT ( $, .STERADIAN. ) SOLID_ANGLE_UNIT ( ) );
#190 = PRESENTATION_STYLE_ASSIGNMENT (( #221 ) ) ;
#191 =( GEOMETRIC_REPRESENTATION_CONTEXT ( 3 ) GLOBAL_UNCERTAINTY_ASSIGNED_CONTEXT ( ( #102 ) ) GLOBAL_UNIT_ASSIGNED_CONTEXT ( ( #176, #181, #243 ) ) REPRESENTATION_CONTEXT ( 'NONE', 'WORKASPACE' ) );
#192 = COLOUR_RGB ( '',1.000000000000000000, 0.000000000000000000, 0.000000000000000000 ) ;
#193 = DIRECTION ( 'NONE',  ( -0.000000000000000000, -1.000000000000000000, -0.000000000000000000 ) ) ;
#194 = UNCERTAINTY_MEASURE_WITH_UNIT (LENGTH_MEASURE( 1.000000000000000082E-05 ), #25, 'distance_accuracy_value', 'NONE');
#195 = DIRECTION ( 'NONE',  ( 0.000000000000000000, 0.000000000000000000, -1.000000000000000000 ) ) ;
#196 = AXIS2_PLACEMENT_3D ( 'NONE', #46, #250, #326 ) ;
#197 = AXIS2_PLACEMENT_3D ( 'NONE', #131, #338, #305 ) ;
#198 = ADVANCED_FACE ( 'NONE', ( #18 ), #342, .T. ) ;
#199 = CARTESIAN_POINT ( 'NONE',  ( -5.999999999999989342, 30.00000000000000000, 0.000000000000000000 ) ) ;
#200 = ORIENTED_EDGE ( 'NONE', *, *, #223, .F. ) ;
#201 = CARTESIAN_POINT ( 'NONE',  ( 6.000000000000000000, 75.00000000000000000, 0.000000000000000000 ) ) ;
#202 = AXIS2_PLACEMENT_3D ( 'NONE', #152, #272, #327 ) ;
#203 = MECHANICAL_DESIGN_GEOMETRIC_PRESENTATION_REPRESENTATION (  '', ( #366 ), #179 ) ;
#204 = EDGE_LOOP ( 'NONE', ( #263, #161 ) ) ;
#205 = CARTESIAN_POINT ( 'NONE',  ( 6.000000000000000000, 30.00000000000000000, 7.347880794884112834E-16 ) ) ;
#206 = FACE_OUTER_BOUND ( 'NONE', #293, .T. ) ;
#207 = VERTEX_POINT ( 'NONE', #333 ) ;
#208 = LINE ( 'NONE', #113, #167 ) ;
#209 =( GEOMETRIC_REPRESENTATION_CONTEXT ( 3 ) GLOBAL_UNCERTAINTY_ASSIGNED_CONTEXT ( ( #225 ) ) GLOBAL_UNIT_ASSIGNED_CONTEXT ( ( #90, #247, #47 ) ) REPRESENTATION_CONTEXT ( 'NONE', 'WORKASPACE' ) );
#210 = DIRECTION ( 'NONE',  ( 1.000000000000000000, 0.000000000000000000, -1.224646799147353207E-16 ) ) ;
#211 =( LENGTH_UNIT ( ) NAMED_UNIT ( * ) SI_UNIT ( .MILLI., .METRE. ) );
#212 = ADVANCED_FACE ( 'NONE', ( #300 ), #220, .T. ) ;
#213 = AXIS2_PLACEMENT_3D ( 'NONE', #201, #110, #350 ) ;
#214 = AXIS2_PLACEMENT_3D ( 'NONE', #52, #193, #281 ) ;
#215 = EDGE_CURVE ( 'NONE', #340, #232, #162, .T. ) ;
#216 = SURFACE_STYLE_FILL_AREA ( #271 ) ;
#217 = DIRECTION ( 'NONE',  ( -0.000000000000000000, -1.000000000000000000, -0.000000000000000000 ) ) ;
#218 = FILL_AREA_STYLE ('',( #93 ) ) ;
#219 = UNCERTAINTY_MEASURE_WITH_UNIT (LENGTH_MEASURE( 1.000000000000000082E-05 ), #211, 'distance_accuracy_value', 'NONE');
#220 = TOROIDAL_SURFACE ( 'NONE', #51, 5.500000000000000000, 0.5000000000000002220 ) ;
#221 = SURFACE_STYLE_USAGE ( .BOTH. , #226 ) ;
#222 = APPLICATION_CONTEXT ( 'automotive_design' ) ;
#223 = EDGE_CURVE ( 'NONE', #255, #278, #301, .T. ) ;
#224 = PLANE ( 'NONE',  #270 ) ;
#225 = UNCERTAINTY_MEASURE_WITH_UNIT (LENGTH_MEASURE( 1.000000000000000082E-05 ), #90, 'distance_accuracy_value', 'NONE');
#226 = SURFACE_SIDE_STYLE ('',( #307 ) ) ;
#227 = STYLED_ITEM ( 'NONE', ( #67 ), #212 ) ;
#228 = PRESENTATION_STYLE_ASSIGNMENT (( #277 ) ) ;
#229 = EDGE_CURVE ( 'NONE', #278, #340, #81, .T. ) ;
#230 =( LENGTH_UNIT ( ) NAMED_UNIT ( * ) SI_UNIT ( .MILLI., .METRE. ) );
#231 = DIRECTION ( 'NONE',  ( 0.000000000000000000, -1.000000000000000000, -0.000000000000000000 ) ) ;
#232 = VERTEX_POINT ( 'NONE', #358 ) ;
#233 = COLOUR_RGB ( '',1.000000000000000000, 0.000000000000000000, 0.000000000000000000 ) ;
#234 = ORIENTED_EDGE ( 'NONE', *, *, #322, .F. ) ;
#235 = PRODUCT_RELATED_PRODUCT_CATEGORY ( 'part', '', ( #121 ) ) ;
#236 = APPLICATION_PROTOCOL_DEFINITION ( 'draft international standard', 'automotive_design', 1998, #238 ) ;
#237 = CYLINDRICAL_SURFACE ( 'NONE', #252, 5.999999999999994671 ) ;
#238 = APPLICATION_CONTEXT ( 'automotive_design' ) ;
#239 = ORIENTED_EDGE ( 'NONE', *, *, #15, .T. ) ;
#240 = CYLINDRICAL_SURFACE ( 'NONE', #248, 6.000000000000000000 ) ;
#241 = ADVANCED_FACE ( 'NONE', ( #332 ), #240, .T. ) ;
#242 = ORIENTED_EDGE ( 'NONE', *, *, #28, .T. ) ;
#243 =( NAMED_UNIT ( * ) SI_UNIT ( $, .STERADIAN. ) SOLID_ANGLE_UNIT ( ) );
#244 = SURFACE_SIDE_STYLE ('',( #123 ) ) ;
#245 = DIRECTION ( 'NONE',  ( 0.000000000000000000, 0.000000000000000000, -1.000000000000000000 ) ) ;
#246 = CARTESIAN_POINT ( 'NONE',  ( 0.000000000000000000, 0.000000000000000000, -6.000000000000000000 ) ) ;
#247 =( NAMED_UNIT ( * ) PLANE_ANGLE_UNIT ( ) SI_UNIT ( $, .RADIAN. ) );
#248 = AXIS2_PLACEMENT_3D ( 'NONE', #74, #73, #195 ) ;
#249 =( GEOMETRIC_REPRESENTATION_CONTEXT ( 3 ) GLOBAL_UNCERTAINTY_ASSIGNED_CONTEXT ( ( #160 ) ) GLOBAL_UNIT_ASSIGNED_CONTEXT ( ( #311, #367, #165 ) ) REPRESENTATION_CONTEXT ( 'NONE', 'WORKASPACE' ) );
#250 = DIRECTION ( 'NONE',  ( -0.000000000000000000, -1.000000000000000000, -0.000000000000000000 ) ) ;
#251 = FILL_AREA_STYLE ('',( #253 ) ) ;
#252 = AXIS2_PLACEMENT_3D ( 'NONE', #138, #177, #39 ) ;
#253 = FILL_AREA_STYLE_COLOUR ( '', #148 ) ;
#254 = CARTESIAN_POINT ( 'NONE',  ( 6.123233995736762930E-15, 75.00000000000000000, 0.000000000000000000 ) ) ;
#255 = VERTEX_POINT ( 'NONE', #68 ) ;
#256 = ORIENTED_EDGE ( 'NONE', *, *, #35, .F. ) ;
#257 = EDGE_CURVE ( 'NONE', #207, #115, #38, .T. ) ;
#258 = CYLINDRICAL_SURFACE ( 'NONE', #141, 5.999999999999994671 ) ;
#259 = AXIS2_PLACEMENT_3D ( 'NONE', #17, #210, #122 ) ;
#260 = CARTESIAN_POINT ( 'NONE',  ( 7.347880794884119736E-16, 0.5000000000000000000, 6.000000000000000000 ) ) ;
#261 = PLANE ( 'NONE',  #6 ) ;
#262 = CARTESIAN_POINT ( 'NONE',  ( 0.000000000000000000, 0.5000000000000000000, 0.000000000000000000 ) ) ;
#263 = ORIENTED_EDGE ( 'NONE', *, *, #75, .T. ) ;
#264 = EDGE_CURVE ( 'NONE', #363, #60, #292, .T. ) ;
#265 = ORIENTED_EDGE ( 'NONE', *, *, #151, .T. ) ;
#266 = PRESENTATION_STYLE_ASSIGNMENT (( #325 ) ) ;
#267 = VECTOR ( 'NONE', #318, 1000.000000000000000 ) ;
#268 = MECHANICAL_DESIGN_GEOMETRIC_PRESENTATION_REPRESENTATION (  '', ( #44 ), #191 ) ;
#269 =( NAMED_UNIT ( * ) PLANE_ANGLE_UNIT ( ) SI_UNIT ( $, .RADIAN. ) );
#270 = AXIS2_PLACEMENT_3D ( 'NONE', #53, #231, #317 ) ;
#271 = FILL_AREA_STYLE ('',( #331 ) ) ;
#272 = DIRECTION ( 'NONE',  ( 0.000000000000000000, 1.000000000000000000, 0.000000000000000000 ) ) ;
#273 = EDGE_CURVE ( 'NONE', #232, #164, #279, .T. ) ;
#274 = CIRCLE ( 'NONE', #104, 0.5000000000000004441 ) ;
#275 = ADVANCED_FACE ( 'NONE', ( #19 ), #132, .T. ) ;
#276 =( NAMED_UNIT ( * ) SI_UNIT ( $, .STERADIAN. ) SOLID_ANGLE_UNIT ( ) );
#277 = SURFACE_STYLE_USAGE ( .BOTH. , #98 ) ;
#278 = VERTEX_POINT ( 'NONE', #364 ) ;
#279 = CIRCLE ( 'NONE', #197, 5.500000000000000000 ) ;
#280 = DIRECTION ( 'NONE',  ( -1.000000000000000000, 0.000000000000000000, 0.000000000000000000 ) ) ;
#281 = DIRECTION ( 'NONE',  ( 0.000000000000000000, 0.000000000000000000, -1.000000000000000000 ) ) ;
#282 = EDGE_LOOP ( 'NONE', ( #172, #306, #80, #170 ) ) ;
#283 = DIRECTION ( 'NONE',  ( 0.000000000000000000, 0.000000000000000000, 1.000000000000000000 ) ) ;
#284 = ORIENTED_EDGE ( 'NONE', *, *, #257, .F. ) ;
#285 =( NAMED_UNIT ( * ) PLANE_ANGLE_UNIT ( ) SI_UNIT ( $, .RADIAN. ) );
#286 = EDGE_CURVE ( 'NONE', #115, #207, #92, .T. ) ;
#287 = EDGE_LOOP ( 'NONE', ( #99, #265, #346, #86 ) ) ;
#288 = SURFACE_STYLE_USAGE ( .BOTH. , #343 ) ;
#289 = ORIENTED_EDGE ( 'NONE', *, *, #257, .T. ) ;
#290 = CARTESIAN_POINT ( 'NONE',  ( 6.123233995736762930E-15, 75.00000000000000000, 0.000000000000000000 ) ) ;
#291 = CIRCLE ( 'NONE', #124, 5.500000000000000000 ) ;
#292 = CIRCLE ( 'NONE', #178, 5.999999999999994671 ) ;
#293 = EDGE_LOOP ( 'NONE', ( #5, #242, #368, #31 ) ) ;
#294 = FILL_AREA_STYLE_COLOUR ( '', #125 ) ;
#295 = FILL_AREA_STYLE_COLOUR ( '', #233 ) ;
#296 = CARTESIAN_POINT ( 'NONE',  ( 0.000000000000000000, 0.000000000000000000, 0.000000000000000000 ) ) ;
#297 = DIRECTION ( 'NONE',  ( -0.000000000000000000, -1.000000000000000000, -0.000000000000000000 ) ) ;
#298 = STYLED_ITEM ( 'NONE', ( #45 ), #241 ) ;
#299 = AXIS2_PLACEMENT_3D ( 'NONE', #339, #309, #101 ) ;
#300 = FACE_OUTER_BOUND ( 'NONE', #24, .T. ) ;
#301 = LINE ( 'NONE', #246, #55 ) ;
#302 = FILL_AREA_STYLE_COLOUR ( '', #155 ) ;
#303 =( NAMED_UNIT ( * ) SI_UNIT ( $, .STERADIAN. ) SOLID_ANGLE_UNIT ( ) );
#304 = CARTESIAN_POINT ( 'NONE',  ( 0.000000000000000000, 0.000000000000000000, -5.500000000000000000 ) ) ;
#305 = DIRECTION ( 'NONE',  ( 0.000000000000000000, 0.000000000000000000, -1.000000000000000000 ) ) ;
#306 = ORIENTED_EDGE ( 'NONE', *, *, #322, .T. ) ;
#307 = SURFACE_STYLE_FILL_AREA ( #251 ) ;
#308 = UNCERTAINTY_MEASURE_WITH_UNIT (LENGTH_MEASURE( 1.000000000000000082E-05 ), #157, 'distance_accuracy_value', 'NONE');
#309 = DIRECTION ( 'NONE',  ( 1.560495851798313744E-17, 1.000000000000000000, -0.000000000000000000 ) ) ;
#310 = EDGE_LOOP ( 'NONE', ( #137, #78, #107, #284 ) ) ;
#311 =( LENGTH_UNIT ( ) NAMED_UNIT ( * ) SI_UNIT ( .MILLI., .METRE. ) );
#312 = APPLICATION_PROTOCOL_DEFINITION ( 'draft international standard', 'automotive_design', 1998, #222 ) ;
#313 = ORIENTED_EDGE ( 'NONE', *, *, #286, .T. ) ;
#314 = CARTESIAN_POINT ( 'NONE',  ( 7.347880794884119736E-16, 30.00000000000000000, 6.000000000000000000 ) ) ;
#315 = CIRCLE ( 'NONE', #129, 5.999999999999994671 ) ;
#316 = AXIS2_PLACEMENT_3D ( 'NONE', #262, #180, #369 ) ;
#317 = DIRECTION ( 'NONE',  ( 0.000000000000000000, 0.000000000000000000, -1.000000000000000000 ) ) ;
#318 = DIRECTION ( 'NONE',  ( 1.560495851798313744E-17, 1.000000000000000000, -0.000000000000000000 ) ) ;
#319 = DIRECTION ( 'NONE',  ( 0.000000000000000000, 0.000000000000000000, -1.000000000000000000 ) ) ;
#320 = SHAPE_DEFINITION_REPRESENTATION ( #149, #12 ) ;
#321 = EDGE_LOOP ( 'NONE', ( #82, #234 ) ) ;
#322 = EDGE_CURVE ( 'NONE', #140, #255, #156, .T. ) ;
#323 = ORIENTED_EDGE ( 'NONE', *, *, #264, .F. ) ;
#324 = LINE ( 'NONE', #111, #267 ) ;
#325 = SURFACE_STYLE_USAGE ( .BOTH. , #2 ) ;
#326 = DIRECTION ( 'NONE',  ( 0.000000000000000000, 0.000000000000000000, -1.000000000000000000 ) ) ;
#327 = DIRECTION ( 'NONE',  ( 0.000000000000000000, -0.000000000000000000, 1.000000000000000000 ) ) ;
#328 = DIRECTION ( 'NONE',  ( -0.000000000000000000, -1.000000000000000000, -0.000000000000000000 ) ) ;
#329 = DIRECTION ( 'NONE',  ( -1.000000000000000000, 0.000000000000000000, 0.000000000000000000 ) ) ;
#330 = ADVANCED_FACE ( 'NONE', ( #21 ), #224, .T. ) ;
#331 = FILL_AREA_STYLE_COLOUR ( '', #335 ) ;
#332 = FACE_OUTER_BOUND ( 'NONE', #282, .T. ) ;
#333 = CARTESIAN_POINT ( 'NONE',  ( 6.000000000000000000, 75.00000000000000000, 7.347880794884112834E-16 ) ) ;
#334 = CLOSED_SHELL ( 'NONE', ( #9, #23, #100, #95 ) ) ;
#335 = COLOUR_RGB ( '',1.000000000000000000, 0.000000000000000000, 0.000000000000000000 ) ;
#336 = AXIS2_PLACEMENT_3D ( 'NONE', #136, #283, #171 ) ;
#337 = DIRECTION ( 'NONE',  ( -1.000000000000000000, 0.000000000000000000, 0.000000000000000000 ) ) ;
#338 = DIRECTION ( 'NONE',  ( -0.000000000000000000, -1.000000000000000000, -0.000000000000000000 ) ) ;
#339 = CARTESIAN_POINT ( 'NONE',  ( 6.123233995736762930E-15, 75.00000000000000000, 0.000000000000000000 ) ) ;
#340 = VERTEX_POINT ( 'NONE', #260 ) ;
#341 = CIRCLE ( 'NONE', #168, 6.000000000000000000 ) ;
#342 = TOROIDAL_SURFACE ( 'NONE', #365, 5.500000000000000000, 0.5000000000000002220 ) ;
#343 = SURFACE_SIDE_STYLE ('',( #158 ) ) ;
#344 = UNCERTAINTY_MEASURE_WITH_UNIT (LENGTH_MEASURE( 1.000000000000000082E-05 ), #230, 'distance_accuracy_value', 'NONE');
#345 = ORIENTED_EDGE ( 'NONE', *, *, #91, .T. ) ;
#346 = ORIENTED_EDGE ( 'NONE', *, *, #166, .T. ) ;
#347 = CARTESIAN_POINT ( 'NONE',  ( 5.421010862427522170E-15, 30.00000000000000000, 0.000000000000000000 ) ) ;
#348 = CARTESIAN_POINT ( 'NONE',  ( -5.999999999999987566, 75.00000000000000000, 0.000000000000000000 ) ) ;
#349 = DIRECTION ( 'NONE',  ( 1.560495851798313744E-17, 1.000000000000000000, -0.000000000000000000 ) ) ;
#350 = DIRECTION ( 'NONE',  ( 1.000000000000000000, -1.560495851798313744E-17, 0.000000000000000000 ) ) ;
#351 = SURFACE_STYLE_FILL_AREA ( #42 ) ;
#352 = DIRECTION ( 'NONE',  ( -0.000000000000000000, -1.000000000000000000, -0.000000000000000000 ) ) ;
#353 = FILL_AREA_STYLE ('',( #295 ) ) ;
#354 = MECHANICAL_DESIGN_GEOMETRIC_PRESENTATION_REPRESENTATION (  '', ( #79 ), #37 ) ;
#355 = PRESENTATION_LAYER_ASSIGNMENT (  '', '', ( #16 ) ) ;
#356 = PRODUCT_DEFINITION_FORMATION_WITH_SPECIFIED_SOURCE ( 'ANY', '', #121, .NOT_KNOWN. ) ;
#357 = EDGE_CURVE ( 'NONE', #363, #115, #169, .T. ) ;
#358 = CARTESIAN_POINT ( 'NONE',  ( 7.041719095097280880E-16, 0.000000000000000000, 5.500000000000000000 ) ) ;
#359 = DIRECTION ( 'NONE',  ( -0.000000000000000000, -1.000000000000000000, -0.000000000000000000 ) ) ;
#360 =( GEOMETRIC_REPRESENTATION_CONTEXT ( 3 ) GLOBAL_UNCERTAINTY_ASSIGNED_CONTEXT ( ( #344 ) ) GLOBAL_UNIT_ASSIGNED_CONTEXT ( ( #230, #285, #189 ) ) REPRESENTATION_CONTEXT ( 'NONE', 'WORKASPACE' ) );
#361 = STYLED_ITEM ( 'NONE', ( #190 ), #275 ) ;
#362 = FILL_AREA_STYLE ('',( #27 ) ) ;
#363 = VERTEX_POINT ( 'NONE', #199 ) ;
#364 = CARTESIAN_POINT ( 'NONE',  ( 0.000000000000000000, 0.5000000000000000000, -6.000000000000000000 ) ) ;
#365 = AXIS2_PLACEMENT_3D ( 'NONE', #4, #328, #188 ) ;
#366 = STYLED_ITEM ( 'NONE', ( #228 ), #330 ) ;
#367 =( NAMED_UNIT ( * ) PLANE_ANGLE_UNIT ( ) SI_UNIT ( $, .RADIAN. ) );
#368 = ORIENTED_EDGE ( 'NONE', *, *, #286, .F. ) ;
#369 = DIRECTION ( 'NONE',  ( 0.000000000000000000, 0.000000000000000000, -1.000000000000000000 ) ) ;
#370 =( GEOMETRIC_REPRESENTATION_CONTEXT ( 3 ) GLOBAL_UNCERTAINTY_ASSIGNED_CONTEXT ( ( #134 ) ) GLOBAL_UNIT_ASSIGNED_CONTEXT ( ( #150, #269, #11 ) ) REPRESENTATION_CONTEXT ( 'NONE', 'WORKASPACE' ) );
ENDSEC;
END-ISO-10303-21;
