ISO-10303-21;
HEADER;
FILE_DESCRIPTION (( 'STEP AP214' ),
    '1' );
FILE_NAME ('Micro_MMBM-006-5X.STEP',
    '2021-09-03T16:24:00',
    ( '' ),
    ( '' ),
    'SwSTEP 2.0',
    'SolidWorks 2020',
    '' );
FILE_SCHEMA (( 'AUTOMOTIVE_DESIGN' ));
ENDSEC;

DATA;
#1 = AXIS2_PLACEMENT_3D ( 'NONE', #73, #37, #7 ) ;
#2 = AXIS2_PLACEMENT_3D ( 'NONE', #79, #282, #25 ) ;
#3 = DIRECTION ( 'NONE',  ( -1.000000000000000000, 0.0000000000000000000, 0.0000000000000000000 ) ) ;
#4 = DIRECTION ( 'NONE',  ( -1.000000000000000000, 0.0000000000000000000, 0.0000000000000000000 ) ) ;
#5 = DIRECTION ( 'NONE',  ( -0.0000000000000000000, -0.0000000000000000000, -1.000000000000000000 ) ) ;
#6 = AXIS2_PLACEMENT_3D ( 'NONE', #183, #212, #355 ) ;
#7 = DIRECTION ( 'NONE',  ( -1.000000000000000000, 0.0000000000000000000, 0.0000000000000000000 ) ) ;
#8 = LENGTH_MEASURE_WITH_UNIT ( LENGTH_MEASURE( 0.02539999999999999897 ), #185 );
#9 = ORIENTED_EDGE ( 'NONE', *, *, #198, .T. ) ;
#10 = CARTESIAN_POINT ( 'NONE',  ( 0.01180981890000000305, 1.446285691439491932E-18, 0.0000000000000000000 ) ) ;
#11 = ORIENTED_EDGE ( 'NONE', *, *, #137, .T. ) ;
#12 = CIRCLE ( 'NONE', #322, 0.06374000000000018540 ) ;
#13 = DIRECTION ( 'NONE',  ( -0.0000000000000000000, -0.0000000000000000000, -1.000000000000000000 ) ) ;
#14 = VERTEX_POINT ( 'NONE', #199 ) ;
#15 =( NAMED_UNIT ( * ) SI_UNIT ( $, .STERADIAN. ) SOLID_ANGLE_UNIT ( ) );
#16 = ORIENTED_EDGE ( 'NONE', *, *, #178, .F. ) ;
#17 = ORIENTED_EDGE ( 'NONE', *, *, #354, .F. ) ;
#18 = PRODUCT_DEFINITION_SHAPE ( 'NONE', 'NONE',  #265 ) ;
#19 = CONICAL_SURFACE ( 'NONE', #46, 0.01180981890000000305, 0.1745329251994333086 ) ;
#20 = FACE_OUTER_BOUND ( 'NONE', #141, .T. ) ;
#21 = AXIS2_PLACEMENT_3D ( 'NONE', #29, #262, #66 ) ;
#22 = AXIS2_PLACEMENT_3D ( 'NONE', #71, #295, #268 ) ;
#23 = ORIENTED_EDGE ( 'NONE', *, *, #172, .T. ) ;
#24 = ADVANCED_FACE ( 'NONE', ( #373 ), #279, .T. ) ;
#25 = DIRECTION ( 'NONE',  ( 1.000000000000000000, 0.0000000000000000000, 0.0000000000000000000 ) ) ;
#26 = EDGE_LOOP ( 'NONE', ( #23, #273 ) ) ;
#27 = DIRECTION ( 'NONE',  ( -1.000000000000000000, 0.0000000000000000000, 0.0000000000000000000 ) ) ;
#28 = AXIS2_PLACEMENT_3D ( 'NONE', #255, #374, #175 ) ;
#29 = CARTESIAN_POINT ( 'NONE',  ( 0.0000000000000000000, 0.0000000000000000000, 0.1968500000000001082 ) ) ;
#30 = DIRECTION ( 'NONE',  ( -0.0000000000000000000, -0.0000000000000000000, -1.000000000000000000 ) ) ;
#31 = EDGE_CURVE ( 'NONE', #194, #228, #287, .T. ) ;
#32 = DIRECTION ( 'NONE',  ( -0.0000000000000000000, -0.0000000000000000000, -1.000000000000000000 ) ) ;
#33 = AXIS2_PLACEMENT_3D ( 'NONE', #76, #246, #102 ) ;
#34 = CARTESIAN_POINT ( 'NONE',  ( -0.01180981890000000305, 0.0000000000000000000, 0.02362200000000000064 ) ) ;
#35 = EDGE_CURVE ( 'NONE', #165, #195, #83, .T. ) ;
#36 = DIRECTION ( 'NONE',  ( -0.7071067811865507924, 0.0000000000000000000, -0.7071067811865443531 ) ) ;
#37 = DIRECTION ( 'NONE',  ( 0.0000000000000000000, 0.0000000000000000000, -1.000000000000000000 ) ) ;
#38 = CIRCLE ( 'NONE', #28, 0.01141750000000000577 ) ;
#39 = STYLED_ITEM ( 'NONE', ( #339 ), #335 ) ;
#40 = DIRECTION ( 'NONE',  ( -0.0000000000000000000, -0.0000000000000000000, -1.000000000000000000 ) ) ;
#41 = ORIENTED_EDGE ( 'NONE', *, *, #310, .T. ) ;
#42 = ADVANCED_FACE ( 'NONE', ( #202 ), #139, .F. ) ;
#43 = CYLINDRICAL_SURFACE ( 'NONE', #125, 0.07874000000000001831 ) ;
#44 = ORIENTED_EDGE ( 'NONE', *, *, #31, .T. ) ;
#45 = PLANE ( 'NONE',  #33 ) ;
#46 = AXIS2_PLACEMENT_3D ( 'NONE', #283, #143, #27 ) ;
#47 =( CONVERSION_BASED_UNIT ( 'INCH', #8 ) LENGTH_UNIT ( ) NAMED_UNIT ( #54 ) );
#48 =( LENGTH_UNIT ( ) NAMED_UNIT ( * ) SI_UNIT ( $, .METRE. ) );
#49 = CARTESIAN_POINT ( 'NONE',  ( 0.0000000000000000000, 0.0000000000000000000, 0.0000000000000000000 ) ) ;
#50 =( NAMED_UNIT ( * ) PLANE_ANGLE_UNIT ( ) SI_UNIT ( $, .RADIAN. ) );
#51 = AXIS2_PLACEMENT_3D ( 'NONE', #231, #32, #3 ) ;
#52 = ORIENTED_EDGE ( 'NONE', *, *, #147, .F. ) ;
#53 = ADVANCED_FACE ( 'NONE', ( #372 ), #19, .T. ) ;
#54 = DIMENSIONAL_EXPONENTS ( 1.000000000000000000, 0.0000000000000000000, 0.0000000000000000000, 0.0000000000000000000, 0.0000000000000000000, 0.0000000000000000000, 0.0000000000000000000 ) ;
#55 =( NAMED_UNIT ( * ) SI_UNIT ( $, .STERADIAN. ) SOLID_ANGLE_UNIT ( ) );
#56 = ORIENTED_EDGE ( 'NONE', *, *, #225, .T. ) ;
#57 = EDGE_CURVE ( 'NONE', #195, #254, #38, .T. ) ;
#58 = DIMENSIONAL_EXPONENTS ( 1.000000000000000000, 0.0000000000000000000, 0.0000000000000000000, 0.0000000000000000000, 0.0000000000000000000, 0.0000000000000000000, 0.0000000000000000000 ) ;
#59 = CYLINDRICAL_SURFACE ( 'NONE', #196, 0.01141750000000001444 ) ;
#60 = EDGE_CURVE ( 'NONE', #204, #313, #341, .T. ) ;
#61 = DIRECTION ( 'NONE',  ( 1.000000000000000000, 0.0000000000000000000, 0.0000000000000000000 ) ) ;
#62 = DIRECTION ( 'NONE',  ( 0.0000000000000000000, 0.0000000000000000000, 1.000000000000000000 ) ) ;
#63 = CARTESIAN_POINT ( 'NONE',  ( 0.01180981890000000305, 1.446285691439491932E-18, 0.02362200000000000064 ) ) ;
#64 =( GEOMETRIC_REPRESENTATION_CONTEXT ( 3 ) GLOBAL_UNCERTAINTY_ASSIGNED_CONTEXT ( ( #359 ) ) GLOBAL_UNIT_ASSIGNED_CONTEXT ( ( #47, #126, #15 ) ) REPRESENTATION_CONTEXT ( 'NONE', 'WORKASPACE' ) );
#65 = DIRECTION ( 'NONE',  ( -1.000000000000000000, 0.0000000000000000000, 0.0000000000000000000 ) ) ;
#66 = DIRECTION ( 'NONE',  ( -1.000000000000000000, 0.0000000000000000000, 0.0000000000000000000 ) ) ;
#67 = ADVANCED_FACE ( 'NONE', ( #20 ), #224, .T. ) ;
#68 = DIRECTION ( 'NONE',  ( -1.000000000000000000, 0.0000000000000000000, 0.0000000000000000000 ) ) ;
#69 = EDGE_LOOP ( 'NONE', ( #190, #98 ) ) ;
#70 = CIRCLE ( 'NONE', #51, 0.07874000000000001831 ) ;
#71 = CARTESIAN_POINT ( 'NONE',  ( 0.0000000000000000000, 0.0000000000000000000, 0.02362200000000000064 ) ) ;
#72 = VERTEX_POINT ( 'NONE', #377 ) ;
#73 = CARTESIAN_POINT ( 'NONE',  ( 0.0000000000000000000, 0.0000000000000000000, 1.968503999999999809 ) ) ;
#74 = ORIENTED_EDGE ( 'NONE', *, *, #230, .T. ) ;
#75 = EDGE_CURVE ( 'NONE', #14, #165, #138, .T. ) ;
#76 = CARTESIAN_POINT ( 'NONE',  ( 0.01141750000000002485, 0.0000000000000000000, 0.1968500000000000250 ) ) ;
#77 = AXIS2_PLACEMENT_3D ( 'NONE', #122, #62, #149 ) ;
#78 = ORIENTED_EDGE ( 'NONE', *, *, #191, .F. ) ;
#79 = CARTESIAN_POINT ( 'NONE',  ( 0.0000000000000000000, 0.0000000000000000000, 0.0000000000000000000 ) ) ;
#80 = ORIENTED_EDGE ( 'NONE', *, *, #285, .F. ) ;
#81 = ADVANCED_FACE ( 'NONE', ( #344 ), #59, .T. ) ;
#82 = CARTESIAN_POINT ( 'NONE',  ( 0.0000000000000000000, 0.0000000000000000000, 0.0000000000000000000 ) ) ;
#83 = LINE ( 'NONE', #346, #206 ) ;
#84 =( NAMED_UNIT ( * ) SI_UNIT ( $, .STERADIAN. ) SOLID_ANGLE_UNIT ( ) );
#85 = EDGE_LOOP ( 'NONE', ( #167, #157, #16, #229 ) ) ;
#86 = DIRECTION ( 'NONE',  ( 1.000000000000000000, 0.0000000000000000000, -0.0000000000000000000 ) ) ;
#87 = DIRECTION ( 'NONE',  ( 0.0000000000000000000, 0.0000000000000000000, -1.000000000000000000 ) ) ;
#88 = MECHANICAL_DESIGN_GEOMETRIC_PRESENTATION_REPRESENTATION (  '', ( #39 ), #64 ) ;
#89 = PRODUCT_DEFINITION_FORMATION_WITH_SPECIFIED_SOURCE ( 'ANY', '', #277, .NOT_KNOWN. ) ;
#90 = CARTESIAN_POINT ( 'NONE',  ( 0.0000000000000000000, 0.0000000000000000000, 1.953504000000000129 ) ) ;
#91 = CARTESIAN_POINT ( 'NONE',  ( 0.0000000000000000000, 0.0000000000000000000, 1.968503999999999809 ) ) ;
#92 = EDGE_CURVE ( 'NONE', #214, #228, #70, .T. ) ;
#93 = PLANE ( 'NONE',  #77 ) ;
#94 = CIRCLE ( 'NONE', #237, 0.07874000000000001831 ) ;
#95 = STYLED_ITEM ( 'NONE', ( #249 ), #176 ) ;
#96 = CARTESIAN_POINT ( 'NONE',  ( 0.0000000000000000000, 0.0000000000000000000, 0.1968500000000000250 ) ) ;
#97 = CARTESIAN_POINT ( 'NONE',  ( 0.01141750000000001444, 1.398240482926492251E-18, 0.0000000000000000000 ) ) ;
#98 = ORIENTED_EDGE ( 'NONE', *, *, #152, .T. ) ;
#99 = DIRECTION ( 'NONE',  ( -1.000000000000000000, 0.0000000000000000000, 0.0000000000000000000 ) ) ;
#100 = ORIENTED_EDGE ( 'NONE', *, *, #161, .F. ) ;
#101 = AXIS2_PLACEMENT_3D ( 'NONE', #321, #288, #65 ) ;
#102 = DIRECTION ( 'NONE',  ( -1.000000000000000000, 0.0000000000000000000, 0.0000000000000000000 ) ) ;
#103 = EDGE_LOOP ( 'NONE', ( #362, #41, #333, #128 ) ) ;
#104 = SURFACE_SIDE_STYLE ('',( #162 ) ) ;
#105 = EDGE_CURVE ( 'NONE', #313, #368, #352, .T. ) ;
#106 = CIRCLE ( 'NONE', #6, 0.06374000000000018540 ) ;
#107 =( LENGTH_UNIT ( ) NAMED_UNIT ( * ) SI_UNIT ( $, .METRE. ) );
#108 = MECHANICAL_DESIGN_GEOMETRIC_PRESENTATION_REPRESENTATION (  '', ( #95 ), #155 ) ;
#109 = ORIENTED_EDGE ( 'NONE', *, *, #172, .F. ) ;
#110 = EDGE_CURVE ( 'NONE', #194, #72, #188, .T. ) ;
#111 = DIRECTION ( 'NONE',  ( -1.000000000000000000, 0.0000000000000000000, 0.0000000000000000000 ) ) ;
#112 = ORIENTED_EDGE ( 'NONE', *, *, #158, .T. ) ;
#113 = VECTOR ( 'NONE', #312, 39.37007874015748143 ) ;
#114 = CARTESIAN_POINT ( 'NONE',  ( 0.0000000000000000000, 0.0000000000000000000, 0.02362200000000000064 ) ) ;
#115 = FILL_AREA_STYLE ('',( #135 ) ) ;
#116 = DIRECTION ( 'NONE',  ( -0.0000000000000000000, -0.0000000000000000000, -1.000000000000000000 ) ) ;
#117 = DIRECTION ( 'NONE',  ( -1.000000000000000000, 0.0000000000000000000, 0.0000000000000000000 ) ) ;
#118 = AXIS2_PLACEMENT_3D ( 'NONE', #351, #200, #311 ) ;
#119 = DIRECTION ( 'NONE',  ( 0.0000000000000000000, 0.0000000000000000000, -1.000000000000000000 ) ) ;
#120 = VECTOR ( 'NONE', #151, 39.37007874015748143 ) ;
#121 = ADVANCED_FACE ( 'NONE', ( #177 ), #93, .T. ) ;
#122 = CARTESIAN_POINT ( 'NONE',  ( 0.0000000000000000000, 0.0000000000000000000, 1.968503999999999809 ) ) ;
#123 = CYLINDRICAL_SURFACE ( 'NONE', #291, 0.01180981890000000305 ) ;
#124 = CARTESIAN_POINT ( 'NONE',  ( -0.07874000000000001831, 0.0000000000000000000, 1.953504000000000129 ) ) ;
#125 = AXIS2_PLACEMENT_3D ( 'NONE', #366, #328, #213 ) ;
#126 =( NAMED_UNIT ( * ) PLANE_ANGLE_UNIT ( ) SI_UNIT ( $, .RADIAN. ) );
#127 = ADVANCED_FACE ( 'NONE', ( #234 ), #169, .T. ) ;
#128 = ORIENTED_EDGE ( 'NONE', *, *, #105, .F. ) ;
#129 = CARTESIAN_POINT ( 'NONE',  ( 0.01180981890000000305, 1.446285691439491932E-18, 0.0000000000000000000 ) ) ;
#130 = ORIENTED_EDGE ( 'NONE', *, *, #285, .T. ) ;
#131 =( GEOMETRIC_REPRESENTATION_CONTEXT ( 3 ) GLOBAL_UNCERTAINTY_ASSIGNED_CONTEXT ( ( #181 ) ) GLOBAL_UNIT_ASSIGNED_CONTEXT ( ( #308, #50, #55 ) ) REPRESENTATION_CONTEXT ( 'NONE', 'WORKASPACE' ) );
#132 = DIRECTION ( 'NONE',  ( -0.0000000000000000000, -0.0000000000000000000, -1.000000000000000000 ) ) ;
#133 = ORIENTED_EDGE ( 'NONE', *, *, #137, .F. ) ;
#134 = ORIENTED_EDGE ( 'NONE', *, *, #161, .T. ) ;
#135 = FILL_AREA_STYLE_COLOUR ( '', #323 ) ;
#136 = DIRECTION ( 'NONE',  ( -0.0000000000000000000, -0.0000000000000000000, -1.000000000000000000 ) ) ;
#137 = EDGE_CURVE ( 'NONE', #165, #14, #263, .T. ) ;
#138 = CIRCLE ( 'NONE', #150, 0.01141750000000002485 ) ;
#139 = PLANE ( 'NONE',  #187 ) ;
#140 = CARTESIAN_POINT ( 'NONE',  ( -0.01180981890000000305, 0.0000000000000000000, 0.0000000000000000000 ) ) ;
#141 = EDGE_LOOP ( 'NONE', ( #316, #281, #44, #271 ) ) ;
#142 = PRODUCT_CONTEXT ( 'NONE', #297, 'mechanical' ) ;
#143 = DIRECTION ( 'NONE',  ( -0.0000000000000000000, -0.0000000000000000000, -1.000000000000000000 ) ) ;
#144 = AXIS2_PLACEMENT_3D ( 'NONE', #114, #145, #111 ) ;
#145 = DIRECTION ( 'NONE',  ( -0.0000000000000000000, -0.0000000000000000000, -1.000000000000000000 ) ) ;
#146 = CARTESIAN_POINT ( 'NONE',  ( 0.07874000000000001831, 9.642868896486260050E-18, 0.1968500000000001082 ) ) ;
#147 = EDGE_CURVE ( 'NONE', #309, #329, #106, .T. ) ;
#148 = DIRECTION ( 'NONE',  ( 0.7071067811865507924, 8.659560562354973534E-17, -0.7071067811865443531 ) ) ;
#149 = DIRECTION ( 'NONE',  ( 1.000000000000000000, 0.0000000000000000000, -0.0000000000000000000 ) ) ;
#150 = AXIS2_PLACEMENT_3D ( 'NONE', #317, #116, #250 ) ;
#151 = DIRECTION ( 'NONE',  ( -0.1736481776669306920, 0.0000000000000000000, -0.9848077530122080203 ) ) ;
#152 = EDGE_CURVE ( 'NONE', #329, #309, #12, .T. ) ;
#153 = CARTESIAN_POINT ( 'NONE',  ( 0.0000000000000000000, 0.0000000000000000000, 0.0000000000000000000 ) ) ;
#154 = CONICAL_SURFACE ( 'NONE', #1, 0.06374000000000018540, 0.7853981633974528309 ) ;
#155 =( GEOMETRIC_REPRESENTATION_CONTEXT ( 3 ) GLOBAL_UNCERTAINTY_ASSIGNED_CONTEXT ( ( #334 ) ) GLOBAL_UNIT_ASSIGNED_CONTEXT ( ( #348, #166, #84 ) ) REPRESENTATION_CONTEXT ( 'NONE', 'WORKASPACE' ) );
#156 = DIRECTION ( 'NONE',  ( -0.0000000000000000000, -0.0000000000000000000, -1.000000000000000000 ) ) ;
#157 = ORIENTED_EDGE ( 'NONE', *, *, #354, .T. ) ;
#158 = EDGE_CURVE ( 'NONE', #329, #72, #209, .T. ) ;
#159 = FACE_OUTER_BOUND ( 'NONE', #219, .T. ) ;
#160 = ORIENTED_EDGE ( 'NONE', *, *, #152, .F. ) ;
#161 = EDGE_CURVE ( 'NONE', #254, #195, #307, .T. ) ;
#162 = SURFACE_STYLE_FILL_AREA ( #303 ) ;
#163 = ORIENTED_EDGE ( 'NONE', *, *, #57, .F. ) ;
#164 = ORIENTED_EDGE ( 'NONE', *, *, #182, .F. ) ;
#165 = VERTEX_POINT ( 'NONE', #325 ) ;
#166 =( NAMED_UNIT ( * ) PLANE_ANGLE_UNIT ( ) SI_UNIT ( $, .RADIAN. ) );
#167 = ORIENTED_EDGE ( 'NONE', *, *, #57, .T. ) ;
#168 = VECTOR ( 'NONE', #148, 39.37007874015748143 ) ;
#169 = CONICAL_SURFACE ( 'NONE', #269, 0.06374000000000018540, 0.7853981633974528309 ) ;
#170 = ORIENTED_EDGE ( 'NONE', *, *, #75, .F. ) ;
#171 = DIRECTION ( 'NONE',  ( 0.0000000000000000000, 0.0000000000000000000, 1.000000000000000000 ) ) ;
#172 = EDGE_CURVE ( 'NONE', #228, #214, #360, .T. ) ;
#173 = SURFACE_SIDE_STYLE ('',( #371 ) ) ;
#174 = DIRECTION ( 'NONE',  ( -0.0000000000000000000, -0.0000000000000000000, -1.000000000000000000 ) ) ;
#175 = DIRECTION ( 'NONE',  ( -1.000000000000000000, 0.0000000000000000000, 0.0000000000000000000 ) ) ;
#176 = ADVANCED_BREP_SHAPE_REPRESENTATION ( 'Micro_MMBM-006-5X', ( #335, #2 ), #131 ) ;
#177 = FACE_OUTER_BOUND ( 'NONE', #69, .T. ) ;
#178 = EDGE_CURVE ( 'NONE', #313, #204, #256, .T. ) ;
#179 = DIRECTION ( 'NONE',  ( -1.000000000000000000, 0.0000000000000000000, 0.0000000000000000000 ) ) ;
#180 = CARTESIAN_POINT ( 'NONE',  ( 0.0000000000000000000, 0.0000000000000000000, 0.0000000000000000000 ) ) ;
#181 = UNCERTAINTY_MEASURE_WITH_UNIT (LENGTH_MEASURE( 1.000000000000000082E-05 ), #308, 'distance_accuracy_value', 'NONE');
#182 = EDGE_CURVE ( 'NONE', #72, #194, #94, .T. ) ;
#183 = CARTESIAN_POINT ( 'NONE',  ( 0.0000000000000000000, 0.0000000000000000000, 1.968503999999999809 ) ) ;
#184 = DIRECTION ( 'NONE',  ( -0.0000000000000000000, -0.0000000000000000000, -1.000000000000000000 ) ) ;
#185 =( LENGTH_UNIT ( ) NAMED_UNIT ( * ) SI_UNIT ( $, .METRE. ) );
#186 = ORIENTED_EDGE ( 'NONE', *, *, #35, .F. ) ;
#187 = AXIS2_PLACEMENT_3D ( 'NONE', #49, #171, #86 ) ;
#188 = CIRCLE ( 'NONE', #330, 0.07874000000000001831 ) ;
#189 = FILL_AREA_STYLE_COLOUR ( '', #211 ) ;
#190 = ORIENTED_EDGE ( 'NONE', *, *, #147, .T. ) ;
#191 = EDGE_CURVE ( 'NONE', #309, #194, #289, .T. ) ;
#192 = PRODUCT_DEFINITION_CONTEXT ( 'detailed design', #305, 'design' ) ;
#193 = CARTESIAN_POINT ( 'NONE',  ( 0.06374000000000018540, 8.724383797125754882E-18, 1.968503999999999809 ) ) ;
#194 = VERTEX_POINT ( 'NONE', #124 ) ;
#195 = VERTEX_POINT ( 'NONE', #264 ) ;
#196 = AXIS2_PLACEMENT_3D ( 'NONE', #82, #370, #117 ) ;
#197 = ORIENTED_EDGE ( 'NONE', *, *, #105, .T. ) ;
#198 = EDGE_CURVE ( 'NONE', #276, #368, #314, .T. ) ;
#199 = CARTESIAN_POINT ( 'NONE',  ( 0.01141750000000002485, 1.398240482926493406E-18, 0.1968500000000000250 ) ) ;
#200 = DIRECTION ( 'NONE',  ( -0.0000000000000000000, -0.0000000000000000000, -1.000000000000000000 ) ) ;
#201 = VECTOR ( 'NONE', #40, 39.37007874015748143 ) ;
#202 = FACE_OUTER_BOUND ( 'NONE', #304, .T. ) ;
#203 = PRODUCT_RELATED_PRODUCT_CATEGORY ( 'part', '', ( #277 ) ) ;
#204 = VERTEX_POINT ( 'NONE', #63 ) ;
#205 = DIRECTION ( 'NONE',  ( -1.000000000000000000, 0.0000000000000000000, 0.0000000000000000000 ) ) ;
#206 = VECTOR ( 'NONE', #315, 39.37007874015748143 ) ;
#207 = DIRECTION ( 'NONE',  ( 0.0000000000000000000, 0.0000000000000000000, -1.000000000000000000 ) ) ;
#208 = DIRECTION ( 'NONE',  ( -0.0000000000000000000, -0.0000000000000000000, -1.000000000000000000 ) ) ;
#209 = LINE ( 'NONE', #210, #168 ) ;
#210 = CARTESIAN_POINT ( 'NONE',  ( 0.06374000000000018540, 7.805898697765251255E-18, 1.968503999999999809 ) ) ;
#211 = COLOUR_RGB ( '',0.7921568627450980005, 0.8196078431372548767, 0.9333333333333333481 ) ;
#212 = DIRECTION ( 'NONE',  ( 0.0000000000000000000, 0.0000000000000000000, 1.000000000000000000 ) ) ;
#213 = DIRECTION ( 'NONE',  ( -1.000000000000000000, 0.0000000000000000000, 0.0000000000000000000 ) ) ;
#214 = VERTEX_POINT ( 'NONE', #146 ) ;
#215 = LINE ( 'NONE', #272, #221 ) ;
#216 = FACE_OUTER_BOUND ( 'NONE', #278, .T. ) ;
#217 = EDGE_LOOP ( 'NONE', ( #11, #130, #163, #186 ) ) ;
#218 = SURFACE_STYLE_USAGE ( .BOTH. , #104 ) ;
#219 = EDGE_LOOP ( 'NONE', ( #248, #52, #222, #164 ) ) ;
#220 = CARTESIAN_POINT ( 'NONE',  ( -0.06374000000000018540, 0.0000000000000000000, 1.968503999999999809 ) ) ;
#221 = VECTOR ( 'NONE', #156, 39.37007874015748143 ) ;
#222 = ORIENTED_EDGE ( 'NONE', *, *, #191, .T. ) ;
#223 = LENGTH_MEASURE_WITH_UNIT ( LENGTH_MEASURE( 0.02539999999999999897 ), #48 );
#224 = CYLINDRICAL_SURFACE ( 'NONE', #227, 0.07874000000000001831 ) ;
#225 = EDGE_CURVE ( 'NONE', #368, #276, #318, .T. ) ;
#226 = ORIENTED_EDGE ( 'NONE', *, *, #75, .T. ) ;
#227 = AXIS2_PLACEMENT_3D ( 'NONE', #259, #136, #205 ) ;
#228 = VERTEX_POINT ( 'NONE', #260 ) ;
#229 = ORIENTED_EDGE ( 'NONE', *, *, #230, .F. ) ;
#230 = EDGE_CURVE ( 'NONE', #195, #313, #378, .T. ) ;
#231 = CARTESIAN_POINT ( 'NONE',  ( 0.0000000000000000000, 0.0000000000000000000, 0.1968500000000001082 ) ) ;
#232 = AXIS2_PLACEMENT_3D ( 'NONE', #180, #235, #292 ) ;
#233 = DIRECTION ( 'NONE',  ( 1.000000000000000000, 0.0000000000000000000, 0.0000000000000000000 ) ) ;
#234 = FACE_OUTER_BOUND ( 'NONE', #302, .T. ) ;
#235 = DIRECTION ( 'NONE',  ( -0.0000000000000000000, -0.0000000000000000000, -1.000000000000000000 ) ) ;
#236 = CARTESIAN_POINT ( 'NONE',  ( 0.0000000000000000000, 0.0000000000000000000, 1.968503999999999809 ) ) ;
#237 = AXIS2_PLACEMENT_3D ( 'NONE', #356, #119, #233 ) ;
#238 = LINE ( 'NONE', #350, #113 ) ;
#239 = ORIENTED_EDGE ( 'NONE', *, *, #299, .T. ) ;
#240 = ADVANCED_FACE ( 'NONE', ( #266 ), #123, .T. ) ;
#241 = FACE_BOUND ( 'NONE', #244, .T. ) ;
#242 = ORIENTED_EDGE ( 'NONE', *, *, #31, .F. ) ;
#243 = CYLINDRICAL_SURFACE ( 'NONE', #245, 0.01141750000000001444 ) ;
#244 = EDGE_LOOP ( 'NONE', ( #133, #170 ) ) ;
#245 = AXIS2_PLACEMENT_3D ( 'NONE', #270, #296, #68 ) ;
#246 = DIRECTION ( 'NONE',  ( -0.0000000000000000000, 0.0000000000000000000, -1.000000000000000000 ) ) ;
#247 = ORIENTED_EDGE ( 'NONE', *, *, #60, .F. ) ;
#248 = ORIENTED_EDGE ( 'NONE', *, *, #158, .F. ) ;
#249 = PRESENTATION_STYLE_ASSIGNMENT (( #252 ) ) ;
#250 = DIRECTION ( 'NONE',  ( -1.000000000000000000, 0.0000000000000000000, 0.0000000000000000000 ) ) ;
#251 = PRESENTATION_LAYER_ASSIGNMENT (  '', '', ( #39 ) ) ;
#252 = SURFACE_STYLE_USAGE ( .BOTH. , #173 ) ;
#253 = CARTESIAN_POINT ( 'NONE',  ( -0.07874000000000001831, 0.0000000000000000000, 1.968503999999999809 ) ) ;
#254 = VERTEX_POINT ( 'NONE', #331 ) ;
#255 = CARTESIAN_POINT ( 'NONE',  ( 0.0000000000000000000, 0.0000000000000000000, 0.02584695104506240168 ) ) ;
#256 = CIRCLE ( 'NONE', #353, 0.01180981890000000305 ) ;
#257 = PRESENTATION_LAYER_ASSIGNMENT (  '', '', ( #95 ) ) ;
#258 = APPLICATION_PROTOCOL_DEFINITION ( 'draft international standard', 'automotive_design', 1998, #297 ) ;
#259 = CARTESIAN_POINT ( 'NONE',  ( 0.0000000000000000000, 0.0000000000000000000, 1.968503999999999809 ) ) ;
#260 = CARTESIAN_POINT ( 'NONE',  ( -0.07874000000000001831, 0.0000000000000000000, 0.1968500000000001082 ) ) ;
#261 = ADVANCED_FACE ( 'NONE', ( #159 ), #154, .T. ) ;
#262 = DIRECTION ( 'NONE',  ( -0.0000000000000000000, -0.0000000000000000000, -1.000000000000000000 ) ) ;
#263 = CIRCLE ( 'NONE', #332, 0.01141750000000002485 ) ;
#264 = CARTESIAN_POINT ( 'NONE',  ( -0.01141750000000000577, 0.0000000000000000000, 0.02584695104506240168 ) ) ;
#265 = PRODUCT_DEFINITION ( 'UNKNOWN', '', #89, #192 ) ;
#266 = FACE_OUTER_BOUND ( 'NONE', #103, .T. ) ;
#267 = DIRECTION ( 'NONE',  ( 0.0000000000000000000, 0.0000000000000000000, 1.000000000000000000 ) ) ;
#268 = DIRECTION ( 'NONE',  ( -1.000000000000000000, 0.0000000000000000000, 0.0000000000000000000 ) ) ;
#269 = AXIS2_PLACEMENT_3D ( 'NONE', #236, #207, #179 ) ;
#270 = CARTESIAN_POINT ( 'NONE',  ( 0.0000000000000000000, 0.0000000000000000000, 0.0000000000000000000 ) ) ;
#271 = ORIENTED_EDGE ( 'NONE', *, *, #92, .F. ) ;
#272 = CARTESIAN_POINT ( 'NONE',  ( 0.07874000000000001831, 9.642868896486260050E-18, 1.968503999999999809 ) ) ;
#273 = ORIENTED_EDGE ( 'NONE', *, *, #92, .T. ) ;
#274 = FACE_OUTER_BOUND ( 'NONE', #217, .T. ) ;
#275 = ORIENTED_EDGE ( 'NONE', *, *, #60, .T. ) ;
#276 = VERTEX_POINT ( 'NONE', #129 ) ;
#277 = PRODUCT ( 'Micro_MMBM-006-5X', 'Micro_MMBM-006-5X', '', ( #142 ) ) ;
#278 = EDGE_LOOP ( 'NONE', ( #337, #239, #109, #242 ) ) ;
#279 = CYLINDRICAL_SURFACE ( 'NONE', #118, 0.01180981890000000305 ) ;
#280 = VECTOR ( 'NONE', #36, 39.37007874015748143 ) ;
#281 = ORIENTED_EDGE ( 'NONE', *, *, #182, .T. ) ;
#282 = DIRECTION ( 'NONE',  ( 0.0000000000000000000, 0.0000000000000000000, 1.000000000000000000 ) ) ;
#283 = CARTESIAN_POINT ( 'NONE',  ( 0.0000000000000000000, 0.0000000000000000000, 0.02362200000000000064 ) ) ;
#284 = LENGTH_MEASURE_WITH_UNIT ( LENGTH_MEASURE( 0.02539999999999999897 ), #107 );
#285 = EDGE_CURVE ( 'NONE', #14, #254, #301, .T. ) ;
#286 = EDGE_LOOP ( 'NONE', ( #17, #134, #74, #247 ) ) ;
#287 = LINE ( 'NONE', #253, #345 ) ;
#288 = DIRECTION ( 'NONE',  ( -0.0000000000000000000, -0.0000000000000000000, -1.000000000000000000 ) ) ;
#289 = LINE ( 'NONE', #293, #280 ) ;
#290 = ADVANCED_FACE ( 'NONE', ( #216 ), #43, .T. ) ;
#291 = AXIS2_PLACEMENT_3D ( 'NONE', #358, #13, #99 ) ;
#292 = DIRECTION ( 'NONE',  ( -1.000000000000000000, 0.0000000000000000000, 0.0000000000000000000 ) ) ;
#293 = CARTESIAN_POINT ( 'NONE',  ( -0.06374000000000018540, 0.0000000000000000000, 1.968503999999999809 ) ) ;
#294 = ADVANCED_FACE ( 'NONE', ( #241, #363 ), #45, .T. ) ;
#295 = DIRECTION ( 'NONE',  ( -0.0000000000000000000, -0.0000000000000000000, -1.000000000000000000 ) ) ;
#296 = DIRECTION ( 'NONE',  ( -0.0000000000000000000, -0.0000000000000000000, -1.000000000000000000 ) ) ;
#297 = APPLICATION_CONTEXT ( 'automotive_design' ) ;
#298 = VECTOR ( 'NONE', #30, 39.37007874015748143 ) ;
#299 = EDGE_CURVE ( 'NONE', #72, #214, #215, .T. ) ;
#300 = ORIENTED_EDGE ( 'NONE', *, *, #310, .F. ) ;
#301 = LINE ( 'NONE', #97, #201 ) ;
#302 = EDGE_LOOP ( 'NONE', ( #160, #112, #306, #78 ) ) ;
#303 = FILL_AREA_STYLE ('',( #189 ) ) ;
#304 = EDGE_LOOP ( 'NONE', ( #56, #9 ) ) ;
#305 = APPLICATION_CONTEXT ( 'automotive_design' ) ;
#306 = ORIENTED_EDGE ( 'NONE', *, *, #110, .F. ) ;
#307 = CIRCLE ( 'NONE', #101, 0.01141750000000000577 ) ;
#308 =( CONVERSION_BASED_UNIT ( 'INCH', #284 ) LENGTH_UNIT ( ) NAMED_UNIT ( #326 ) );
#309 = VERTEX_POINT ( 'NONE', #220 ) ;
#310 = EDGE_CURVE ( 'NONE', #204, #276, #336, .T. ) ;
#311 = DIRECTION ( 'NONE',  ( -1.000000000000000000, 0.0000000000000000000, 0.0000000000000000000 ) ) ;
#312 = DIRECTION ( 'NONE',  ( 0.1736481776669306920, 2.126576849575775613E-17, -0.9848077530122080203 ) ) ;
#313 = VERTEX_POINT ( 'NONE', #367 ) ;
#314 = CIRCLE ( 'NONE', #365, 0.01180981890000000305 ) ;
#315 = DIRECTION ( 'NONE',  ( -0.0000000000000000000, -0.0000000000000000000, -1.000000000000000000 ) ) ;
#316 = ORIENTED_EDGE ( 'NONE', *, *, #299, .F. ) ;
#317 = CARTESIAN_POINT ( 'NONE',  ( 0.0000000000000000000, 0.0000000000000000000, 0.1968500000000000250 ) ) ;
#318 = CIRCLE ( 'NONE', #232, 0.01180981890000000305 ) ;
#319 = DIRECTION ( 'NONE',  ( -1.000000000000000000, 0.0000000000000000000, 0.0000000000000000000 ) ) ;
#320 = DIRECTION ( 'NONE',  ( -1.000000000000000000, 0.0000000000000000000, 0.0000000000000000000 ) ) ;
#321 = CARTESIAN_POINT ( 'NONE',  ( 0.0000000000000000000, 0.0000000000000000000, 0.02584695104506240168 ) ) ;
#322 = AXIS2_PLACEMENT_3D ( 'NONE', #91, #267, #61 ) ;
#323 = COLOUR_RGB ( '',0.7921568627450980005, 0.8196078431372548767, 0.9333333333333333481 ) ;
#324 = DIRECTION ( 'NONE',  ( 1.000000000000000000, 0.0000000000000000000, 0.0000000000000000000 ) ) ;
#325 = CARTESIAN_POINT ( 'NONE',  ( -0.01141750000000002485, 0.0000000000000000000, 0.1968500000000000250 ) ) ;
#326 = DIMENSIONAL_EXPONENTS ( 1.000000000000000000, 0.0000000000000000000, 0.0000000000000000000, 0.0000000000000000000, 0.0000000000000000000, 0.0000000000000000000, 0.0000000000000000000 ) ;
#327 = ADVANCED_FACE ( 'NONE', ( #274 ), #243, .T. ) ;
#328 = DIRECTION ( 'NONE',  ( -0.0000000000000000000, -0.0000000000000000000, -1.000000000000000000 ) ) ;
#329 = VERTEX_POINT ( 'NONE', #193 ) ;
#330 = AXIS2_PLACEMENT_3D ( 'NONE', #90, #87, #324 ) ;
#331 = CARTESIAN_POINT ( 'NONE',  ( 0.01141750000000000577, 1.422263087182991610E-18, 0.02584695104506240168 ) ) ;
#332 = AXIS2_PLACEMENT_3D ( 'NONE', #96, #5, #319 ) ;
#333 = ORIENTED_EDGE ( 'NONE', *, *, #225, .F. ) ;
#334 = UNCERTAINTY_MEASURE_WITH_UNIT (LENGTH_MEASURE( 1.000000000000000082E-05 ), #348, 'distance_accuracy_value', 'NONE');
#335 = MANIFOLD_SOLID_BREP ( 'Cut-Revolve1', #357 ) ;
#336 = LINE ( 'NONE', #10, #347 ) ;
#337 = ORIENTED_EDGE ( 'NONE', *, *, #110, .T. ) ;
#338 = ADVANCED_FACE ( 'NONE', ( #340 ), #375, .T. ) ;
#339 = PRESENTATION_STYLE_ASSIGNMENT (( #218 ) ) ;
#340 = FACE_OUTER_BOUND ( 'NONE', #85, .T. ) ;
#341 = CIRCLE ( 'NONE', #144, 0.01180981890000000305 ) ;
#342 = SHAPE_DEFINITION_REPRESENTATION ( #18, #176 ) ;
#343 = ORIENTED_EDGE ( 'NONE', *, *, #198, .F. ) ;
#344 = FACE_OUTER_BOUND ( 'NONE', #349, .T. ) ;
#345 = VECTOR ( 'NONE', #174, 39.37007874015748143 ) ;
#346 = CARTESIAN_POINT ( 'NONE',  ( -0.01141750000000001444, 0.0000000000000000000, 0.0000000000000000000 ) ) ;
#347 = VECTOR ( 'NONE', #132, 39.37007874015748143 ) ;
#348 =( CONVERSION_BASED_UNIT ( 'INCH', #223 ) LENGTH_UNIT ( ) NAMED_UNIT ( #58 ) );
#349 = EDGE_LOOP ( 'NONE', ( #80, #226, #364, #100 ) ) ;
#350 = CARTESIAN_POINT ( 'NONE',  ( 0.01180981890000000305, 1.446285691439491932E-18, 0.02362200000000000064 ) ) ;
#351 = CARTESIAN_POINT ( 'NONE',  ( 0.0000000000000000000, 0.0000000000000000000, 0.0000000000000000000 ) ) ;
#352 = LINE ( 'NONE', #361, #298 ) ;
#353 = AXIS2_PLACEMENT_3D ( 'NONE', #379, #208, #320 ) ;
#354 = EDGE_CURVE ( 'NONE', #254, #204, #238, .T. ) ;
#355 = DIRECTION ( 'NONE',  ( 1.000000000000000000, 0.0000000000000000000, 0.0000000000000000000 ) ) ;
#356 = CARTESIAN_POINT ( 'NONE',  ( 0.0000000000000000000, 0.0000000000000000000, 1.953504000000000129 ) ) ;
#357 = CLOSED_SHELL ( 'NONE', ( #240, #327, #338, #127, #290, #67, #121, #261, #294, #53, #81, #24, #42 ) ) ;
#358 = CARTESIAN_POINT ( 'NONE',  ( 0.0000000000000000000, 0.0000000000000000000, 0.0000000000000000000 ) ) ;
#359 = UNCERTAINTY_MEASURE_WITH_UNIT (LENGTH_MEASURE( 1.000000000000000082E-05 ), #47, 'distance_accuracy_value', 'NONE');
#360 = CIRCLE ( 'NONE', #21, 0.07874000000000001831 ) ;
#361 = CARTESIAN_POINT ( 'NONE',  ( -0.01180981890000000305, 0.0000000000000000000, 0.0000000000000000000 ) ) ;
#362 = ORIENTED_EDGE ( 'NONE', *, *, #178, .T. ) ;
#363 = FACE_OUTER_BOUND ( 'NONE', #26, .T. ) ;
#364 = ORIENTED_EDGE ( 'NONE', *, *, #35, .T. ) ;
#365 = AXIS2_PLACEMENT_3D ( 'NONE', #153, #184, #4 ) ;
#366 = CARTESIAN_POINT ( 'NONE',  ( 0.0000000000000000000, 0.0000000000000000000, 1.968503999999999809 ) ) ;
#367 = CARTESIAN_POINT ( 'NONE',  ( -0.01180981890000000305, 0.0000000000000000000, 0.02362200000000000064 ) ) ;
#368 = VERTEX_POINT ( 'NONE', #140 ) ;
#369 = EDGE_LOOP ( 'NONE', ( #300, #275, #197, #343 ) ) ;
#370 = DIRECTION ( 'NONE',  ( -0.0000000000000000000, -0.0000000000000000000, -1.000000000000000000 ) ) ;
#371 = SURFACE_STYLE_FILL_AREA ( #115 ) ;
#372 = FACE_OUTER_BOUND ( 'NONE', #286, .T. ) ;
#373 = FACE_OUTER_BOUND ( 'NONE', #369, .T. ) ;
#374 = DIRECTION ( 'NONE',  ( -0.0000000000000000000, -0.0000000000000000000, -1.000000000000000000 ) ) ;
#375 = CONICAL_SURFACE ( 'NONE', #22, 0.01180981890000000305, 0.1745329251994333086 ) ;
#376 = APPLICATION_PROTOCOL_DEFINITION ( 'draft international standard', 'automotive_design', 1998, #305 ) ;
#377 = CARTESIAN_POINT ( 'NONE',  ( 0.07874000000000001831, 9.642868896486260050E-18, 1.953504000000000129 ) ) ;
#378 = LINE ( 'NONE', #34, #120 ) ;
#379 = CARTESIAN_POINT ( 'NONE',  ( 0.0000000000000000000, 0.0000000000000000000, 0.02362200000000000064 ) ) ;
ENDSEC;
END-ISO-10303-21;
