ISO-10303-21;
HEADER;
FILE_DESCRIPTION (( 'STEP AP214' ),
    '1' );
FILE_NAME ('Micro_BMR-040-2.STEP',
    '2021-09-03T14:09:44',
    ( '' ),
    ( '' ),
    'SwSTEP 2.0',
    'SolidWorks 2020',
    '' );
FILE_SCHEMA (( 'AUTOMOTIVE_DESIGN' ));
ENDSEC;

DATA;
#1 = DIRECTION ( 'NONE',  ( 0.0000000000000000000, 0.0000000000000000000, -1.000000000000000000 ) ) ;
#2 = UNCERTAINTY_MEASURE_WITH_UNIT (LENGTH_MEASURE( 1.000000000000000082E-05 ), #68, 'distance_accuracy_value', 'NONE');
#3 = VERTEX_POINT ( 'NONE', #104 ) ;
#4 = CARTESIAN_POINT ( 'NONE',  ( 0.01998000000000000470, 2.446844304696411883E-18, 0.01997999999999999776 ) ) ;
#5 =( NAMED_UNIT ( * ) PLANE_ANGLE_UNIT ( ) SI_UNIT ( $, .RADIAN. ) );
#6 = ADVANCED_BREP_SHAPE_REPRESENTATION ( 'Micro_BMR-040-2', ( #36, #37 ), #209 ) ;
#7 = DIRECTION ( 'NONE',  ( 0.0000000000000000000, 0.0000000000000000000, 1.000000000000000000 ) ) ;
#8 = VERTEX_POINT ( 'NONE', #4 ) ;
#9 =( CONVERSION_BASED_UNIT ( 'INCH', #234 ) LENGTH_UNIT ( ) NAMED_UNIT ( #262 ) );
#10 = SURFACE_SIDE_STYLE ('',( #136 ) ) ;
#11 = CARTESIAN_POINT ( 'NONE',  ( 2.446844304696412268E-18, 0.0000000000000000000, 0.01998000000000000123 ) ) ;
#12 = AXIS2_PLACEMENT_3D ( 'NONE', #154, #1, #171 ) ;
#13 = DIRECTION ( 'NONE',  ( 1.224646799147353207E-16, 1.000000000000000000, -0.0000000000000000000 ) ) ;
#14 = FACE_OUTER_BOUND ( 'NONE', #292, .T. ) ;
#15 = DIRECTION ( 'NONE',  ( 0.0000000000000000000, 1.000000000000000000, 0.0000000000000000000 ) ) ;
#16 = DIRECTION ( 'NONE',  ( 1.000000000000000000, 0.0000000000000000000, 0.0000000000000000000 ) ) ;
#17 = EDGE_CURVE ( 'NONE', #3, #28, #311, .T. ) ;
#18 = DIRECTION ( 'NONE',  ( 1.224646799147353454E-16, 0.0000000000000000000, 1.000000000000000000 ) ) ;
#19 = ORIENTED_EDGE ( 'NONE', *, *, #119, .F. ) ;
#20 = DIRECTION ( 'NONE',  ( 1.000000000000000000, 0.0000000000000000000, 0.0000000000000000000 ) ) ;
#21 = ORIENTED_EDGE ( 'NONE', *, *, #238, .F. ) ;
#22 = CARTESIAN_POINT ( 'NONE',  ( 1.469576158976824292E-17, 0.0000000000000000000, 0.1199999999999999956 ) ) ;
#23 = DIRECTION ( 'NONE',  ( 0.0000000000000000000, 0.0000000000000000000, 1.000000000000000000 ) ) ;
#24 = FACE_OUTER_BOUND ( 'NONE', #252, .T. ) ;
#25 = VECTOR ( 'NONE', #66, 39.37007874015748854 ) ;
#26 = ORIENTED_EDGE ( 'NONE', *, *, #17, .T. ) ;
#27 = EDGE_CURVE ( 'NONE', #297, #245, #155, .T. ) ;
#28 = VERTEX_POINT ( 'NONE', #228 ) ;
#29 = APPLICATION_PROTOCOL_DEFINITION ( 'draft international standard', 'automotive_design', 1998, #213 ) ;
#30 = CIRCLE ( 'NONE', #299, 0.06250000000000002776 ) ;
#31 = ORIENTED_EDGE ( 'NONE', *, *, #199, .T. ) ;
#32 = ORIENTED_EDGE ( 'NONE', *, *, #263, .T. ) ;
#33 = CARTESIAN_POINT ( 'NONE',  ( 3.670266457044618402E-18, 0.0000000000000000000, 0.0000000000000000000 ) ) ;
#34 = DIMENSIONAL_EXPONENTS ( 1.000000000000000000, 0.0000000000000000000, 0.0000000000000000000, 0.0000000000000000000, 0.0000000000000000000, 0.0000000000000000000, 0.0000000000000000000 ) ;
#35 = FACE_OUTER_BOUND ( 'NONE', #206, .T. ) ;
#36 = MANIFOLD_SOLID_BREP ( 'Fillet1', #111 ) ;
#37 = AXIS2_PLACEMENT_3D ( 'NONE', #226, #7, #232 ) ;
#38 = CYLINDRICAL_SURFACE ( 'NONE', #240, 0.01998000000000000123 ) ;
#39 = AXIS2_PLACEMENT_3D ( 'NONE', #11, #62, #16 ) ;
#40 = DIRECTION ( 'NONE',  ( -1.000000000000000000, 0.0000000000000000000, 2.136392637687893513E-16 ) ) ;
#41 = CIRCLE ( 'NONE', #76, 0.06250000000000002776 ) ;
#42 = DIRECTION ( 'NONE',  ( -1.224646799147353454E-16, -0.0000000000000000000, -1.000000000000000000 ) ) ;
#43 = ADVANCED_FACE ( 'NONE', ( #120 ), #91, .T. ) ;
#44 = AXIS2_PLACEMENT_3D ( 'NONE', #249, #23, #128 ) ;
#45 = PLANE ( 'NONE',  #44 ) ;
#46 = EDGE_LOOP ( 'NONE', ( #173, #130 ) ) ;
#47 = PRODUCT_RELATED_PRODUCT_CATEGORY ( 'part', '', ( #301 ) ) ;
#48 = FACE_OUTER_BOUND ( 'NONE', #277, .T. ) ;
#49 = LINE ( 'NONE', #102, #159 ) ;
#50 = ORIENTED_EDGE ( 'NONE', *, *, #199, .F. ) ;
#51 = CARTESIAN_POINT ( 'NONE',  ( 0.01998000000000000817, 0.0000000000000000000, 0.1199999999999999956 ) ) ;
#52 = ORIENTED_EDGE ( 'NONE', *, *, #157, .F. ) ;
#53 = CIRCLE ( 'NONE', #306, 0.01998000000000000123 ) ;
#54 = EDGE_CURVE ( 'NONE', #245, #297, #268, .T. ) ;
#55 = DIRECTION ( 'NONE',  ( 0.0000000000000000000, 0.0000000000000000000, 1.000000000000000000 ) ) ;
#56 = AXIS2_PLACEMENT_3D ( 'NONE', #244, #275, #271 ) ;
#57 = FILL_AREA_STYLE_COLOUR ( '', #305 ) ;
#58 = PRESENTATION_STYLE_ASSIGNMENT (( #231 ) ) ;
#59 = ORIENTED_EDGE ( 'NONE', *, *, #82, .T. ) ;
#60 = EDGE_LOOP ( 'NONE', ( #204, #81, #281, #224 ) ) ;
#61 = CIRCLE ( 'NONE', #148, 0.06250000000000002776 ) ;
#62 = DIRECTION ( 'NONE',  ( 0.0000000000000000000, 1.000000000000000000, 0.0000000000000000000 ) ) ;
#63 = EDGE_CURVE ( 'NONE', #177, #28, #205, .T. ) ;
#64 = CARTESIAN_POINT ( 'NONE',  ( 2.446844304696412268E-18, 0.0000000000000000000, 0.01998000000000000123 ) ) ;
#65 = DIRECTION ( 'NONE',  ( 1.000000000000000000, 0.0000000000000000000, 0.0000000000000000000 ) ) ;
#66 = DIRECTION ( 'NONE',  ( -0.7071067811865462405, 0.0000000000000000000, -0.7071067811865486830 ) ) ;
#67 = AXIS2_PLACEMENT_3D ( 'NONE', #166, #115, #65 ) ;
#68 =( CONVERSION_BASED_UNIT ( 'INCH', #194 ) LENGTH_UNIT ( ) NAMED_UNIT ( #117 ) );
#69 = ORIENTED_EDGE ( 'NONE', *, *, #119, .T. ) ;
#70 = ADVANCED_FACE ( 'NONE', ( #35 ), #90, .T. ) ;
#71 = CARTESIAN_POINT ( 'NONE',  ( 0.06250000000000002776, 7.654042494670959086E-18, 1.500000000000000222 ) ) ;
#72 = ORIENTED_EDGE ( 'NONE', *, *, #219, .T. ) ;
#73 = FACE_OUTER_BOUND ( 'NONE', #186, .T. ) ;
#74 = ORIENTED_EDGE ( 'NONE', *, *, #134, .T. ) ;
#75 = DIRECTION ( 'NONE',  ( -1.000000000000000000, 0.0000000000000000000, 0.0000000000000000000 ) ) ;
#76 = AXIS2_PLACEMENT_3D ( 'NONE', #113, #287, #315 ) ;
#77 = SHAPE_DEFINITION_REPRESENTATION ( #101, #6 ) ;
#78 = EDGE_CURVE ( 'NONE', #308, #8, #140, .T. ) ;
#79 = ORIENTED_EDGE ( 'NONE', *, *, #87, .F. ) ;
#80 = ORIENTED_EDGE ( 'NONE', *, *, #63, .F. ) ;
#81 = ORIENTED_EDGE ( 'NONE', *, *, #78, .T. ) ;
#82 = EDGE_CURVE ( 'NONE', #245, #156, #285, .T. ) ;
#83 = VERTEX_POINT ( 'NONE', #211 ) ;
#84 = ORIENTED_EDGE ( 'NONE', *, *, #304, .F. ) ;
#85 = ORIENTED_EDGE ( 'NONE', *, *, #17, .F. ) ;
#86 = FACE_OUTER_BOUND ( 'NONE', #110, .T. ) ;
#87 = EDGE_CURVE ( 'NONE', #8, #216, #53, .T. ) ;
#88 = AXIS2_PLACEMENT_3D ( 'NONE', #200, #147, #201 ) ;
#89 = LINE ( 'NONE', #313, #324 ) ;
#90 = CYLINDRICAL_SURFACE ( 'NONE', #250, 0.06250000000000002776 ) ;
#91 = SPHERICAL_SURFACE ( 'NONE', #164, 0.01998000000000000123 ) ;
#92 = CARTESIAN_POINT ( 'NONE',  ( -0.06250000000000002776, 0.0000000000000000000, 1.500000000000000222 ) ) ;
#93 = PRESENTATION_LAYER_ASSIGNMENT (  '', '', ( #193 ) ) ;
#94 =( NAMED_UNIT ( * ) SI_UNIT ( $, .STERADIAN. ) SOLID_ANGLE_UNIT ( ) );
#95 = ADVANCED_FACE ( 'NONE', ( #239 ), #210, .T. ) ;
#96 = ORIENTED_EDGE ( 'NONE', *, *, #142, .T. ) ;
#97 = DIRECTION ( 'NONE',  ( 0.1736481776669313581, 0.0000000000000000000, 0.9848077530122077983 ) ) ;
#98 = AXIS2_PLACEMENT_3D ( 'NONE', #22, #273, #75 ) ;
#99 = CONICAL_SURFACE ( 'NONE', #269, 0.01997999999999999776, 0.1745329251994338637 ) ;
#100 = FACE_OUTER_BOUND ( 'NONE', #150, .T. ) ;
#101 = PRODUCT_DEFINITION_SHAPE ( 'NONE', 'NONE',  #105 ) ;
#102 = CARTESIAN_POINT ( 'NONE',  ( -0.01998000000000000123, 0.0000000000000000000, 2.446844304696412268E-18 ) ) ;
#103 = VERTEX_POINT ( 'NONE', #33 ) ;
#104 = CARTESIAN_POINT ( 'NONE',  ( -0.01997999999999998388, 5.050443399683686447E-18, 0.1199999999999999956 ) ) ;
#105 = PRODUCT_DEFINITION ( 'UNKNOWN', '', #183, #109 ) ;
#106 = AXIS2_PLACEMENT_3D ( 'NONE', #289, #118, #121 ) ;
#107 = ORIENTED_EDGE ( 'NONE', *, *, #112, .T. ) ;
#108 = FILL_AREA_STYLE ('',( #57 ) ) ;
#109 = PRODUCT_DEFINITION_CONTEXT ( 'detailed design', #213, 'design' ) ;
#110 = EDGE_LOOP ( 'NONE', ( #235, #72, #309, #31 ) ) ;
#111 = CLOSED_SHELL ( 'NONE', ( #43, #95, #191, #319, #276, #70, #293, #179, #310, #169, #125 ) ) ;
#112 = EDGE_CURVE ( 'NONE', #156, #83, #30, .T. ) ;
#113 = CARTESIAN_POINT ( 'NONE',  ( 0.0000000000000000000, 0.0000000000000000000, 1.485000000000000764 ) ) ;
#114 = AXIS2_PLACEMENT_3D ( 'NONE', #215, #174, #323 ) ;
#115 = DIRECTION ( 'NONE',  ( 0.0000000000000000000, 0.0000000000000000000, 1.000000000000000000 ) ) ;
#116 = CONICAL_SURFACE ( 'NONE', #170, 0.01997999999999999776, 0.1745329251994338637 ) ;
#117 = DIMENSIONAL_EXPONENTS ( 1.000000000000000000, 0.0000000000000000000, 0.0000000000000000000, 0.0000000000000000000, 0.0000000000000000000, 0.0000000000000000000, 0.0000000000000000000 ) ;
#118 = DIRECTION ( 'NONE',  ( -1.224646799147353454E-16, -0.0000000000000000000, -1.000000000000000000 ) ) ;
#119 = EDGE_CURVE ( 'NONE', #83, #156, #41, .T. ) ;
#120 = FACE_OUTER_BOUND ( 'NONE', #272, .T. ) ;
#121 = DIRECTION ( 'NONE',  ( 1.000000000000000000, 0.0000000000000000000, 0.0000000000000000000 ) ) ;
#122 = FACE_OUTER_BOUND ( 'NONE', #46, .T. ) ;
#123 = ORIENTED_EDGE ( 'NONE', *, *, #63, .T. ) ;
#124 =( GEOMETRIC_REPRESENTATION_CONTEXT ( 3 ) GLOBAL_UNCERTAINTY_ASSIGNED_CONTEXT ( ( #132 ) ) GLOBAL_UNIT_ASSIGNED_CONTEXT ( ( #255, #5, #257 ) ) REPRESENTATION_CONTEXT ( 'NONE', 'WORKASPACE' ) );
#125 = ADVANCED_FACE ( 'NONE', ( #266 ), #316, .T. ) ;
#126 = CARTESIAN_POINT ( 'NONE',  ( 2.446844304696412268E-18, 0.0000000000000000000, 0.01998000000000000123 ) ) ;
#127 = CARTESIAN_POINT ( 'NONE',  ( 1.469576158976824292E-17, 0.0000000000000000000, 0.1199999999999999956 ) ) ;
#128 = DIRECTION ( 'NONE',  ( 1.000000000000000000, 0.0000000000000000000, -0.0000000000000000000 ) ) ;
#129 = FILL_AREA_STYLE_COLOUR ( '', #254 ) ;
#130 = ORIENTED_EDGE ( 'NONE', *, *, #27, .T. ) ;
#131 = VECTOR ( 'NONE', #192, 39.37007874015748143 ) ;
#132 = UNCERTAINTY_MEASURE_WITH_UNIT (LENGTH_MEASURE( 1.000000000000000082E-05 ), #255, 'distance_accuracy_value', 'NONE');
#133 = PRESENTATION_LAYER_ASSIGNMENT (  '', '', ( #294 ) ) ;
#134 = EDGE_CURVE ( 'NONE', #103, #216, #284, .T. ) ;
#135 =( NAMED_UNIT ( * ) PLANE_ANGLE_UNIT ( ) SI_UNIT ( $, .RADIAN. ) );
#136 = SURFACE_STYLE_FILL_AREA ( #108 ) ;
#137 = FILL_AREA_STYLE ('',( #129 ) ) ;
#138 = ORIENTED_EDGE ( 'NONE', *, *, #165, .T. ) ;
#139 = DIRECTION ( 'NONE',  ( -1.224646799147353454E-16, -0.0000000000000000000, -1.000000000000000000 ) ) ;
#140 = LINE ( 'NONE', #189, #217 ) ;
#141 = APPLICATION_CONTEXT ( 'automotive_design' ) ;
#142 = EDGE_CURVE ( 'NONE', #28, #177, #61, .T. ) ;
#143 = DIRECTION ( 'NONE',  ( -1.000000000000000000, 0.0000000000000000000, 1.224646799147353454E-16 ) ) ;
#144 = CONICAL_SURFACE ( 'NONE', #12, 0.04750000000000064587, 0.7853981633974466137 ) ;
#145 = DIRECTION ( 'NONE',  ( 1.224646799147353454E-16, 0.0000000000000000000, 1.000000000000000000 ) ) ;
#146 = DIRECTION ( 'NONE',  ( 1.000000000000000000, 0.0000000000000000000, 0.0000000000000000000 ) ) ;
#147 = DIRECTION ( 'NONE',  ( 0.0000000000000000000, -1.000000000000000000, 0.0000000000000000000 ) ) ;
#148 = AXIS2_PLACEMENT_3D ( 'NONE', #208, #42, #146 ) ;
#149 = DIRECTION ( 'NONE',  ( 1.224646799147353454E-16, 0.0000000000000000000, 1.000000000000000000 ) ) ;
#150 = EDGE_LOOP ( 'NONE', ( #84, #26, #96, #274 ) ) ;
#151 = CARTESIAN_POINT ( 'NONE',  ( -0.04750000000000064587, 0.0000000000000000000, 1.500000000000000222 ) ) ;
#152 = ORIENTED_EDGE ( 'NONE', *, *, #157, .T. ) ;
#153 = DIRECTION ( 'NONE',  ( 1.224646799147353454E-16, 0.0000000000000000000, 1.000000000000000000 ) ) ;
#154 = CARTESIAN_POINT ( 'NONE',  ( 0.0000000000000000000, 0.0000000000000000000, 1.500000000000000222 ) ) ;
#155 = CIRCLE ( 'NONE', #321, 0.04750000000000064587 ) ;
#156 = VERTEX_POINT ( 'NONE', #242 ) ;
#157 = EDGE_CURVE ( 'NONE', #156, #28, #214, .T. ) ;
#158 = AXIS2_PLACEMENT_3D ( 'NONE', #288, #13, #168 ) ;
#159 = VECTOR ( 'NONE', #296, 39.37007874015748143 ) ;
#160 =( LENGTH_UNIT ( ) NAMED_UNIT ( * ) SI_UNIT ( $, .METRE. ) );
#161 = ORIENTED_EDGE ( 'NONE', *, *, #82, .F. ) ;
#162 = CARTESIAN_POINT ( 'NONE',  ( -0.04750000000000064587, 0.0000000000000000000, 1.500000000000000222 ) ) ;
#163 = CARTESIAN_POINT ( 'NONE',  ( 0.0000000000000000000, 0.0000000000000000000, 0.0000000000000000000 ) ) ;
#164 = AXIS2_PLACEMENT_3D ( 'NONE', #64, #15, #286 ) ;
#165 = EDGE_CURVE ( 'NONE', #297, #83, #89, .T. ) ;
#166 = CARTESIAN_POINT ( 'NONE',  ( 0.0000000000000000000, 0.0000000000000000000, 1.500000000000000222 ) ) ;
#167 = DIRECTION ( 'NONE',  ( -1.224646799147353454E-16, -0.0000000000000000000, -1.000000000000000000 ) ) ;
#168 = DIRECTION ( 'NONE',  ( -1.000000000000000000, 1.224646799147353207E-16, 0.0000000000000000000 ) ) ;
#169 = ADVANCED_FACE ( 'NONE', ( #86 ), #38, .T. ) ;
#170 = AXIS2_PLACEMENT_3D ( 'NONE', #221, #153, #291 ) ;
#171 = DIRECTION ( 'NONE',  ( -1.000000000000000000, 0.0000000000000000000, 0.0000000000000000000 ) ) ;
#172 = DIRECTION ( 'NONE',  ( -1.224646799147353454E-16, -0.0000000000000000000, -1.000000000000000000 ) ) ;
#173 = ORIENTED_EDGE ( 'NONE', *, *, #54, .T. ) ;
#174 = DIRECTION ( 'NONE',  ( 0.0000000000000000000, 0.0000000000000000000, -1.000000000000000000 ) ) ;
#175 = ORIENTED_EDGE ( 'NONE', *, *, #112, .F. ) ;
#176 = DIRECTION ( 'NONE',  ( -1.000000000000000000, 0.0000000000000000000, 2.136392637687893513E-16 ) ) ;
#177 = VERTEX_POINT ( 'NONE', #241 ) ;
#178 = EDGE_LOOP ( 'NONE', ( #185, #220, #50 ) ) ;
#179 = ADVANCED_FACE ( 'NONE', ( #14 ), #144, .T. ) ;
#180 = SURFACE_STYLE_FILL_AREA ( #137 ) ;
#181 = DIRECTION ( 'NONE',  ( -0.1736481776669311639, 2.126576849575783008E-17, 0.9848077530122080203 ) ) ;
#182 = AXIS2_PLACEMENT_3D ( 'NONE', #126, #18, #176 ) ;
#183 = PRODUCT_DEFINITION_FORMATION_WITH_SPECIFIED_SOURCE ( 'ANY', '', #301, .NOT_KNOWN. ) ;
#184 = ORIENTED_EDGE ( 'NONE', *, *, #219, .F. ) ;
#185 = ORIENTED_EDGE ( 'NONE', *, *, #134, .F. ) ;
#186 = EDGE_LOOP ( 'NONE', ( #85, #184, #32, #123 ) ) ;
#187 = DIRECTION ( 'NONE',  ( -1.000000000000000000, 0.0000000000000000000, 0.0000000000000000000 ) ) ;
#188 = DIRECTION ( 'NONE',  ( 0.7071067811865462405, 8.659560562354916834E-17, -0.7071067811865486830 ) ) ;
#189 = CARTESIAN_POINT ( 'NONE',  ( 0.01998000000000000123, 2.446844304696411883E-18, -2.446844304696412268E-18 ) ) ;
#190 = CARTESIAN_POINT ( 'NONE',  ( 2.446844304696412268E-18, 0.0000000000000000000, 0.01998000000000000123 ) ) ;
#191 = ADVANCED_FACE ( 'NONE', ( #100 ), #116, .T. ) ;
#192 = DIRECTION ( 'NONE',  ( -0.0000000000000000000, -0.0000000000000000000, -1.000000000000000000 ) ) ;
#193 = STYLED_ITEM ( 'NONE', ( #58 ), #36 ) ;
#194 = LENGTH_MEASURE_WITH_UNIT ( LENGTH_MEASURE( 0.02539999999999999897 ), #222 );
#195 = CIRCLE ( 'NONE', #98, 0.01997999999999999776 ) ;
#196 = CYLINDRICAL_SURFACE ( 'NONE', #56, 0.06250000000000002776 ) ;
#197 = ORIENTED_EDGE ( 'NONE', *, *, #54, .F. ) ;
#198 = AXIS2_PLACEMENT_3D ( 'NONE', #127, #172, #203 ) ;
#199 = EDGE_CURVE ( 'NONE', #216, #8, #227, .T. ) ;
#200 = CARTESIAN_POINT ( 'NONE',  ( 2.446844304696412268E-18, 0.0000000000000000000, 0.01998000000000000123 ) ) ;
#201 = DIRECTION ( 'NONE',  ( 0.0000000000000000000, 0.0000000000000000000, -1.000000000000000000 ) ) ;
#202 = UNCERTAINTY_MEASURE_WITH_UNIT (LENGTH_MEASURE( 1.000000000000000082E-05 ), #9, 'distance_accuracy_value', 'NONE');
#203 = DIRECTION ( 'NONE',  ( -1.000000000000000000, 0.0000000000000000000, 0.0000000000000000000 ) ) ;
#204 = ORIENTED_EDGE ( 'NONE', *, *, #304, .T. ) ;
#205 = CIRCLE ( 'NONE', #106, 0.06250000000000002776 ) ;
#206 = EDGE_LOOP ( 'NONE', ( #322, #69, #152, #80 ) ) ;
#207 = LENGTH_MEASURE_WITH_UNIT ( LENGTH_MEASURE( 0.02539999999999999897 ), #160 );
#208 = CARTESIAN_POINT ( 'NONE',  ( 4.422725001571700136E-17, 0.0000000000000000000, 0.3611429029701438975 ) ) ;
#209 =( GEOMETRIC_REPRESENTATION_CONTEXT ( 3 ) GLOBAL_UNCERTAINTY_ASSIGNED_CONTEXT ( ( #2 ) ) GLOBAL_UNIT_ASSIGNED_CONTEXT ( ( #68, #320, #94 ) ) REPRESENTATION_CONTEXT ( 'NONE', 'WORKASPACE' ) );
#210 = CYLINDRICAL_SURFACE ( 'NONE', #318, 0.01998000000000000123 ) ;
#211 = CARTESIAN_POINT ( 'NONE',  ( 0.06250000000000002776, 7.654042494670959086E-18, 1.485000000000000764 ) ) ;
#212 = DIRECTION ( 'NONE',  ( 1.000000000000000000, 0.0000000000000000000, 0.0000000000000000000 ) ) ;
#213 = APPLICATION_CONTEXT ( 'automotive_design' ) ;
#214 = LINE ( 'NONE', #92, #131 ) ;
#215 = CARTESIAN_POINT ( 'NONE',  ( 0.0000000000000000000, 0.0000000000000000000, 1.500000000000000222 ) ) ;
#216 = VERTEX_POINT ( 'NONE', #218 ) ;
#217 = VECTOR ( 'NONE', #139, 39.37007874015748143 ) ;
#218 = CARTESIAN_POINT ( 'NONE',  ( -0.01997999999999999776, 0.0000000000000000000, 0.01998000000000000470 ) ) ;
#219 = EDGE_CURVE ( 'NONE', #308, #3, #295, .T. ) ;
#220 = ORIENTED_EDGE ( 'NONE', *, *, #238, .T. ) ;
#221 = CARTESIAN_POINT ( 'NONE',  ( 1.469576158976824292E-17, 0.0000000000000000000, 0.1199999999999999956 ) ) ;
#222 =( LENGTH_UNIT ( ) NAMED_UNIT ( * ) SI_UNIT ( $, .METRE. ) );
#223 = CARTESIAN_POINT ( 'NONE',  ( 1.469576158976824292E-17, 0.0000000000000000000, 0.1199999999999999956 ) ) ;
#224 = ORIENTED_EDGE ( 'NONE', *, *, #225, .F. ) ;
#225 = EDGE_CURVE ( 'NONE', #3, #216, #49, .T. ) ;
#226 = CARTESIAN_POINT ( 'NONE',  ( 0.0000000000000000000, 0.0000000000000000000, 0.0000000000000000000 ) ) ;
#227 = CIRCLE ( 'NONE', #182, 0.01998000000000000123 ) ;
#228 = CARTESIAN_POINT ( 'NONE',  ( -0.06249999999999997918, 0.0000000000000000000, 0.3611429029701438975 ) ) ;
#229 = MECHANICAL_DESIGN_GEOMETRIC_PRESENTATION_REPRESENTATION (  '', ( #294 ), #302 ) ;
#230 = SURFACE_SIDE_STYLE ('',( #180 ) ) ;
#231 = SURFACE_STYLE_USAGE ( .BOTH. , #10 ) ;
#232 = DIRECTION ( 'NONE',  ( 1.000000000000000000, 0.0000000000000000000, 0.0000000000000000000 ) ) ;
#233 = ORIENTED_EDGE ( 'NONE', *, *, #142, .F. ) ;
#234 = LENGTH_MEASURE_WITH_UNIT ( LENGTH_MEASURE( 0.02539999999999999897 ), #253 );
#235 = ORIENTED_EDGE ( 'NONE', *, *, #78, .F. ) ;
#236 = MECHANICAL_DESIGN_GEOMETRIC_PRESENTATION_REPRESENTATION (  '', ( #193 ), #124 ) ;
#237 = CARTESIAN_POINT ( 'NONE',  ( 0.0000000000000000000, 0.0000000000000000000, 1.485000000000000764 ) ) ;
#238 = EDGE_CURVE ( 'NONE', #103, #8, #270, .T. ) ;
#239 = FACE_OUTER_BOUND ( 'NONE', #60, .T. ) ;
#240 = AXIS2_PLACEMENT_3D ( 'NONE', #163, #264, #143 ) ;
#241 = CARTESIAN_POINT ( 'NONE',  ( 0.06250000000000006939, 7.654042494670963708E-18, 0.3611429029701438975 ) ) ;
#242 = CARTESIAN_POINT ( 'NONE',  ( -0.06250000000000002776, 0.0000000000000000000, 1.485000000000000764 ) ) ;
#243 = VECTOR ( 'NONE', #97, 39.37007874015748143 ) ;
#244 = CARTESIAN_POINT ( 'NONE',  ( 0.0000000000000000000, 0.0000000000000000000, 1.500000000000000222 ) ) ;
#245 = VERTEX_POINT ( 'NONE', #151 ) ;
#246 = CARTESIAN_POINT ( 'NONE',  ( 0.04750000000000064587, 6.735557395310483192E-18, 1.500000000000000222 ) ) ;
#247 = ORIENTED_EDGE ( 'NONE', *, *, #27, .F. ) ;
#248 = LINE ( 'NONE', #71, #312 ) ;
#249 = CARTESIAN_POINT ( 'NONE',  ( 0.0000000000000000000, 0.0000000000000000000, 1.500000000000000222 ) ) ;
#250 = AXIS2_PLACEMENT_3D ( 'NONE', #265, #317, #187 ) ;
#251 = APPLICATION_PROTOCOL_DEFINITION ( 'draft international standard', 'automotive_design', 1998, #141 ) ;
#252 = EDGE_LOOP ( 'NONE', ( #247, #138, #175, #161 ) ) ;
#253 =( LENGTH_UNIT ( ) NAMED_UNIT ( * ) SI_UNIT ( $, .METRE. ) );
#254 = COLOUR_RGB ( '',0.7921568627450980005, 0.8196078431372548767, 0.9333333333333333481 ) ;
#255 =( CONVERSION_BASED_UNIT ( 'INCH', #207 ) LENGTH_UNIT ( ) NAMED_UNIT ( #34 ) );
#256 = PRODUCT_CONTEXT ( 'NONE', #141, 'mechanical' ) ;
#257 =( NAMED_UNIT ( * ) SI_UNIT ( $, .STERADIAN. ) SOLID_ANGLE_UNIT ( ) );
#258 = ORIENTED_EDGE ( 'NONE', *, *, #283, .T. ) ;
#259 = DIRECTION ( 'NONE',  ( 1.000000000000000000, 0.0000000000000000000, 0.0000000000000000000 ) ) ;
#260 = CONICAL_SURFACE ( 'NONE', #114, 0.04750000000000064587, 0.7853981633974466137 ) ;
#261 = DIRECTION ( 'NONE',  ( -1.000000000000000000, 0.0000000000000000000, 1.224646799147353454E-16 ) ) ;
#262 = DIMENSIONAL_EXPONENTS ( 1.000000000000000000, 0.0000000000000000000, 0.0000000000000000000, 0.0000000000000000000, 0.0000000000000000000, 0.0000000000000000000, 0.0000000000000000000 ) ;
#263 = EDGE_CURVE ( 'NONE', #308, #177, #300, .T. ) ;
#264 = DIRECTION ( 'NONE',  ( -1.224646799147353454E-16, -0.0000000000000000000, -1.000000000000000000 ) ) ;
#265 = CARTESIAN_POINT ( 'NONE',  ( 0.0000000000000000000, 0.0000000000000000000, 1.500000000000000222 ) ) ;
#266 = FACE_OUTER_BOUND ( 'NONE', #178, .T. ) ;
#267 = DIRECTION ( 'NONE',  ( 0.0000000000000000000, 0.0000000000000000000, -1.000000000000000000 ) ) ;
#268 = CIRCLE ( 'NONE', #67, 0.04750000000000064587 ) ;
#269 = AXIS2_PLACEMENT_3D ( 'NONE', #223, #149, #20 ) ;
#270 = CIRCLE ( 'NONE', #88, 0.01998000000000000123 ) ;
#271 = DIRECTION ( 'NONE',  ( -1.000000000000000000, 0.0000000000000000000, 0.0000000000000000000 ) ) ;
#272 = EDGE_LOOP ( 'NONE', ( #21, #74, #79 ) ) ;
#273 = DIRECTION ( 'NONE',  ( -1.224646799147353454E-16, -0.0000000000000000000, -1.000000000000000000 ) ) ;
#274 = ORIENTED_EDGE ( 'NONE', *, *, #263, .F. ) ;
#275 = DIRECTION ( 'NONE',  ( -0.0000000000000000000, -0.0000000000000000000, -1.000000000000000000 ) ) ;
#276 = ADVANCED_FACE ( 'NONE', ( #48 ), #196, .T. ) ;
#277 = EDGE_LOOP ( 'NONE', ( #107, #258, #233, #52 ) ) ;
#278 = PRESENTATION_STYLE_ASSIGNMENT (( #307 ) ) ;
#279 = CARTESIAN_POINT ( 'NONE',  ( -0.01997999999999998388, 2.446844304696411498E-18, 0.1199999999999999956 ) ) ;
#280 = CARTESIAN_POINT ( 'NONE',  ( 0.0000000000000000000, 0.0000000000000000000, 1.500000000000000222 ) ) ;
#281 = ORIENTED_EDGE ( 'NONE', *, *, #87, .T. ) ;
#282 = ORIENTED_EDGE ( 'NONE', *, *, #165, .F. ) ;
#283 = EDGE_CURVE ( 'NONE', #83, #177, #248, .T. ) ;
#284 = CIRCLE ( 'NONE', #158, 0.01998000000000000123 ) ;
#285 = LINE ( 'NONE', #162, #25 ) ;
#286 = DIRECTION ( 'NONE',  ( 1.000000000000000000, 0.0000000000000000000, 0.0000000000000000000 ) ) ;
#287 = DIRECTION ( 'NONE',  ( 0.0000000000000000000, 0.0000000000000000000, -1.000000000000000000 ) ) ;
#288 = CARTESIAN_POINT ( 'NONE',  ( 2.446844304696412268E-18, 0.0000000000000000000, 0.01998000000000000123 ) ) ;
#289 = CARTESIAN_POINT ( 'NONE',  ( 4.422725001571700136E-17, 0.0000000000000000000, 0.3611429029701438975 ) ) ;
#290 = VECTOR ( 'NONE', #181, 39.37007874015747433 ) ;
#291 = DIRECTION ( 'NONE',  ( 1.000000000000000000, 0.0000000000000000000, 0.0000000000000000000 ) ) ;
#292 = EDGE_LOOP ( 'NONE', ( #282, #197, #59, #19 ) ) ;
#293 = ADVANCED_FACE ( 'NONE', ( #122 ), #45, .T. ) ;
#294 = STYLED_ITEM ( 'NONE', ( #278 ), #6 ) ;
#295 = CIRCLE ( 'NONE', #198, 0.01997999999999999776 ) ;
#296 = DIRECTION ( 'NONE',  ( -1.224646799147353454E-16, -0.0000000000000000000, -1.000000000000000000 ) ) ;
#297 = VERTEX_POINT ( 'NONE', #246 ) ;
#298 = DIRECTION ( 'NONE',  ( -0.0000000000000000000, -0.0000000000000000000, -1.000000000000000000 ) ) ;
#299 = AXIS2_PLACEMENT_3D ( 'NONE', #237, #267, #212 ) ;
#300 = LINE ( 'NONE', #51, #243 ) ;
#301 = PRODUCT ( 'Micro_BMR-040-2', 'Micro_BMR-040-2', '', ( #256 ) ) ;
#302 =( GEOMETRIC_REPRESENTATION_CONTEXT ( 3 ) GLOBAL_UNCERTAINTY_ASSIGNED_CONTEXT ( ( #202 ) ) GLOBAL_UNIT_ASSIGNED_CONTEXT ( ( #9, #135, #303 ) ) REPRESENTATION_CONTEXT ( 'NONE', 'WORKASPACE' ) );
#303 =( NAMED_UNIT ( * ) SI_UNIT ( $, .STERADIAN. ) SOLID_ANGLE_UNIT ( ) );
#304 = EDGE_CURVE ( 'NONE', #3, #308, #195, .T. ) ;
#305 = COLOUR_RGB ( '',0.7921568627450980005, 0.8196078431372548767, 0.9333333333333333481 ) ;
#306 = AXIS2_PLACEMENT_3D ( 'NONE', #190, #145, #40 ) ;
#307 = SURFACE_STYLE_USAGE ( .BOTH. , #230 ) ;
#308 = VERTEX_POINT ( 'NONE', #325 ) ;
#309 = ORIENTED_EDGE ( 'NONE', *, *, #225, .T. ) ;
#310 = ADVANCED_FACE ( 'NONE', ( #73 ), #99, .T. ) ;
#311 = LINE ( 'NONE', #279, #290 ) ;
#312 = VECTOR ( 'NONE', #298, 39.37007874015748143 ) ;
#313 = CARTESIAN_POINT ( 'NONE',  ( 0.04750000000000064587, 5.817072295950006528E-18, 1.500000000000000222 ) ) ;
#314 = CARTESIAN_POINT ( 'NONE',  ( 0.0000000000000000000, 0.0000000000000000000, 0.0000000000000000000 ) ) ;
#315 = DIRECTION ( 'NONE',  ( 1.000000000000000000, 0.0000000000000000000, 0.0000000000000000000 ) ) ;
#316 = SPHERICAL_SURFACE ( 'NONE', #39, 0.01998000000000000123 ) ;
#317 = DIRECTION ( 'NONE',  ( -0.0000000000000000000, -0.0000000000000000000, -1.000000000000000000 ) ) ;
#318 = AXIS2_PLACEMENT_3D ( 'NONE', #314, #167, #261 ) ;
#319 = ADVANCED_FACE ( 'NONE', ( #24 ), #260, .T. ) ;
#320 =( NAMED_UNIT ( * ) PLANE_ANGLE_UNIT ( ) SI_UNIT ( $, .RADIAN. ) );
#321 = AXIS2_PLACEMENT_3D ( 'NONE', #280, #55, #259 ) ;
#322 = ORIENTED_EDGE ( 'NONE', *, *, #283, .F. ) ;
#323 = DIRECTION ( 'NONE',  ( -1.000000000000000000, 0.0000000000000000000, 0.0000000000000000000 ) ) ;
#324 = VECTOR ( 'NONE', #188, 39.37007874015748854 ) ;
#325 = CARTESIAN_POINT ( 'NONE',  ( 0.01998000000000000817, 0.0000000000000000000, 0.1199999999999999956 ) ) ;
ENDSEC;
END-ISO-10303-21;
