ISO-10303-21;
HEADER;
FILE_DESCRIPTION (( 'STEP AP214' ),
    '1' );
FILE_NAME ('Micro_SBMM-080-264X.STEP',
    '2021-09-02T17:16:57',
    ( '' ),
    ( '' ),
    'SwSTEP 2.0',
    'SolidWorks 2020',
    '' );
FILE_SCHEMA (( 'AUTOMOTIVE_DESIGN' ));
ENDSEC;

DATA;
#1 = AXIS2_PLACEMENT_3D ( 'NONE', #29, #344, #208 ) ;
#2 = CARTESIAN_POINT ( 'NONE',  ( 0.0000000000000000000, 0.0000000000000000000, 2.165353999999999779 ) ) ;
#3 = ORIENTED_EDGE ( 'NONE', *, *, #206, .F. ) ;
#4 = DIRECTION ( 'NONE',  ( -0.0000000000000000000, -0.0000000000000000000, -1.000000000000000000 ) ) ;
#5 = LENGTH_MEASURE_WITH_UNIT ( LENGTH_MEASURE( 0.02539999999999999897 ), #61 );
#6 = ORIENTED_EDGE ( 'NONE', *, *, #44, .F. ) ;
#7 = PRODUCT_DEFINITION_SHAPE ( 'NONE', 'NONE',  #148 ) ;
#8 =( NAMED_UNIT ( * ) SI_UNIT ( $, .STERADIAN. ) SOLID_ANGLE_UNIT ( ) );
#9 = VERTEX_POINT ( 'NONE', #228 ) ;
#10 = ADVANCED_FACE ( 'NONE', ( #312 ), #79, .T. ) ;
#11 = PRODUCT ( 'Micro_SBMM-080-264X', 'Micro_SBMM-080-264X', '', ( #283 ) ) ;
#12 = DIRECTION ( 'NONE',  ( 0.0000000000000000000, 0.0000000000000000000, 1.000000000000000000 ) ) ;
#13 = CARTESIAN_POINT ( 'NONE',  ( 0.1062989999999999768, 1.301787301025644591E-17, 0.2736715358320045977 ) ) ;
#14 = DIRECTION ( 'NONE',  ( -0.0000000000000000000, -0.0000000000000000000, -1.000000000000000000 ) ) ;
#15 = VERTEX_POINT ( 'NONE', #180 ) ;
#16 = EDGE_CURVE ( 'NONE', #300, #272, #81, .T. ) ;
#17 = ADVANCED_BREP_SHAPE_REPRESENTATION ( 'Micro_SBMM-080-264X', ( #268, #266 ), #321 ) ;
#18 = APPLICATION_CONTEXT ( 'automotive_design' ) ;
#19 = ORIENTED_EDGE ( 'NONE', *, *, #75, .T. ) ;
#20 = APPLICATION_PROTOCOL_DEFINITION ( 'draft international standard', 'automotive_design', 1998, #68 ) ;
#21 = ORIENTED_EDGE ( 'NONE', *, *, #236, .T. ) ;
#22 = EDGE_CURVE ( 'NONE', #9, #129, #125, .T. ) ;
#23 = CARTESIAN_POINT ( 'NONE',  ( 0.0000000000000000000, 0.0000000000000000000, 2.165353999999999779 ) ) ;
#24 = CONICAL_SURFACE ( 'NONE', #120, 0.1732285499999996758, 0.09966942629159518396 ) ;
#25 = CARTESIAN_POINT ( 'NONE',  ( 0.0000000000000000000, 0.0000000000000000000, 0.1574800000000000089 ) ) ;
#26 = DIRECTION ( 'NONE',  ( 0.0000000000000000000, 0.0000000000000000000, 1.000000000000000000 ) ) ;
#27 = ADVANCED_FACE ( 'NONE', ( #105 ), #130, .T. ) ;
#28 = ORIENTED_EDGE ( 'NONE', *, *, #236, .F. ) ;
#29 = CARTESIAN_POINT ( 'NONE',  ( 0.0000000000000000000, 0.0000000000000000000, 0.1574800000000000089 ) ) ;
#30 = ORIENTED_EDGE ( 'NONE', *, *, #286, .T. ) ;
#31 = DIRECTION ( 'NONE',  ( -0.0000000000000000000, -0.0000000000000000000, -1.000000000000000000 ) ) ;
#32 = FILL_AREA_STYLE_COLOUR ( '', #333 ) ;
#33 = VERTEX_POINT ( 'NONE', #279 ) ;
#34 = CARTESIAN_POINT ( 'NONE',  ( 0.1424805000000004540, 1.836731392595198898E-17, 3.937007999999999619 ) ) ;
#35 = ORIENTED_EDGE ( 'NONE', *, *, #293, .T. ) ;
#36 = AXIS2_PLACEMENT_3D ( 'NONE', #83, #296, #56 ) ;
#37 = VECTOR ( 'NONE', #160, 39.37007874015748143 ) ;
#38 = MECHANICAL_DESIGN_GEOMETRIC_PRESENTATION_REPRESENTATION (  '', ( #274 ), #124 ) ;
#39 = DIRECTION ( 'NONE',  ( -0.0000000000000000000, -0.0000000000000000000, -1.000000000000000000 ) ) ;
#40 = CARTESIAN_POINT ( 'NONE',  ( 0.0000000000000000000, 0.0000000000000000000, 2.677165000000000461 ) ) ;
#41 = EDGE_CURVE ( 'NONE', #90, #218, #158, .T. ) ;
#42 = AXIS2_PLACEMENT_3D ( 'NONE', #234, #262, #109 ) ;
#43 = DIRECTION ( 'NONE',  ( -0.0000000000000000000, -0.0000000000000000000, -1.000000000000000000 ) ) ;
#44 = EDGE_CURVE ( 'NONE', #272, #129, #288, .T. ) ;
#45 = ORIENTED_EDGE ( 'NONE', *, *, #106, .F. ) ;
#46 = ADVANCED_FACE ( 'NONE', ( #252 ), #197, .T. ) ;
#47 = EDGE_LOOP ( 'NONE', ( #177, #191, #339, #144, #57 ) ) ;
#48 = AXIS2_PLACEMENT_3D ( 'NONE', #315, #200, #289 ) ;
#49 = FACE_OUTER_BOUND ( 'NONE', #156, .T. ) ;
#50 = VERTEX_POINT ( 'NONE', #13 ) ;
#51 = LINE ( 'NONE', #235, #303 ) ;
#52 = CARTESIAN_POINT ( 'NONE',  ( 0.0000000000000000000, 0.0000000000000000000, 3.922008000000000827 ) ) ;
#53 = AXIS2_PLACEMENT_3D ( 'NONE', #182, #314, #74 ) ;
#54 = CARTESIAN_POINT ( 'NONE',  ( 0.1574804999999999955, 1.928579902531247412E-17, 2.677165000000000461 ) ) ;
#55 = ADVANCED_FACE ( 'NONE', ( #49 ), #71, .T. ) ;
#56 = DIRECTION ( 'NONE',  ( 1.000000000000000000, 0.0000000000000000000, 0.0000000000000000000 ) ) ;
#57 = ORIENTED_EDGE ( 'NONE', *, *, #308, .F. ) ;
#58 = DIRECTION ( 'NONE',  ( 1.000000000000000000, 0.0000000000000000000, -0.0000000000000000000 ) ) ;
#59 = ORIENTED_EDGE ( 'NONE', *, *, #87, .F. ) ;
#60 = AXIS2_PLACEMENT_3D ( 'NONE', #267, #26, #89 ) ;
#61 =( LENGTH_UNIT ( ) NAMED_UNIT ( * ) SI_UNIT ( $, .METRE. ) );
#62 = VERTEX_POINT ( 'NONE', #229 ) ;
#63 = DIRECTION ( 'NONE',  ( -0.09950448898117791874, 1.218578539315926017E-17, 0.9950371132136703878 ) ) ;
#64 = ORIENTED_EDGE ( 'NONE', *, *, #286, .F. ) ;
#65 = CARTESIAN_POINT ( 'NONE',  ( 0.1062989999999998519, 1.301787301025643050E-17, 0.0000000000000000000 ) ) ;
#66 = AXIS2_PLACEMENT_3D ( 'NONE', #205, #190, #343 ) ;
#67 = CARTESIAN_POINT ( 'NONE',  ( 0.0000000000000000000, 0.0000000000000000000, 0.1574800000000000089 ) ) ;
#68 = APPLICATION_CONTEXT ( 'automotive_design' ) ;
#69 = SHAPE_DEFINITION_REPRESENTATION ( #7, #17 ) ;
#70 = EDGE_LOOP ( 'NONE', ( #189, #338, #287, #115 ) ) ;
#71 = CONICAL_SURFACE ( 'NONE', #53, 0.1424805000000004540, 0.7853981633974608245 ) ;
#72 =( CONVERSION_BASED_UNIT ( 'INCH', #254 ) LENGTH_UNIT ( ) NAMED_UNIT ( #141 ) );
#73 = AXIS2_PLACEMENT_3D ( 'NONE', #97, #269, #12 ) ;
#74 = DIRECTION ( 'NONE',  ( -1.000000000000000000, 0.0000000000000000000, 0.0000000000000000000 ) ) ;
#75 = EDGE_CURVE ( 'NONE', #329, #15, #310, .T. ) ;
#76 =( LENGTH_UNIT ( ) NAMED_UNIT ( * ) SI_UNIT ( $, .METRE. ) );
#77 = VERTEX_POINT ( 'NONE', #336 ) ;
#78 = SURFACE_STYLE_USAGE ( .BOTH. , #309 ) ;
#79 = CYLINDRICAL_SURFACE ( 'NONE', #48, 0.1062989999999998519 ) ;
#80 = ADVANCED_FACE ( 'NONE', ( #104 ), #322, .T. ) ;
#81 = LINE ( 'NONE', #108, #138 ) ;
#82 = AXIS2_PLACEMENT_3D ( 'NONE', #187, #261, #114 ) ;
#83 = CARTESIAN_POINT ( 'NONE',  ( 0.0000000000000000000, 0.0000000000000000000, 3.922008000000000827 ) ) ;
#84 = CYLINDRICAL_SURFACE ( 'NONE', #345, 0.1574804999999999955 ) ;
#85 = EDGE_CURVE ( 'NONE', #90, #9, #92, .T. ) ;
#86 = DIRECTION ( 'NONE',  ( -1.000000000000000000, 0.0000000000000000000, 0.0000000000000000000 ) ) ;
#87 = EDGE_CURVE ( 'NONE', #129, #15, #214, .T. ) ;
#88 = CARTESIAN_POINT ( 'NONE',  ( 0.0000000000000000000, 0.0000000000000000000, 3.937007999999999619 ) ) ;
#89 = DIRECTION ( 'NONE',  ( 1.000000000000000000, 0.0000000000000000000, 0.0000000000000000000 ) ) ;
#90 = VERTEX_POINT ( 'NONE', #142 ) ;
#91 = DIRECTION ( 'NONE',  ( 1.000000000000000000, 1.224646799147353207E-16, -0.0000000000000000000 ) ) ;
#92 = CIRCLE ( 'NONE', #280, 0.1062989999999997270 ) ;
#93 = DIRECTION ( 'NONE',  ( 0.0000000000000000000, 0.0000000000000000000, 1.000000000000000000 ) ) ;
#94 = ORIENTED_EDGE ( 'NONE', *, *, #308, .T. ) ;
#95 = SURFACE_STYLE_FILL_AREA ( #121 ) ;
#96 = ORIENTED_EDGE ( 'NONE', *, *, #293, .F. ) ;
#97 = CARTESIAN_POINT ( 'NONE',  ( 0.0000000000000000000, 0.0000000000000000000, 0.1574800000000000089 ) ) ;
#98 = VECTOR ( 'NONE', #225, 39.37007874015748143 ) ;
#99 = DIRECTION ( 'NONE',  ( -1.000000000000000000, 0.0000000000000000000, 0.0000000000000000000 ) ) ;
#100 = ORIENTED_EDGE ( 'NONE', *, *, #16, .F. ) ;
#101 = EDGE_CURVE ( 'NONE', #329, #272, #331, .T. ) ;
#102 = AXIS2_PLACEMENT_3D ( 'NONE', #168, #110, #295 ) ;
#103 = VECTOR ( 'NONE', #63, 39.37007874015748143 ) ;
#104 = FACE_OUTER_BOUND ( 'NONE', #137, .T. ) ;
#105 = FACE_OUTER_BOUND ( 'NONE', #253, .T. ) ;
#106 = EDGE_CURVE ( 'NONE', #272, #329, #132, .T. ) ;
#107 = EDGE_LOOP ( 'NONE', ( #211, #167, #59, #240 ) ) ;
#108 = CARTESIAN_POINT ( 'NONE',  ( 0.1424805000000004540, 1.744882882659150076E-17, 3.937007999999999619 ) ) ;
#109 = DIRECTION ( 'NONE',  ( -1.000000000000000000, 0.0000000000000000000, 0.0000000000000000000 ) ) ;
#110 = DIRECTION ( 'NONE',  ( 0.0000000000000000000, 0.0000000000000000000, 1.000000000000000000 ) ) ;
#111 = SPHERICAL_SURFACE ( 'NONE', #222, 0.1574799999999999811 ) ;
#112 = AXIS2_PLACEMENT_3D ( 'NONE', #67, #91, #243 ) ;
#113 = ORIENTED_EDGE ( 'NONE', *, *, #282, .F. ) ;
#114 = DIRECTION ( 'NONE',  ( -1.000000000000000000, 0.0000000000000000000, 0.0000000000000000000 ) ) ;
#115 = ORIENTED_EDGE ( 'NONE', *, *, #75, .F. ) ;
#116 = FACE_OUTER_BOUND ( 'NONE', #323, .T. ) ;
#117 = ORIENTED_EDGE ( 'NONE', *, *, #273, .F. ) ;
#118 =( CONVERSION_BASED_UNIT ( 'INCH', #5 ) LENGTH_UNIT ( ) NAMED_UNIT ( #306 ) );
#119 = EDGE_LOOP ( 'NONE', ( #248, #263, #35, #202 ) ) ;
#120 = AXIS2_PLACEMENT_3D ( 'NONE', #183, #290, #193 ) ;
#121 = FILL_AREA_STYLE ('',( #32 ) ) ;
#122 = ORIENTED_EDGE ( 'NONE', *, *, #85, .T. ) ;
#123 = SURFACE_SIDE_STYLE ('',( #95 ) ) ;
#124 =( GEOMETRIC_REPRESENTATION_CONTEXT ( 3 ) GLOBAL_UNCERTAINTY_ASSIGNED_CONTEXT ( ( #249 ) ) GLOBAL_UNIT_ASSIGNED_CONTEXT ( ( #72, #278, #154 ) ) REPRESENTATION_CONTEXT ( 'NONE', 'WORKASPACE' ) );
#125 = LINE ( 'NONE', #318, #37 ) ;
#126 = FILL_AREA_STYLE_COLOUR ( '', #194 ) ;
#127 = CARTESIAN_POINT ( 'NONE',  ( -0.1062989999999998519, 0.0000000000000000000, 0.0000000000000000000 ) ) ;
#128 = MECHANICAL_DESIGN_GEOMETRIC_PRESENTATION_REPRESENTATION (  '', ( #232 ), #226 ) ;
#129 = VERTEX_POINT ( 'NONE', #54 ) ;
#130 = CYLINDRICAL_SURFACE ( 'NONE', #238, 0.1062989999999998519 ) ;
#131 = ORIENTED_EDGE ( 'NONE', *, *, #106, .T. ) ;
#132 = CIRCLE ( 'NONE', #36, 0.1574804999999999955 ) ;
#133 = CYLINDRICAL_SURFACE ( 'NONE', #256, 0.1574804999999999955 ) ;
#134 = CIRCLE ( 'NONE', #294, 0.1062989999999999768 ) ;
#135 = DIRECTION ( 'NONE',  ( 0.0000000000000000000, 0.0000000000000000000, 1.000000000000000000 ) ) ;
#136 = DIRECTION ( 'NONE',  ( 1.000000000000000000, 0.0000000000000000000, 0.0000000000000000000 ) ) ;
#137 = EDGE_LOOP ( 'NONE', ( #213, #21 ) ) ;
#138 = VECTOR ( 'NONE', #334, 39.37007874015748143 ) ;
#139 = ORIENTED_EDGE ( 'NONE', *, *, #157, .T. ) ;
#140 = ADVANCED_FACE ( 'NONE', ( #161 ), #133, .T. ) ;
#141 = DIMENSIONAL_EXPONENTS ( 1.000000000000000000, 0.0000000000000000000, 0.0000000000000000000, 0.0000000000000000000, 0.0000000000000000000, 0.0000000000000000000, 0.0000000000000000000 ) ;
#142 = CARTESIAN_POINT ( 'NONE',  ( -0.1062989999999997270, 1.615183601778444538E-17, 2.165353999999999779 ) ) ;
#143 = PRESENTATION_STYLE_ASSIGNMENT (( #220 ) ) ;
#144 = ORIENTED_EDGE ( 'NONE', *, *, #299, .F. ) ;
#145 = DIRECTION ( 'NONE',  ( -1.000000000000000000, 0.0000000000000000000, 0.0000000000000000000 ) ) ;
#146 = ORIENTED_EDGE ( 'NONE', *, *, #219, .T. ) ;
#147 = CIRCLE ( 'NONE', #73, 0.1574799999999999256 ) ;
#148 = PRODUCT_DEFINITION ( 'UNKNOWN', '', #327, #149 ) ;
#149 = PRODUCT_DEFINITION_CONTEXT ( 'detailed design', #68, 'design' ) ;
#150 = DIRECTION ( 'NONE',  ( -0.0000000000000000000, -0.0000000000000000000, -1.000000000000000000 ) ) ;
#151 = ADVANCED_FACE ( 'NONE', ( #319 ), #84, .T. ) ;
#152 = UNCERTAINTY_MEASURE_WITH_UNIT (LENGTH_MEASURE( 1.000000000000000082E-05 ), #118, 'distance_accuracy_value', 'NONE');
#153 = CIRCLE ( 'NONE', #311, 0.1062989999999999768 ) ;
#154 =( NAMED_UNIT ( * ) SI_UNIT ( $, .STERADIAN. ) SOLID_ANGLE_UNIT ( ) );
#155 = CARTESIAN_POINT ( 'NONE',  ( 0.1574804999999999955, 1.928579902531247412E-17, 3.937007999999999619 ) ) ;
#156 = EDGE_LOOP ( 'NONE', ( #28, #224, #209, #265 ) ) ;
#157 = EDGE_CURVE ( 'NONE', #33, #329, #51, .T. ) ;
#158 = LINE ( 'NONE', #127, #231 ) ;
#159 = DIRECTION ( 'NONE',  ( -1.000000000000000000, 0.0000000000000000000, 0.0000000000000000000 ) ) ;
#160 = DIRECTION ( 'NONE',  ( 0.09950448898117791874, 0.0000000000000000000, 0.9950371132136703878 ) ) ;
#161 = FACE_OUTER_BOUND ( 'NONE', #70, .T. ) ;
#162 = CARTESIAN_POINT ( 'NONE',  ( 0.0000000000000000000, 0.0000000000000000000, 3.937007999999999619 ) ) ;
#163 = AXIS2_PLACEMENT_3D ( 'NONE', #221, #332, #99 ) ;
#164 = CARTESIAN_POINT ( 'NONE',  ( -0.1062989999999999768, 0.0000000000000000000, 0.2736715358320045977 ) ) ;
#165 = ADVANCED_FACE ( 'NONE', ( #116 ), #181, .T. ) ;
#166 = DIRECTION ( 'NONE',  ( -1.000000000000000000, 0.0000000000000000000, 0.0000000000000000000 ) ) ;
#167 = ORIENTED_EDGE ( 'NONE', *, *, #282, .T. ) ;
#168 = CARTESIAN_POINT ( 'NONE',  ( 0.0000000000000000000, 0.0000000000000000000, 2.677165000000000461 ) ) ;
#169 = CIRCLE ( 'NONE', #112, 0.1574799999999999811 ) ;
#170 = ADVANCED_FACE ( 'NONE', ( #184 ), #111, .T. ) ;
#171 = DIRECTION ( 'NONE',  ( -0.0000000000000000000, -0.0000000000000000000, -1.000000000000000000 ) ) ;
#172 = CLOSED_SHELL ( 'NONE', ( #27, #185, #46, #55, #140, #151, #80, #165, #246, #170, #10 ) ) ;
#173 = DIRECTION ( 'NONE',  ( 1.000000000000000000, 0.0000000000000000000, 0.0000000000000000000 ) ) ;
#174 = LINE ( 'NONE', #65, #247 ) ;
#175 = CARTESIAN_POINT ( 'NONE',  ( 0.0000000000000000000, 0.0000000000000000000, 0.0000000000000000000 ) ) ;
#176 = PRESENTATION_LAYER_ASSIGNMENT (  '', '', ( #232 ) ) ;
#177 = ORIENTED_EDGE ( 'NONE', *, *, #324, .F. ) ;
#178 = EDGE_LOOP ( 'NONE', ( #113, #3, #259, #64 ) ) ;
#179 = DIRECTION ( 'NONE',  ( 1.000000000000000000, 0.0000000000000000000, 0.0000000000000000000 ) ) ;
#180 = CARTESIAN_POINT ( 'NONE',  ( -0.1574804999999999955, 0.0000000000000000000, 2.677165000000000461 ) ) ;
#181 = CONICAL_SURFACE ( 'NONE', #82, 0.1424805000000004540, 0.7853981633974608245 ) ;
#182 = CARTESIAN_POINT ( 'NONE',  ( 0.0000000000000000000, 0.0000000000000000000, 3.937007999999999619 ) ) ;
#183 = CARTESIAN_POINT ( 'NONE',  ( 0.0000000000000000000, 0.0000000000000000000, 2.834644269238882242 ) ) ;
#184 = FACE_OUTER_BOUND ( 'NONE', #119, .T. ) ;
#185 = ADVANCED_FACE ( 'NONE', ( #239 ), #291, .T. ) ;
#186 = VECTOR ( 'NONE', #14, 39.37007874015748143 ) ;
#187 = CARTESIAN_POINT ( 'NONE',  ( 0.0000000000000000000, 0.0000000000000000000, 3.937007999999999619 ) ) ;
#188 = DIRECTION ( 'NONE',  ( 0.0000000000000000000, 0.0000000000000000000, -1.000000000000000000 ) ) ;
#189 = ORIENTED_EDGE ( 'NONE', *, *, #101, .T. ) ;
#190 = DIRECTION ( 'NONE',  ( 0.0000000000000000000, 0.0000000000000000000, 1.000000000000000000 ) ) ;
#191 = ORIENTED_EDGE ( 'NONE', *, *, #206, .T. ) ;
#192 = EDGE_LOOP ( 'NONE', ( #6, #131, #19, #30 ) ) ;
#193 = DIRECTION ( 'NONE',  ( 1.000000000000000000, 0.0000000000000000000, 0.0000000000000000000 ) ) ;
#194 = COLOUR_RGB ( '',0.7921568627450980005, 0.8196078431372548767, 0.9333333333333333481 ) ;
#195 = CARTESIAN_POINT ( 'NONE',  ( 0.0000000000000000000, 0.0000000000000000000, 0.2736715358320045977 ) ) ;
#196 = CARTESIAN_POINT ( 'NONE',  ( 0.0000000000000000000, 0.0000000000000000000, 2.834644269238882242 ) ) ;
#197 = CONICAL_SURFACE ( 'NONE', #340, 0.1732285499999996758, 0.09966942629159518396 ) ;
#198 = CIRCLE ( 'NONE', #42, 0.1062989999999999768 ) ;
#199 = FILL_AREA_STYLE ('',( #126 ) ) ;
#200 = DIRECTION ( 'NONE',  ( -0.0000000000000000000, -0.0000000000000000000, -1.000000000000000000 ) ) ;
#201 = DIRECTION ( 'NONE',  ( 0.0000000000000000000, 0.0000000000000000000, 1.000000000000000000 ) ) ;
#202 = ORIENTED_EDGE ( 'NONE', *, *, #273, .T. ) ;
#203 = ORIENTED_EDGE ( 'NONE', *, *, #219, .F. ) ;
#204 = DIRECTION ( 'NONE',  ( -0.0000000000000000000, -0.0000000000000000000, -1.000000000000000000 ) ) ;
#205 = CARTESIAN_POINT ( 'NONE',  ( 0.0000000000000000000, 0.0000000000000000000, 3.937007999999999619 ) ) ;
#206 = EDGE_CURVE ( 'NONE', #9, #90, #227, .T. ) ;
#207 = AXIS2_PLACEMENT_3D ( 'NONE', #2, #210, #325 ) ;
#208 = DIRECTION ( 'NONE',  ( 0.0000000000000000000, 1.000000000000000000, 0.0000000000000000000 ) ) ;
#209 = ORIENTED_EDGE ( 'NONE', *, *, #101, .F. ) ;
#210 = DIRECTION ( 'NONE',  ( -0.0000000000000000000, -0.0000000000000000000, -1.000000000000000000 ) ) ;
#211 = ORIENTED_EDGE ( 'NONE', *, *, #85, .F. ) ;
#212 = CARTESIAN_POINT ( 'NONE',  ( 0.0000000000000000000, 9.642868896486256968E-18, 3.414809992080329023E-17 ) ) ;
#213 = ORIENTED_EDGE ( 'NONE', *, *, #242, .T. ) ;
#214 = CIRCLE ( 'NONE', #102, 0.1574804999999999955 ) ;
#215 = CIRCLE ( 'NONE', #251, 0.1574804999999999955 ) ;
#216 = ORIENTED_EDGE ( 'NONE', *, *, #324, .T. ) ;
#217 =( CONVERSION_BASED_UNIT ( 'INCH', #330 ) LENGTH_UNIT ( ) NAMED_UNIT ( #301 ) );
#218 = VERTEX_POINT ( 'NONE', #164 ) ;
#219 = EDGE_CURVE ( 'NONE', #77, #50, #198, .T. ) ;
#220 = SURFACE_STYLE_USAGE ( .BOTH. , #123 ) ;
#221 = CARTESIAN_POINT ( 'NONE',  ( 0.0000000000000000000, 0.0000000000000000000, 0.2736715358320045977 ) ) ;
#222 = AXIS2_PLACEMENT_3D ( 'NONE', #25, #264, #342 ) ;
#223 = DIRECTION ( 'NONE',  ( 0.0000000000000000000, 0.0000000000000000000, 1.000000000000000000 ) ) ;
#224 = ORIENTED_EDGE ( 'NONE', *, *, #16, .T. ) ;
#225 = DIRECTION ( 'NONE',  ( -0.0000000000000000000, -0.0000000000000000000, -1.000000000000000000 ) ) ;
#226 =( GEOMETRIC_REPRESENTATION_CONTEXT ( 3 ) GLOBAL_UNCERTAINTY_ASSIGNED_CONTEXT ( ( #277 ) ) GLOBAL_UNIT_ASSIGNED_CONTEXT ( ( #217, #302, #271 ) ) REPRESENTATION_CONTEXT ( 'NONE', 'WORKASPACE' ) );
#227 = CIRCLE ( 'NONE', #207, 0.1062989999999997270 ) ;
#228 = CARTESIAN_POINT ( 'NONE',  ( 0.1062989999999997270, 0.0000000000000000000, 2.165353999999999779 ) ) ;
#229 = CARTESIAN_POINT ( 'NONE',  ( 1.301787301025644282E-17, -0.1062989999999999491, 0.2736715358320045977 ) ) ;
#230 = ORIENTED_EDGE ( 'NONE', *, *, #341, .T. ) ;
#231 = VECTOR ( 'NONE', #43, 39.37007874015748143 ) ;
#232 = STYLED_ITEM ( 'NONE', ( #143 ), #268 ) ;
#233 = DIRECTION ( 'NONE',  ( -1.000000000000000000, 0.0000000000000000000, 0.0000000000000000000 ) ) ;
#234 = CARTESIAN_POINT ( 'NONE',  ( 0.0000000000000000000, 0.0000000000000000000, 0.2736715358320045977 ) ) ;
#235 = CARTESIAN_POINT ( 'NONE',  ( -0.1424805000000004540, 0.0000000000000000000, 3.937007999999999619 ) ) ;
#236 = EDGE_CURVE ( 'NONE', #300, #33, #260, .T. ) ;
#237 = VERTEX_POINT ( 'NONE', #212 ) ;
#238 = AXIS2_PLACEMENT_3D ( 'NONE', #175, #337, #159 ) ;
#239 = FACE_OUTER_BOUND ( 'NONE', #297, .T. ) ;
#240 = ORIENTED_EDGE ( 'NONE', *, *, #22, .F. ) ;
#241 = CARTESIAN_POINT ( 'NONE',  ( 0.0000000000000000000, 0.0000000000000000000, 3.937007999999999619 ) ) ;
#242 = EDGE_CURVE ( 'NONE', #33, #300, #281, .T. ) ;
#243 = DIRECTION ( 'NONE',  ( -1.224646799147352961E-16, 1.000000000000000000, 0.0000000000000000000 ) ) ;
#244 =( NAMED_UNIT ( * ) PLANE_ANGLE_UNIT ( ) SI_UNIT ( $, .RADIAN. ) );
#245 = AXIS2_PLACEMENT_3D ( 'NONE', #88, #135, #58 ) ;
#246 = ADVANCED_FACE ( 'NONE', ( #298 ), #24, .T. ) ;
#247 = VECTOR ( 'NONE', #171, 39.37007874015748143 ) ;
#248 = ORIENTED_EDGE ( 'NONE', *, *, #341, .F. ) ;
#249 = UNCERTAINTY_MEASURE_WITH_UNIT (LENGTH_MEASURE( 1.000000000000000082E-05 ), #72, 'distance_accuracy_value', 'NONE');
#250 = DIRECTION ( 'NONE',  ( -1.000000000000000000, 0.0000000000000000000, 0.0000000000000000000 ) ) ;
#251 = AXIS2_PLACEMENT_3D ( 'NONE', #40, #93, #173 ) ;
#252 = FACE_OUTER_BOUND ( 'NONE', #107, .T. ) ;
#253 = EDGE_LOOP ( 'NONE', ( #122, #216, #203, #96, #270 ) ) ;
#254 = LENGTH_MEASURE_WITH_UNIT ( LENGTH_MEASURE( 0.02539999999999999897 ), #76 );
#255 = DIRECTION ( 'NONE',  ( 1.000000000000000000, 0.0000000000000000000, 0.0000000000000000000 ) ) ;
#256 = AXIS2_PLACEMENT_3D ( 'NONE', #162, #204, #233 ) ;
#257 = PRESENTATION_STYLE_ASSIGNMENT (( #78 ) ) ;
#258 = ORIENTED_EDGE ( 'NONE', *, *, #242, .F. ) ;
#259 = ORIENTED_EDGE ( 'NONE', *, *, #22, .T. ) ;
#260 = CIRCLE ( 'NONE', #66, 0.1424805000000004540 ) ;
#261 = DIRECTION ( 'NONE',  ( 0.0000000000000000000, 0.0000000000000000000, -1.000000000000000000 ) ) ;
#262 = DIRECTION ( 'NONE',  ( -0.0000000000000000000, -0.0000000000000000000, -1.000000000000000000 ) ) ;
#263 = ORIENTED_EDGE ( 'NONE', *, *, #299, .T. ) ;
#264 = DIRECTION ( 'NONE',  ( 1.000000000000000000, 0.0000000000000000000, 0.0000000000000000000 ) ) ;
#265 = ORIENTED_EDGE ( 'NONE', *, *, #157, .F. ) ;
#266 = AXIS2_PLACEMENT_3D ( 'NONE', #285, #223, #179 ) ;
#267 = CARTESIAN_POINT ( 'NONE',  ( 0.0000000000000000000, 0.0000000000000000000, 3.937007999999999619 ) ) ;
#268 = MANIFOLD_SOLID_BREP ( 'Cut-Revolve3', #172 ) ;
#269 = DIRECTION ( 'NONE',  ( -1.000000000000000000, 0.0000000000000000000, 0.0000000000000000000 ) ) ;
#270 = ORIENTED_EDGE ( 'NONE', *, *, #41, .F. ) ;
#271 =( NAMED_UNIT ( * ) SI_UNIT ( $, .STERADIAN. ) SOLID_ANGLE_UNIT ( ) );
#272 = VERTEX_POINT ( 'NONE', #328 ) ;
#273 = EDGE_CURVE ( 'NONE', #77, #237, #147, .T. ) ;
#274 = STYLED_ITEM ( 'NONE', ( #257 ), #17 ) ;
#275 = CARTESIAN_POINT ( 'NONE',  ( -0.1732285499999996758, 2.121437892784368147E-17, 2.834644269238882242 ) ) ;
#276 =( LENGTH_UNIT ( ) NAMED_UNIT ( * ) SI_UNIT ( $, .METRE. ) );
#277 = UNCERTAINTY_MEASURE_WITH_UNIT (LENGTH_MEASURE( 1.000000000000000082E-05 ), #217, 'distance_accuracy_value', 'NONE');
#278 =( NAMED_UNIT ( * ) PLANE_ANGLE_UNIT ( ) SI_UNIT ( $, .RADIAN. ) );
#279 = CARTESIAN_POINT ( 'NONE',  ( -0.1424805000000004540, 0.0000000000000000000, 3.937007999999999619 ) ) ;
#280 = AXIS2_PLACEMENT_3D ( 'NONE', #23, #31, #86 ) ;
#281 = CIRCLE ( 'NONE', #60, 0.1424805000000004540 ) ;
#282 = EDGE_CURVE ( 'NONE', #90, #15, #304, .T. ) ;
#283 = PRODUCT_CONTEXT ( 'NONE', #18, 'mechanical' ) ;
#284 = CARTESIAN_POINT ( 'NONE',  ( -0.1574804999999999955, 0.0000000000000000000, 3.937007999999999619 ) ) ;
#285 = CARTESIAN_POINT ( 'NONE',  ( 0.0000000000000000000, 0.0000000000000000000, 0.0000000000000000000 ) ) ;
#286 = EDGE_CURVE ( 'NONE', #15, #129, #215, .T. ) ;
#287 = ORIENTED_EDGE ( 'NONE', *, *, #87, .T. ) ;
#288 = LINE ( 'NONE', #155, #98 ) ;
#289 = DIRECTION ( 'NONE',  ( -1.000000000000000000, 0.0000000000000000000, 0.0000000000000000000 ) ) ;
#290 = DIRECTION ( 'NONE',  ( 0.0000000000000000000, 0.0000000000000000000, 1.000000000000000000 ) ) ;
#291 = SPHERICAL_SURFACE ( 'NONE', #1, 0.1574799999999999811 ) ;
#292 = AXIS2_PLACEMENT_3D ( 'NONE', #52, #188, #136 ) ;
#293 = EDGE_CURVE ( 'NONE', #218, #77, #153, .T. ) ;
#294 = AXIS2_PLACEMENT_3D ( 'NONE', #195, #39, #145 ) ;
#295 = DIRECTION ( 'NONE',  ( 1.000000000000000000, 0.0000000000000000000, 0.0000000000000000000 ) ) ;
#296 = DIRECTION ( 'NONE',  ( 0.0000000000000000000, 0.0000000000000000000, -1.000000000000000000 ) ) ;
#297 = EDGE_LOOP ( 'NONE', ( #146, #94, #230, #117 ) ) ;
#298 = FACE_OUTER_BOUND ( 'NONE', #178, .T. ) ;
#299 = EDGE_CURVE ( 'NONE', #62, #218, #317, .T. ) ;
#300 = VERTEX_POINT ( 'NONE', #34 ) ;
#301 = DIMENSIONAL_EXPONENTS ( 1.000000000000000000, 0.0000000000000000000, 0.0000000000000000000, 0.0000000000000000000, 0.0000000000000000000, 0.0000000000000000000, 0.0000000000000000000 ) ;
#302 =( NAMED_UNIT ( * ) PLANE_ANGLE_UNIT ( ) SI_UNIT ( $, .RADIAN. ) );
#303 = VECTOR ( 'NONE', #320, 39.37007874015748143 ) ;
#304 = LINE ( 'NONE', #275, #103 ) ;
#305 = PRESENTATION_LAYER_ASSIGNMENT (  '', '', ( #274 ) ) ;
#306 = DIMENSIONAL_EXPONENTS ( 1.000000000000000000, 0.0000000000000000000, 0.0000000000000000000, 0.0000000000000000000, 0.0000000000000000000, 0.0000000000000000000, 0.0000000000000000000 ) ;
#307 = CARTESIAN_POINT ( 'NONE',  ( -0.1574804999999999955, 0.0000000000000000000, 3.922008000000000827 ) ) ;
#308 = EDGE_CURVE ( 'NONE', #50, #62, #134, .T. ) ;
#309 = SURFACE_SIDE_STYLE ('',( #313 ) ) ;
#310 = LINE ( 'NONE', #284, #186 ) ;
#311 = AXIS2_PLACEMENT_3D ( 'NONE', #326, #150, #250 ) ;
#312 = FACE_OUTER_BOUND ( 'NONE', #47, .T. ) ;
#313 = SURFACE_STYLE_FILL_AREA ( #199 ) ;
#314 = DIRECTION ( 'NONE',  ( 0.0000000000000000000, 0.0000000000000000000, -1.000000000000000000 ) ) ;
#315 = CARTESIAN_POINT ( 'NONE',  ( 0.0000000000000000000, 0.0000000000000000000, 0.0000000000000000000 ) ) ;
#316 = PRODUCT_RELATED_PRODUCT_CATEGORY ( 'part', '', ( #11 ) ) ;
#317 = CIRCLE ( 'NONE', #163, 0.1062989999999999768 ) ;
#318 = CARTESIAN_POINT ( 'NONE',  ( 0.1732285499999996758, 0.0000000000000000000, 2.834644269238882242 ) ) ;
#319 = FACE_OUTER_BOUND ( 'NONE', #192, .T. ) ;
#320 = DIRECTION ( 'NONE',  ( -0.7071067811865563435, 0.0000000000000000000, -0.7071067811865386910 ) ) ;
#321 =( GEOMETRIC_REPRESENTATION_CONTEXT ( 3 ) GLOBAL_UNCERTAINTY_ASSIGNED_CONTEXT ( ( #152 ) ) GLOBAL_UNIT_ASSIGNED_CONTEXT ( ( #118, #244, #8 ) ) REPRESENTATION_CONTEXT ( 'NONE', 'WORKASPACE' ) );
#322 = PLANE ( 'NONE',  #245 ) ;
#323 = EDGE_LOOP ( 'NONE', ( #100, #258, #139, #45 ) ) ;
#324 = EDGE_CURVE ( 'NONE', #9, #50, #174, .T. ) ;
#325 = DIRECTION ( 'NONE',  ( -1.000000000000000000, 0.0000000000000000000, 0.0000000000000000000 ) ) ;
#326 = CARTESIAN_POINT ( 'NONE',  ( 0.0000000000000000000, 0.0000000000000000000, 0.2736715358320045977 ) ) ;
#327 = PRODUCT_DEFINITION_FORMATION_WITH_SPECIFIED_SOURCE ( 'ANY', '', #11, .NOT_KNOWN. ) ;
#328 = CARTESIAN_POINT ( 'NONE',  ( 0.1574804999999999955, 1.928579902531247412E-17, 3.922008000000000827 ) ) ;
#329 = VERTEX_POINT ( 'NONE', #307 ) ;
#330 = LENGTH_MEASURE_WITH_UNIT ( LENGTH_MEASURE( 0.02539999999999999897 ), #276 );
#331 = CIRCLE ( 'NONE', #292, 0.1574804999999999955 ) ;
#332 = DIRECTION ( 'NONE',  ( -0.0000000000000000000, -0.0000000000000000000, -1.000000000000000000 ) ) ;
#333 = COLOUR_RGB ( '',0.7921568627450980005, 0.8196078431372548767, 0.9333333333333333481 ) ;
#334 = DIRECTION ( 'NONE',  ( 0.7071067811865563435, 8.659560562355041327E-17, -0.7071067811865386910 ) ) ;
#335 = APPLICATION_PROTOCOL_DEFINITION ( 'draft international standard', 'automotive_design', 1998, #18 ) ;
#336 = CARTESIAN_POINT ( 'NONE',  ( 0.0000000000000000000, 0.1062989999999999491, 0.2736715358320045977 ) ) ;
#337 = DIRECTION ( 'NONE',  ( -0.0000000000000000000, -0.0000000000000000000, -1.000000000000000000 ) ) ;
#338 = ORIENTED_EDGE ( 'NONE', *, *, #44, .T. ) ;
#339 = ORIENTED_EDGE ( 'NONE', *, *, #41, .T. ) ;
#340 = AXIS2_PLACEMENT_3D ( 'NONE', #196, #201, #255 ) ;
#341 = EDGE_CURVE ( 'NONE', #62, #237, #169, .T. ) ;
#342 = DIRECTION ( 'NONE',  ( 0.0000000000000000000, 1.000000000000000000, 0.0000000000000000000 ) ) ;
#343 = DIRECTION ( 'NONE',  ( 1.000000000000000000, 0.0000000000000000000, 0.0000000000000000000 ) ) ;
#344 = DIRECTION ( 'NONE',  ( 1.000000000000000000, 0.0000000000000000000, 0.0000000000000000000 ) ) ;
#345 = AXIS2_PLACEMENT_3D ( 'NONE', #241, #4, #166 ) ;
ENDSEC;
END-ISO-10303-21;
