ISO-10303-21;
HEADER;
FILE_DESCRIPTION (( 'STEP AP214' ),
    '1' );
FILE_NAME ('44377.STEP',
    '2023-06-22T20:20:52',
    ( '' ),
    ( '' ),
    'SwSTEP 2.0',
    'SolidWorks 2023',
    '' );
FILE_SCHEMA (( 'AUTOMOTIVE_DESIGN' ));
ENDSEC;

DATA;
#1 = ORIENTED_EDGE ( 'NONE', *, *, #104, .T. ) ;
#2 = SURFACE_STYLE_FILL_AREA ( #219 ) ;
#3 = SURFACE_SIDE_STYLE ('',( #246 ) ) ;
#4 = CIRCLE ( 'NONE', #126, 0.3750000000000000555 ) ;
#5 = ORIENTED_EDGE ( 'NONE', *, *, #237, .F. ) ;
#6 = PRODUCT_DEFINITION_CONTEXT ( 'detailed design', #288, 'design' ) ;
#7 = ORIENTED_EDGE ( 'NONE', *, *, #190, .T. ) ;
#8 = PRESENTATION_STYLE_ASSIGNMENT (( #183 ) ) ;
#9 = LINE ( 'NONE', #247, #20 ) ;
#10 = DIRECTION ( 'NONE',  ( 0.000000000000000000, 0.000000000000000000, -1.000000000000000000 ) ) ;
#11 = CARTESIAN_POINT ( 'NONE',  ( 4.985351078100356093E-34, 1.625000000000000000, 0.000000000000000000 ) ) ;
#12 = COLOUR_RGB ( '',1.000000000000000000, 0.000000000000000000, 0.000000000000000000 ) ;
#13 = CARTESIAN_POINT ( 'NONE',  ( 0.3750000000000000555, 4.000000000000000000, 0.000000000000000000 ) ) ;
#14 = VERTEX_POINT ( 'NONE', #198 ) ;
#15 = AXIS2_PLACEMENT_3D ( 'NONE', #142, #60, #216 ) ;
#16 =( CONVERSION_BASED_UNIT ( 'INCH', #117 ) LENGTH_UNIT ( ) NAMED_UNIT ( #274 ) );
#17 = DIRECTION ( 'NONE',  ( -0.000000000000000000, -1.000000000000000000, -0.000000000000000000 ) ) ;
#18 = VERTEX_POINT ( 'NONE', #260 ) ;
#19 = EDGE_CURVE ( 'NONE', #152, #63, #300, .T. ) ;
#20 = VECTOR ( 'NONE', #292, 39.37007874015748143 ) ;
#21 = AXIS2_PLACEMENT_3D ( 'NONE', #42, #84, #238 ) ;
#22 =( NAMED_UNIT ( * ) PLANE_ANGLE_UNIT ( ) SI_UNIT ( $, .RADIAN. ) );
#23 = VERTEX_POINT ( 'NONE', #177 ) ;
#24 = ADVANCED_FACE ( 'NONE', ( #204 ), #148, .T. ) ;
#25 = FACE_OUTER_BOUND ( 'NONE', #46, .T. ) ;
#26 = LENGTH_MEASURE_WITH_UNIT ( LENGTH_MEASURE( 0.02539999999999999897 ), #69 );
#27 = CIRCLE ( 'NONE', #153, 0.3750000000000000555 ) ;
#28 = PRODUCT_CONTEXT ( 'NONE', #248, 'mechanical' ) ;
#29 = DIRECTION ( 'NONE',  ( -1.000000000000000000, -5.156407575357275916E-17, 0.000000000000000000 ) ) ;
#30 = STYLED_ITEM ( 'NONE', ( #227 ), #285 ) ;
#31 =( LENGTH_UNIT ( ) NAMED_UNIT ( * ) SI_UNIT ( $, .METRE. ) );
#32 = EDGE_CURVE ( 'NONE', #132, #23, #56, .T. ) ;
#33 = CARTESIAN_POINT ( 'NONE',  ( -1.224646799147352714E-16, 4.000000000000000000, 0.000000000000000000 ) ) ;
#34 = CLOSED_SHELL ( 'NONE', ( #111, #90, #273, #199 ) ) ;
#35 = STYLED_ITEM ( 'NONE', ( #102 ), #276 ) ;
#36 = DIMENSIONAL_EXPONENTS ( 1.000000000000000000, 0.000000000000000000, 0.000000000000000000, 0.000000000000000000, 0.000000000000000000, 0.000000000000000000, 0.000000000000000000 ) ;
#37 = DIRECTION ( 'NONE',  ( -5.156407575357275916E-17, 1.000000000000000000, -0.000000000000000000 ) ) ;
#38 = EDGE_LOOP ( 'NONE', ( #146, #258, #122, #133 ) ) ;
#39 = DIRECTION ( 'NONE',  ( 0.000000000000000000, 0.000000000000000000, -1.000000000000000000 ) ) ;
#40 = EDGE_LOOP ( 'NONE', ( #225, #305 ) ) ;
#41 = STYLED_ITEM ( 'NONE', ( #156 ), #73 ) ;
#42 = CARTESIAN_POINT ( 'NONE',  ( 0.000000000000000000, 0.000000000000000000, 0.000000000000000000 ) ) ;
#43 = ORIENTED_EDGE ( 'NONE', *, *, #220, .F. ) ;
#44 =( NAMED_UNIT ( * ) SI_UNIT ( $, .STERADIAN. ) SOLID_ANGLE_UNIT ( ) );
#45 =( CONVERSION_BASED_UNIT ( 'INCH', #147 ) LENGTH_UNIT ( ) NAMED_UNIT ( #302 ) );
#46 = EDGE_LOOP ( 'NONE', ( #89, #124 ) ) ;
#47 = CARTESIAN_POINT ( 'NONE',  ( 0.000000000000000000, 0.000000000000000000, 0.000000000000000000 ) ) ;
#48 = FILL_AREA_STYLE_COLOUR ( '', #12 ) ;
#49 = LENGTH_MEASURE_WITH_UNIT ( LENGTH_MEASURE( 0.02539999999999999897 ), #203 );
#50 =( CONVERSION_BASED_UNIT ( 'INCH', #26 ) LENGTH_UNIT ( ) NAMED_UNIT ( #296 ) );
#51 = STYLED_ITEM ( 'NONE', ( #155 ), #24 ) ;
#52 = DIRECTION ( 'NONE',  ( -5.156407575357275299E-17, 1.000000000000000000, -0.000000000000000000 ) ) ;
#53 = FILL_AREA_STYLE_COLOUR ( '', #100 ) ;
#54 = CARTESIAN_POINT ( 'NONE',  ( 0.000000000000000000, 0.000000000000000000, -0.3750000000000000555 ) ) ;
#55 = CARTESIAN_POINT ( 'NONE',  ( 0.3750000000000000555, 1.625000000000000000, 4.592425496802576684E-17 ) ) ;
#56 = CIRCLE ( 'NONE', #83, 0.3750000000000000555 ) ;
#57 =( GEOMETRIC_REPRESENTATION_CONTEXT ( 3 ) GLOBAL_UNCERTAINTY_ASSIGNED_CONTEXT ( ( #181 ) ) GLOBAL_UNIT_ASSIGNED_CONTEXT ( ( #16, #215, #44 ) ) REPRESENTATION_CONTEXT ( 'NONE', 'WORKASPACE' ) );
#58 = DIRECTION ( 'NONE',  ( 1.000000000000000000, 0.000000000000000000, 0.000000000000000000 ) ) ;
#59 = FACE_OUTER_BOUND ( 'NONE', #40, .T. ) ;
#60 = DIRECTION ( 'NONE',  ( -5.156407575357275299E-17, 1.000000000000000000, -0.000000000000000000 ) ) ;
#61 = ADVANCED_FACE ( 'NONE', ( #287 ), #75, .T. ) ;
#62 = DIRECTION ( 'NONE',  ( 5.156407575357275916E-17, -1.000000000000000000, 0.000000000000000000 ) ) ;
#63 = VERTEX_POINT ( 'NONE', #55 ) ;
#64 = DIRECTION ( 'NONE',  ( -0.000000000000000000, -1.000000000000000000, -0.000000000000000000 ) ) ;
#65 = MECHANICAL_DESIGN_GEOMETRIC_PRESENTATION_REPRESENTATION (  '', ( #244 ), #282 ) ;
#66 = DIRECTION ( 'NONE',  ( -1.000000000000000000, 0.000000000000000000, 0.000000000000000000 ) ) ;
#67 = ORIENTED_EDGE ( 'NONE', *, *, #220, .T. ) ;
#68 =( LENGTH_UNIT ( ) NAMED_UNIT ( * ) SI_UNIT ( $, .METRE. ) );
#69 =( LENGTH_UNIT ( ) NAMED_UNIT ( * ) SI_UNIT ( $, .METRE. ) );
#70 = SURFACE_SIDE_STYLE ('',( #98 ) ) ;
#71 = FILL_AREA_STYLE ('',( #48 ) ) ;
#72 = UNCERTAINTY_MEASURE_WITH_UNIT (LENGTH_MEASURE( 1.000000000000000082E-05 ), #295, 'distance_accuracy_value', 'NONE');
#73 = MANIFOLD_SOLID_BREP ( 'Revolve - Tool Body (Straight Shanked)', #34 ) ;
#74 = EDGE_CURVE ( 'NONE', #14, #23, #232, .T. ) ;
#75 = CYLINDRICAL_SURFACE ( 'NONE', #235, 0.3750000000000000555 ) ;
#76 =( GEOMETRIC_REPRESENTATION_CONTEXT ( 3 ) GLOBAL_UNCERTAINTY_ASSIGNED_CONTEXT ( ( #125 ) ) GLOBAL_UNIT_ASSIGNED_CONTEXT ( ( #50, #106, #283 ) ) REPRESENTATION_CONTEXT ( 'NONE', 'WORKASPACE' ) );
#77 = CIRCLE ( 'NONE', #21, 0.3750000000000000555 ) ;
#78 = CARTESIAN_POINT ( 'NONE',  ( 3.032960542342103792E-32, 1.625000000000000000, 0.000000000000000000 ) ) ;
#79 = EDGE_CURVE ( 'NONE', #63, #152, #27, .T. ) ;
#80 = CARTESIAN_POINT ( 'NONE',  ( 0.000000000000000000, 0.000000000000000000, 0.000000000000000000 ) ) ;
#81 = APPLICATION_PROTOCOL_DEFINITION ( 'draft international standard', 'automotive_design', 1998, #248 ) ;
#82 = DIRECTION ( 'NONE',  ( -0.000000000000000000, -1.000000000000000000, -0.000000000000000000 ) ) ;
#83 = AXIS2_PLACEMENT_3D ( 'NONE', #47, #241, #206 ) ;
#84 = DIRECTION ( 'NONE',  ( -0.000000000000000000, -1.000000000000000000, -0.000000000000000000 ) ) ;
#85 = FILL_AREA_STYLE_COLOUR ( '', #208 ) ;
#86 = AXIS2_PLACEMENT_3D ( 'NONE', #257, #52, #279 ) ;
#87 = DIMENSIONAL_EXPONENTS ( 1.000000000000000000, 0.000000000000000000, 0.000000000000000000, 0.000000000000000000, 0.000000000000000000, 0.000000000000000000, 0.000000000000000000 ) ;
#88 = CARTESIAN_POINT ( 'NONE',  ( 0.000000000000000000, 0.000000000000000000, 0.000000000000000000 ) ) ;
#89 = ORIENTED_EDGE ( 'NONE', *, *, #230, .T. ) ;
#90 = ADVANCED_FACE ( 'NONE', ( #59 ), #182, .F. ) ;
#91 = SURFACE_STYLE_FILL_AREA ( #299 ) ;
#92 = ORIENTED_EDGE ( 'NONE', *, *, #237, .T. ) ;
#93 = CARTESIAN_POINT ( 'NONE',  ( -1.224646799147352714E-16, 4.000000000000000000, 0.000000000000000000 ) ) ;
#94 = EDGE_LOOP ( 'NONE', ( #180, #108, #1, #118 ) ) ;
#95 = DIRECTION ( 'NONE',  ( 0.000000000000000000, -1.000000000000000000, -0.000000000000000000 ) ) ;
#96 =( NAMED_UNIT ( * ) SI_UNIT ( $, .STERADIAN. ) SOLID_ANGLE_UNIT ( ) );
#97 = DIRECTION ( 'NONE',  ( 0.000000000000000000, 1.000000000000000000, 0.000000000000000000 ) ) ;
#98 = SURFACE_STYLE_FILL_AREA ( #281 ) ;
#99 = FILL_AREA_STYLE ('',( #280 ) ) ;
#100 = COLOUR_RGB ( '',0.7921568627450980005, 0.8196078431372548767, 0.9333333333333333481 ) ;
#101 =( GEOMETRIC_REPRESENTATION_CONTEXT ( 3 ) GLOBAL_UNCERTAINTY_ASSIGNED_CONTEXT ( ( #197 ) ) GLOBAL_UNIT_ASSIGNED_CONTEXT ( ( #45, #22, #96 ) ) REPRESENTATION_CONTEXT ( 'NONE', 'WORKASPACE' ) );
#102 = PRESENTATION_STYLE_ASSIGNMENT (( #129 ) ) ;
#103 = EDGE_LOOP ( 'NONE', ( #173, #217, #5, #193 ) ) ;
#104 = EDGE_CURVE ( 'NONE', #152, #239, #9, .T. ) ;
#105 =( NAMED_UNIT ( * ) SI_UNIT ( $, .STERADIAN. ) SOLID_ANGLE_UNIT ( ) );
#106 =( NAMED_UNIT ( * ) PLANE_ANGLE_UNIT ( ) SI_UNIT ( $, .RADIAN. ) );
#107 = DIRECTION ( 'NONE',  ( 0.000000000000000000, 0.000000000000000000, 1.000000000000000000 ) ) ;
#108 = ORIENTED_EDGE ( 'NONE', *, *, #79, .T. ) ;
#109 = AXIS2_PLACEMENT_3D ( 'NONE', #13, #62, #114 ) ;
#110 =( CONVERSION_BASED_UNIT ( 'INCH', #209 ) LENGTH_UNIT ( ) NAMED_UNIT ( #115 ) );
#111 = ADVANCED_FACE ( 'NONE', ( #268 ), #163, .T. ) ;
#112 = DIRECTION ( 'NONE',  ( -5.156407575357275299E-17, 1.000000000000000000, -0.000000000000000000 ) ) ;
#113 = COLOUR_RGB ( '',1.000000000000000000, 0.000000000000000000, 0.000000000000000000 ) ;
#114 = DIRECTION ( 'NONE',  ( 1.000000000000000000, 5.156407575357275916E-17, 0.000000000000000000 ) ) ;
#115 = DIMENSIONAL_EXPONENTS ( 1.000000000000000000, 0.000000000000000000, 0.000000000000000000, 0.000000000000000000, 0.000000000000000000, 0.000000000000000000, 0.000000000000000000 ) ;
#116 = PLANE ( 'NONE',  #109 ) ;
#117 = LENGTH_MEASURE_WITH_UNIT ( LENGTH_MEASURE( 0.02539999999999999897 ), #145 );
#118 = ORIENTED_EDGE ( 'NONE', *, *, #190, .F. ) ;
#119 = CLOSED_SHELL ( 'NONE', ( #136, #24, #61, #285 ) ) ;
#120 = CIRCLE ( 'NONE', #267, 0.3750000000000001665 ) ;
#121 = FACE_OUTER_BOUND ( 'NONE', #94, .T. ) ;
#122 = ORIENTED_EDGE ( 'NONE', *, *, #74, .T. ) ;
#123 = CARTESIAN_POINT ( 'NONE',  ( -0.3750000000000002776, 4.000000000000000000, 0.000000000000000000 ) ) ;
#124 = ORIENTED_EDGE ( 'NONE', *, *, #32, .T. ) ;
#125 = UNCERTAINTY_MEASURE_WITH_UNIT (LENGTH_MEASURE( 1.000000000000000082E-05 ), #50, 'distance_accuracy_value', 'NONE');
#126 = AXIS2_PLACEMENT_3D ( 'NONE', #167, #17, #251 ) ;
#127 = ORIENTED_EDGE ( 'NONE', *, *, #185, .F. ) ;
#128 = VERTEX_POINT ( 'NONE', #137 ) ;
#129 = SURFACE_STYLE_USAGE ( .BOTH. , #179 ) ;
#130 = SURFACE_SIDE_STYLE ('',( #242 ) ) ;
#131 = PRODUCT_RELATED_PRODUCT_CATEGORY ( 'part', '', ( #162 ) ) ;
#132 = VERTEX_POINT ( 'NONE', #270 ) ;
#133 = ORIENTED_EDGE ( 'NONE', *, *, #32, .F. ) ;
#134 = CIRCLE ( 'NONE', #15, 0.3750000000000001665 ) ;
#135 =( NAMED_UNIT ( * ) SI_UNIT ( $, .STERADIAN. ) SOLID_ANGLE_UNIT ( ) );
#136 = ADVANCED_FACE ( 'NONE', ( #191 ), #139, .T. ) ;
#137 = CARTESIAN_POINT ( 'NONE',  ( 0.3750000000000000555, 4.000000000000000000, 4.592425496802576684E-17 ) ) ;
#138 = MECHANICAL_DESIGN_GEOMETRIC_PRESENTATION_REPRESENTATION (  '', ( #175 ), #57 ) ;
#139 = CYLINDRICAL_SURFACE ( 'NONE', #271, 0.3750000000000000555 ) ;
#140 = EDGE_CURVE ( 'NONE', #18, #132, #144, .T. ) ;
#141 = FILL_AREA_STYLE_COLOUR ( '', #143 ) ;
#142 = CARTESIAN_POINT ( 'NONE',  ( -1.224646799147352714E-16, 4.000000000000000000, 0.000000000000000000 ) ) ;
#143 = COLOUR_RGB ( '',0.7921568627450980005, 0.8196078431372548767, 0.9333333333333333481 ) ;
#144 = LINE ( 'NONE', #169, #245 ) ;
#145 =( LENGTH_UNIT ( ) NAMED_UNIT ( * ) SI_UNIT ( $, .METRE. ) );
#146 = ORIENTED_EDGE ( 'NONE', *, *, #140, .F. ) ;
#147 = LENGTH_MEASURE_WITH_UNIT ( LENGTH_MEASURE( 0.02539999999999999897 ), #68 );
#148 = PLANE ( 'NONE',  #158 ) ;
#149 =( CONVERSION_BASED_UNIT ( 'INCH', #200 ) LENGTH_UNIT ( ) NAMED_UNIT ( #87 ) );
#150 = DIRECTION ( 'NONE',  ( 0.000000000000000000, -0.000000000000000000, 1.000000000000000000 ) ) ;
#151 = UNCERTAINTY_MEASURE_WITH_UNIT (LENGTH_MEASURE( 1.000000000000000082E-05 ), #176, 'distance_accuracy_value', 'NONE');
#152 = VERTEX_POINT ( 'NONE', #272 ) ;
#153 = AXIS2_PLACEMENT_3D ( 'NONE', #78, #262, #186 ) ;
#154 = AXIS2_PLACEMENT_3D ( 'NONE', #11, #164, #29 ) ;
#155 = PRESENTATION_STYLE_ASSIGNMENT (( #286 ) ) ;
#156 = PRESENTATION_STYLE_ASSIGNMENT (( #157 ) ) ;
#157 = SURFACE_STYLE_USAGE ( .BOTH. , #210 ) ;
#158 = AXIS2_PLACEMENT_3D ( 'NONE', #309, #97, #150 ) ;
#159 = AXIS2_PLACEMENT_3D ( 'NONE', #33, #112, #214 ) ;
#160 =( LENGTH_UNIT ( ) NAMED_UNIT ( * ) SI_UNIT ( $, .METRE. ) );
#161 = DIMENSIONAL_EXPONENTS ( 1.000000000000000000, 0.000000000000000000, 0.000000000000000000, 0.000000000000000000, 0.000000000000000000, 0.000000000000000000, 0.000000000000000000 ) ;
#162 = PRODUCT ( '44377', '44377', '', ( #28 ) ) ;
#163 = CYLINDRICAL_SURFACE ( 'NONE', #159, 0.3750000000000001110 ) ;
#164 = DIRECTION ( 'NONE',  ( -5.156407575357275916E-17, 1.000000000000000000, 0.000000000000000000 ) ) ;
#165 = MECHANICAL_DESIGN_GEOMETRIC_PRESENTATION_REPRESENTATION (  '', ( #41 ), #171 ) ;
#166 = AXIS2_PLACEMENT_3D ( 'NONE', #250, #170, #39 ) ;
#167 = CARTESIAN_POINT ( 'NONE',  ( 0.000000000000000000, 1.625000000000000000, 0.000000000000000000 ) ) ;
#168 = EDGE_LOOP ( 'NONE', ( #43, #127 ) ) ;
#169 = CARTESIAN_POINT ( 'NONE',  ( 4.592425496802575451E-17, 0.000000000000000000, 0.3750000000000000555 ) ) ;
#170 = DIRECTION ( 'NONE',  ( -0.000000000000000000, -1.000000000000000000, -0.000000000000000000 ) ) ;
#171 =( GEOMETRIC_REPRESENTATION_CONTEXT ( 3 ) GLOBAL_UNCERTAINTY_ASSIGNED_CONTEXT ( ( #72 ) ) GLOBAL_UNIT_ASSIGNED_CONTEXT ( ( #295, #229, #290 ) ) REPRESENTATION_CONTEXT ( 'NONE', 'WORKASPACE' ) );
#172 = DIRECTION ( 'NONE',  ( 0.000000000000000000, 0.000000000000000000, -1.000000000000000000 ) ) ;
#173 = ORIENTED_EDGE ( 'NONE', *, *, #19, .T. ) ;
#174 = ORIENTED_EDGE ( 'NONE', *, *, #74, .F. ) ;
#175 = STYLED_ITEM ( 'NONE', ( #189 ), #136 ) ;
#176 =( CONVERSION_BASED_UNIT ( 'INCH', #49 ) LENGTH_UNIT ( ) NAMED_UNIT ( #161 ) );
#177 = CARTESIAN_POINT ( 'NONE',  ( 0.000000000000000000, 0.000000000000000000, -0.3750000000000000555 ) ) ;
#178 =( NAMED_UNIT ( * ) PLANE_ANGLE_UNIT ( ) SI_UNIT ( $, .RADIAN. ) );
#179 = SURFACE_SIDE_STYLE ('',( #2 ) ) ;
#180 = ORIENTED_EDGE ( 'NONE', *, *, #243, .F. ) ;
#181 = UNCERTAINTY_MEASURE_WITH_UNIT (LENGTH_MEASURE( 1.000000000000000082E-05 ), #16, 'distance_accuracy_value', 'NONE');
#182 = PLANE ( 'NONE',  #154 ) ;
#183 = SURFACE_STYLE_USAGE ( .BOTH. , #130 ) ;
#184 = APPLICATION_PROTOCOL_DEFINITION ( 'draft international standard', 'automotive_design', 1998, #288 ) ;
#185 = EDGE_CURVE ( 'NONE', #18, #14, #306, .T. ) ;
#186 = DIRECTION ( 'NONE',  ( -1.000000000000000000, 0.000000000000000000, 0.000000000000000000 ) ) ;
#187 = DIRECTION ( 'NONE',  ( -5.156407575357275299E-17, 1.000000000000000000, -0.000000000000000000 ) ) ;
#188 = DIRECTION ( 'NONE',  ( -0.000000000000000000, -1.000000000000000000, -0.000000000000000000 ) ) ;
#189 = PRESENTATION_STYLE_ASSIGNMENT (( #297 ) ) ;
#190 = EDGE_CURVE ( 'NONE', #128, #239, #120, .T. ) ;
#191 = FACE_OUTER_BOUND ( 'NONE', #201, .T. ) ;
#192 = MECHANICAL_DESIGN_GEOMETRIC_PRESENTATION_REPRESENTATION (  '', ( #51 ), #76 ) ;
#193 = ORIENTED_EDGE ( 'NONE', *, *, #104, .F. ) ;
#194 = PRESENTATION_LAYER_ASSIGNMENT (  '', '', ( #30 ) ) ;
#195 = AXIS2_PLACEMENT_3D ( 'NONE', #291, #107, #58 ) ;
#196 = DIRECTION ( 'NONE',  ( 0.000000000000000000, 0.000000000000000000, -1.000000000000000000 ) ) ;
#197 = UNCERTAINTY_MEASURE_WITH_UNIT (LENGTH_MEASURE( 1.000000000000000082E-05 ), #45, 'distance_accuracy_value', 'NONE');
#198 = CARTESIAN_POINT ( 'NONE',  ( 0.000000000000000000, 1.625000000000000000, -0.3750000000000000555 ) ) ;
#199 = ADVANCED_FACE ( 'NONE', ( #233 ), #116, .F. ) ;
#200 = LENGTH_MEASURE_WITH_UNIT ( LENGTH_MEASURE( 0.02539999999999999897 ), #223 );
#201 = EDGE_LOOP ( 'NONE', ( #67, #228, #275, #174 ) ) ;
#202 = PRODUCT_DEFINITION_FORMATION_WITH_SPECIFIED_SOURCE ( 'ANY', '', #162, .NOT_KNOWN. ) ;
#203 =( LENGTH_UNIT ( ) NAMED_UNIT ( * ) SI_UNIT ( $, .METRE. ) );
#204 = FACE_OUTER_BOUND ( 'NONE', #168, .T. ) ;
#205 =( NAMED_UNIT ( * ) SI_UNIT ( $, .STERADIAN. ) SOLID_ANGLE_UNIT ( ) );
#206 = DIRECTION ( 'NONE',  ( 0.000000000000000000, 0.000000000000000000, -1.000000000000000000 ) ) ;
#207 = PRODUCT_DEFINITION ( 'UNKNOWN', '', #202, #6 ) ;
#208 = COLOUR_RGB ( '',1.000000000000000000, 0.000000000000000000, 0.000000000000000000 ) ;
#209 = LENGTH_MEASURE_WITH_UNIT ( LENGTH_MEASURE( 0.02539999999999999897 ), #31 );
#210 = SURFACE_SIDE_STYLE ('',( #231 ) ) ;
#211 = LENGTH_MEASURE_WITH_UNIT ( LENGTH_MEASURE( 0.02539999999999999897 ), #160 );
#212 = VECTOR ( 'NONE', #82, 39.37007874015748143 ) ;
#213 = MECHANICAL_DESIGN_GEOMETRIC_PRESENTATION_REPRESENTATION (  '', ( #30 ), #226 ) ;
#214 = DIRECTION ( 'NONE',  ( -1.000000000000000000, 0.000000000000000000, 0.000000000000000000 ) ) ;
#215 =( NAMED_UNIT ( * ) PLANE_ANGLE_UNIT ( ) SI_UNIT ( $, .RADIAN. ) );
#216 = DIRECTION ( 'NONE',  ( -1.000000000000000000, 0.000000000000000000, 0.000000000000000000 ) ) ;
#217 = ORIENTED_EDGE ( 'NONE', *, *, #243, .T. ) ;
#218 = PRESENTATION_LAYER_ASSIGNMENT (  '', '', ( #244 ) ) ;
#219 = FILL_AREA_STYLE ('',( #141 ) ) ;
#220 = EDGE_CURVE ( 'NONE', #14, #18, #4, .T. ) ;
#221 = CARTESIAN_POINT ( 'NONE',  ( 0.3749999999999999445, 4.000000000000000000, 4.592425496802576068E-17 ) ) ;
#222 = UNCERTAINTY_MEASURE_WITH_UNIT (LENGTH_MEASURE( 1.000000000000000082E-05 ), #110, 'distance_accuracy_value', 'NONE');
#223 =( LENGTH_UNIT ( ) NAMED_UNIT ( * ) SI_UNIT ( $, .METRE. ) );
#224 = SURFACE_STYLE_USAGE ( .BOTH. , #70 ) ;
#225 = ORIENTED_EDGE ( 'NONE', *, *, #19, .F. ) ;
#226 =( GEOMETRIC_REPRESENTATION_CONTEXT ( 3 ) GLOBAL_UNCERTAINTY_ASSIGNED_CONTEXT ( ( #151 ) ) GLOBAL_UNIT_ASSIGNED_CONTEXT ( ( #176, #256, #105 ) ) REPRESENTATION_CONTEXT ( 'NONE', 'WORKASPACE' ) );
#227 = PRESENTATION_STYLE_ASSIGNMENT (( #224 ) ) ;
#228 = ORIENTED_EDGE ( 'NONE', *, *, #140, .T. ) ;
#229 =( NAMED_UNIT ( * ) PLANE_ANGLE_UNIT ( ) SI_UNIT ( $, .RADIAN. ) );
#230 = EDGE_CURVE ( 'NONE', #23, #132, #77, .T. ) ;
#231 = SURFACE_STYLE_FILL_AREA ( #269 ) ;
#232 = LINE ( 'NONE', #54, #212 ) ;
#233 = FACE_OUTER_BOUND ( 'NONE', #254, .T. ) ;
#234 = FILL_AREA_STYLE_COLOUR ( '', #113 ) ;
#235 = AXIS2_PLACEMENT_3D ( 'NONE', #80, #264, #10 ) ;
#236 = MECHANICAL_DESIGN_GEOMETRIC_PRESENTATION_REPRESENTATION (  '', ( #35 ), #294 ) ;
#237 = EDGE_CURVE ( 'NONE', #239, #128, #134, .T. ) ;
#238 = DIRECTION ( 'NONE',  ( 0.000000000000000000, 0.000000000000000000, -1.000000000000000000 ) ) ;
#239 = VERTEX_POINT ( 'NONE', #123 ) ;
#240 = DIRECTION ( 'NONE',  ( -1.000000000000000000, 0.000000000000000000, 0.000000000000000000 ) ) ;
#241 = DIRECTION ( 'NONE',  ( -0.000000000000000000, -1.000000000000000000, -0.000000000000000000 ) ) ;
#242 = SURFACE_STYLE_FILL_AREA ( #71 ) ;
#243 = EDGE_CURVE ( 'NONE', #63, #128, #249, .T. ) ;
#244 = STYLED_ITEM ( 'NONE', ( #8 ), #61 ) ;
#245 = VECTOR ( 'NONE', #188, 39.37007874015748143 ) ;
#246 = SURFACE_STYLE_FILL_AREA ( #99 ) ;
#247 = CARTESIAN_POINT ( 'NONE',  ( -0.3750000000000002220, 4.000000000000000000, 0.000000000000000000 ) ) ;
#248 = APPLICATION_CONTEXT ( 'automotive_design' ) ;
#249 = LINE ( 'NONE', #221, #278 ) ;
#250 = CARTESIAN_POINT ( 'NONE',  ( 0.000000000000000000, 1.625000000000000000, 0.000000000000000000 ) ) ;
#251 = DIRECTION ( 'NONE',  ( 0.000000000000000000, 0.000000000000000000, -1.000000000000000000 ) ) ;
#252 = PRESENTATION_LAYER_ASSIGNMENT (  '', '', ( #35 ) ) ;
#253 = SURFACE_SIDE_STYLE ('',( #91 ) ) ;
#254 = EDGE_LOOP ( 'NONE', ( #92, #7 ) ) ;
#255 = COLOUR_RGB ( '',1.000000000000000000, 0.000000000000000000, 0.000000000000000000 ) ;
#256 =( NAMED_UNIT ( * ) PLANE_ANGLE_UNIT ( ) SI_UNIT ( $, .RADIAN. ) );
#257 = CARTESIAN_POINT ( 'NONE',  ( 3.032960542342103792E-32, 1.625000000000000000, 0.000000000000000000 ) ) ;
#258 = ORIENTED_EDGE ( 'NONE', *, *, #185, .T. ) ;
#259 = PLANE ( 'NONE',  #301 ) ;
#260 = CARTESIAN_POINT ( 'NONE',  ( 4.592425496802575451E-17, 1.625000000000000000, 0.3750000000000000555 ) ) ;
#261 =( NAMED_UNIT ( * ) PLANE_ANGLE_UNIT ( ) SI_UNIT ( $, .RADIAN. ) );
#262 = DIRECTION ( 'NONE',  ( -5.156407575357275299E-17, 1.000000000000000000, -0.000000000000000000 ) ) ;
#263 = PRODUCT_DEFINITION_SHAPE ( 'NONE', 'NONE',  #207 ) ;
#264 = DIRECTION ( 'NONE',  ( -0.000000000000000000, -1.000000000000000000, -0.000000000000000000 ) ) ;
#265 = PRESENTATION_LAYER_ASSIGNMENT (  '', '', ( #41 ) ) ;
#266 = SHAPE_DEFINITION_REPRESENTATION ( #263, #298 ) ;
#267 = AXIS2_PLACEMENT_3D ( 'NONE', #303, #187, #240 ) ;
#268 = FACE_OUTER_BOUND ( 'NONE', #103, .T. ) ;
#269 = FILL_AREA_STYLE ('',( #53 ) ) ;
#270 = CARTESIAN_POINT ( 'NONE',  ( 4.592425496802575451E-17, 0.000000000000000000, 0.3750000000000000555 ) ) ;
#271 = AXIS2_PLACEMENT_3D ( 'NONE', #88, #64, #172 ) ;
#272 = CARTESIAN_POINT ( 'NONE',  ( -0.3750000000000000555, 1.625000000000000000, 0.000000000000000000 ) ) ;
#273 = ADVANCED_FACE ( 'NONE', ( #121 ), #304, .T. ) ;
#274 = DIMENSIONAL_EXPONENTS ( 1.000000000000000000, 0.000000000000000000, 0.000000000000000000, 0.000000000000000000, 0.000000000000000000, 0.000000000000000000, 0.000000000000000000 ) ;
#275 = ORIENTED_EDGE ( 'NONE', *, *, #230, .F. ) ;
#276 = MANIFOLD_SOLID_BREP ( 'Revolve - Cutting Edge', #119 ) ;
#277 = DIRECTION ( 'NONE',  ( -5.156407575357275299E-17, 1.000000000000000000, -0.000000000000000000 ) ) ;
#278 = VECTOR ( 'NONE', #37, 39.37007874015748143 ) ;
#279 = DIRECTION ( 'NONE',  ( -1.000000000000000000, 0.000000000000000000, 0.000000000000000000 ) ) ;
#280 = FILL_AREA_STYLE_COLOUR ( '', #255 ) ;
#281 = FILL_AREA_STYLE ('',( #234 ) ) ;
#282 =( GEOMETRIC_REPRESENTATION_CONTEXT ( 3 ) GLOBAL_UNCERTAINTY_ASSIGNED_CONTEXT ( ( #222 ) ) GLOBAL_UNIT_ASSIGNED_CONTEXT ( ( #110, #261, #135 ) ) REPRESENTATION_CONTEXT ( 'NONE', 'WORKASPACE' ) );
#283 =( NAMED_UNIT ( * ) SI_UNIT ( $, .STERADIAN. ) SOLID_ANGLE_UNIT ( ) );
#284 = AXIS2_PLACEMENT_3D ( 'NONE', #93, #277, #66 ) ;
#285 = ADVANCED_FACE ( 'NONE', ( #25 ), #259, .T. ) ;
#286 = SURFACE_STYLE_USAGE ( .BOTH. , #3 ) ;
#287 = FACE_OUTER_BOUND ( 'NONE', #38, .T. ) ;
#288 = APPLICATION_CONTEXT ( 'automotive_design' ) ;
#289 = PRESENTATION_LAYER_ASSIGNMENT (  '', '', ( #175 ) ) ;
#290 =( NAMED_UNIT ( * ) SI_UNIT ( $, .STERADIAN. ) SOLID_ANGLE_UNIT ( ) );
#291 = CARTESIAN_POINT ( 'NONE',  ( 0.000000000000000000, 0.000000000000000000, 0.000000000000000000 ) ) ;
#292 = DIRECTION ( 'NONE',  ( -5.156407575357275916E-17, 1.000000000000000000, -0.000000000000000000 ) ) ;
#293 = PRESENTATION_LAYER_ASSIGNMENT (  '', '', ( #51 ) ) ;
#294 =( GEOMETRIC_REPRESENTATION_CONTEXT ( 3 ) GLOBAL_UNCERTAINTY_ASSIGNED_CONTEXT ( ( #308 ) ) GLOBAL_UNIT_ASSIGNED_CONTEXT ( ( #149, #178, #205 ) ) REPRESENTATION_CONTEXT ( 'NONE', 'WORKASPACE' ) );
#295 =( CONVERSION_BASED_UNIT ( 'INCH', #211 ) LENGTH_UNIT ( ) NAMED_UNIT ( #36 ) );
#296 = DIMENSIONAL_EXPONENTS ( 1.000000000000000000, 0.000000000000000000, 0.000000000000000000, 0.000000000000000000, 0.000000000000000000, 0.000000000000000000, 0.000000000000000000 ) ;
#297 = SURFACE_STYLE_USAGE ( .BOTH. , #253 ) ;
#298 = ADVANCED_BREP_SHAPE_REPRESENTATION ( '44377', ( #276, #73, #195 ), #101 ) ;
#299 = FILL_AREA_STYLE ('',( #85 ) ) ;
#300 = CIRCLE ( 'NONE', #86, 0.3750000000000000555 ) ;
#301 = AXIS2_PLACEMENT_3D ( 'NONE', #307, #95, #196 ) ;
#302 = DIMENSIONAL_EXPONENTS ( 1.000000000000000000, 0.000000000000000000, 0.000000000000000000, 0.000000000000000000, 0.000000000000000000, 0.000000000000000000, 0.000000000000000000 ) ;
#303 = CARTESIAN_POINT ( 'NONE',  ( -1.224646799147352714E-16, 4.000000000000000000, 0.000000000000000000 ) ) ;
#304 = CYLINDRICAL_SURFACE ( 'NONE', #284, 0.3750000000000001110 ) ;
#305 = ORIENTED_EDGE ( 'NONE', *, *, #79, .F. ) ;
#306 = CIRCLE ( 'NONE', #166, 0.3750000000000000555 ) ;
#307 = CARTESIAN_POINT ( 'NONE',  ( 0.000000000000000000, 0.000000000000000000, 0.000000000000000000 ) ) ;
#308 = UNCERTAINTY_MEASURE_WITH_UNIT (LENGTH_MEASURE( 1.000000000000000082E-05 ), #149, 'distance_accuracy_value', 'NONE');
#309 = CARTESIAN_POINT ( 'NONE',  ( 0.000000000000000000, 1.625000000000000000, 0.000000000000000000 ) ) ;
ENDSEC;
END-ISO-10303-21;
