ISO-10303-21;
HEADER;
FILE_DESCRIPTION (( 'STEP AP214' ),
    '1' );
FILE_NAME ('Micro_SME-006-2.STEP',
    '2021-09-02T09:36:17',
    ( '' ),
    ( '' ),
    'SwSTEP 2.0',
    'SolidWorks 2020',
    '' );
FILE_SCHEMA (( 'AUTOMOTIVE_DESIGN' ));
ENDSEC;

DATA;
#1 = FACE_OUTER_BOUND ( 'NONE', #80, .T. ) ;
#2 = FACE_OUTER_BOUND ( 'NONE', #289, .T. ) ;
#3 = CARTESIAN_POINT ( 'NONE',  ( 0.06250000000000002776, 7.654042494670959086E-18, 1.500000000000000222 ) ) ;
#4 = VERTEX_POINT ( 'NONE', #203 ) ;
#5 = DIRECTION ( 'NONE',  ( 0.0000000000000000000, 0.0000000000000000000, -1.000000000000000000 ) ) ;
#6 = VERTEX_POINT ( 'NONE', #150 ) ;
#7 = DIRECTION ( 'NONE',  ( 0.0000000000000000000, 0.0000000000000000000, -1.000000000000000000 ) ) ;
#8 = PRODUCT ( 'Micro_SME-006-2', 'Micro_SME-006-2', '', ( #59 ) ) ;
#9 =( NAMED_UNIT ( * ) SI_UNIT ( $, .STERADIAN. ) SOLID_ANGLE_UNIT ( ) );
#10 = ORIENTED_EDGE ( 'NONE', *, *, #228, .T. ) ;
#11 = DIRECTION ( 'NONE',  ( 1.000000000000000000, 0.0000000000000000000, 0.0000000000000000000 ) ) ;
#12 = ORIENTED_EDGE ( 'NONE', *, *, #67, .F. ) ;
#13 = DIRECTION ( 'NONE',  ( -1.224646799147353700E-16, -0.0000000000000000000, -1.000000000000000000 ) ) ;
#14 = SHAPE_DEFINITION_REPRESENTATION ( #58, #208 ) ;
#15 = PRODUCT_RELATED_PRODUCT_CATEGORY ( 'part', '', ( #8 ) ) ;
#16 = ORIENTED_EDGE ( 'NONE', *, *, #74, .F. ) ;
#17 = ORIENTED_EDGE ( 'NONE', *, *, #293, .F. ) ;
#18 = AXIS2_PLACEMENT_3D ( 'NONE', #252, #13, #271 ) ;
#19 = AXIS2_PLACEMENT_3D ( 'NONE', #245, #263, #103 ) ;
#20 = CARTESIAN_POINT ( 'NONE',  ( 0.0000000000000000000, 0.0000000000000000000, 1.500000000000000222 ) ) ;
#21 = DIRECTION ( 'NONE',  ( 0.1736481776669313859, 0.0000000000000000000, 0.9848077530122077983 ) ) ;
#22 = DIRECTION ( 'NONE',  ( -1.224646799147353700E-16, -0.0000000000000000000, -1.000000000000000000 ) ) ;
#23 = EDGE_CURVE ( 'NONE', #273, #124, #230, .T. ) ;
#24 = COLOUR_RGB ( '',0.7921568627450980005, 0.8196078431372548767, 0.9333333333333333481 ) ;
#25 = PRESENTATION_LAYER_ASSIGNMENT (  '', '', ( #178 ) ) ;
#26 = DIRECTION ( 'NONE',  ( 1.000000000000000000, 0.0000000000000000000, 0.0000000000000000000 ) ) ;
#27 = CARTESIAN_POINT ( 'NONE',  ( 4.242890262274222123E-17, 0.0000000000000000000, 0.3464582821127109025 ) ) ;
#28 = ADVANCED_FACE ( 'NONE', ( #171 ), #121, .T. ) ;
#29 = CARTESIAN_POINT ( 'NONE',  ( 4.242890262274222123E-17, 0.0000000000000000000, 0.3464582821127109025 ) ) ;
#30 = CIRCLE ( 'NONE', #196, 0.04750000000000064587 ) ;
#31 = DIRECTION ( 'NONE',  ( -0.0000000000000000000, -0.0000000000000000000, -1.000000000000000000 ) ) ;
#32 = ADVANCED_FACE ( 'NONE', ( #278 ), #82, .T. ) ;
#33 = UNCERTAINTY_MEASURE_WITH_UNIT (LENGTH_MEASURE( 1.000000000000000082E-05 ), #73, 'distance_accuracy_value', 'NONE');
#34 = ADVANCED_FACE ( 'NONE', ( #154 ), #255, .T. ) ;
#35 = DIRECTION ( 'NONE',  ( 1.000000000000000000, 0.0000000000000000000, 0.0000000000000000000 ) ) ;
#36 = AXIS2_PLACEMENT_3D ( 'NONE', #63, #157, #127 ) ;
#37 =( GEOMETRIC_REPRESENTATION_CONTEXT ( 3 ) GLOBAL_UNCERTAINTY_ASSIGNED_CONTEXT ( ( #33 ) ) GLOBAL_UNIT_ASSIGNED_CONTEXT ( ( #73, #246, #9 ) ) REPRESENTATION_CONTEXT ( 'NONE', 'WORKASPACE' ) );
#38 = DIRECTION ( 'NONE',  ( -1.000000000000000000, 0.0000000000000000000, 0.0000000000000000000 ) ) ;
#39 = ORIENTED_EDGE ( 'NONE', *, *, #176, .F. ) ;
#40 = ORIENTED_EDGE ( 'NONE', *, *, #176, .T. ) ;
#41 = ORIENTED_EDGE ( 'NONE', *, *, #113, .T. ) ;
#42 = CARTESIAN_POINT ( 'NONE',  ( 0.0000000000000000000, 0.0000000000000000000, 1.500000000000000222 ) ) ;
#43 = ORIENTED_EDGE ( 'NONE', *, *, #293, .T. ) ;
#44 = VERTEX_POINT ( 'NONE', #132 ) ;
#45 = CIRCLE ( 'NONE', #197, 0.06250000000000002776 ) ;
#46 = DIRECTION ( 'NONE',  ( -0.1736481776669311916, 2.126576849575783316E-17, 0.9848077530122080203 ) ) ;
#47 = DIRECTION ( 'NONE',  ( -1.000000000000000000, 0.0000000000000000000, 0.0000000000000000000 ) ) ;
#48 = PRESENTATION_STYLE_ASSIGNMENT (( #69 ) ) ;
#49 = AXIS2_PLACEMENT_3D ( 'NONE', #219, #144, #140 ) ;
#50 = CARTESIAN_POINT ( 'NONE',  ( -0.002997000000000000965, 0.0000000000000000000, 3.670266457044620039E-19 ) ) ;
#51 = CARTESIAN_POINT ( 'NONE',  ( 0.06250000000000002776, 7.654042494670959086E-18, 1.485000000000000764 ) ) ;
#52 = CYLINDRICAL_SURFACE ( 'NONE', #254, 0.002997000000000000965 ) ;
#53 = EDGE_CURVE ( 'NONE', #124, #104, #297, .T. ) ;
#54 = CARTESIAN_POINT ( 'NONE',  ( 0.0000000000000000000, 0.0000000000000000000, 1.500000000000000222 ) ) ;
#55 = ORIENTED_EDGE ( 'NONE', *, *, #74, .T. ) ;
#56 = AXIS2_PLACEMENT_3D ( 'NONE', #106, #207, #295 ) ;
#57 = VERTEX_POINT ( 'NONE', #279 ) ;
#58 = PRODUCT_DEFINITION_SHAPE ( 'NONE', 'NONE',  #86 ) ;
#59 = PRODUCT_CONTEXT ( 'NONE', #189, 'mechanical' ) ;
#60 = ORIENTED_EDGE ( 'NONE', *, *, #131, .F. ) ;
#61 = DIRECTION ( 'NONE',  ( -1.000000000000000000, 0.0000000000000000000, 0.0000000000000000000 ) ) ;
#62 = AXIS2_PLACEMENT_3D ( 'NONE', #27, #183, #11 ) ;
#63 = CARTESIAN_POINT ( 'NONE',  ( 1.102182119232618142E-18, 0.0000000000000000000, 0.008999999999999999320 ) ) ;
#64 = EDGE_LOOP ( 'NONE', ( #175, #43, #60, #229 ) ) ;
#65 = ORIENTED_EDGE ( 'NONE', *, *, #53, .F. ) ;
#66 = VECTOR ( 'NONE', #21, 39.37007874015748143 ) ;
#67 = EDGE_CURVE ( 'NONE', #273, #221, #100, .T. ) ;
#68 = DIRECTION ( 'NONE',  ( -0.0000000000000000000, -0.0000000000000000000, -1.000000000000000000 ) ) ;
#69 = SURFACE_STYLE_USAGE ( .BOTH. , #114 ) ;
#70 = AXIS2_PLACEMENT_3D ( 'NONE', #281, #68, #47 ) ;
#71 =( NAMED_UNIT ( * ) PLANE_ANGLE_UNIT ( ) SI_UNIT ( $, .RADIAN. ) );
#72 = LINE ( 'NONE', #116, #118 ) ;
#73 =( CONVERSION_BASED_UNIT ( 'INCH', #262 ) LENGTH_UNIT ( ) NAMED_UNIT ( #142 ) );
#74 = EDGE_CURVE ( 'NONE', #4, #107, #153, .T. ) ;
#75 = AXIS2_PLACEMENT_3D ( 'NONE', #213, #88, #234 ) ;
#76 = SURFACE_STYLE_FILL_AREA ( #264 ) ;
#77 = AXIS2_PLACEMENT_3D ( 'NONE', #120, #122, #239 ) ;
#78 = PLANE ( 'NONE',  #77 ) ;
#79 = CONICAL_SURFACE ( 'NONE', #265, 0.04750000000000064587, 0.7853981633974466137 ) ;
#80 = EDGE_LOOP ( 'NONE', ( #247, #148, #130, #216 ) ) ;
#81 =( LENGTH_UNIT ( ) NAMED_UNIT ( * ) SI_UNIT ( $, .METRE. ) );
#82 = PLANE ( 'NONE',  #108 ) ;
#83 = DIRECTION ( 'NONE',  ( -1.224646799147353700E-16, -0.0000000000000000000, -1.000000000000000000 ) ) ;
#84 = EDGE_LOOP ( 'NONE', ( #223, #55, #218, #160 ) ) ;
#85 = CARTESIAN_POINT ( 'NONE',  ( 0.002997000000000000965, 3.670266457044618595E-19, -3.670266457044620039E-19 ) ) ;
#86 = PRODUCT_DEFINITION ( 'UNKNOWN', '', #274, #206 ) ;
#87 = ORIENTED_EDGE ( 'NONE', *, *, #102, .F. ) ;
#88 = DIRECTION ( 'NONE',  ( -1.224646799147353700E-16, -0.0000000000000000000, -1.000000000000000000 ) ) ;
#89 = COLOUR_RGB ( '',0.7921568627450980005, 0.8196078431372548767, 0.9333333333333333481 ) ;
#90 = DIRECTION ( 'NONE',  ( -0.7071067811865462405, 0.0000000000000000000, -0.7071067811865486830 ) ) ;
#91 = EDGE_CURVE ( 'NONE', #107, #6, #119, .T. ) ;
#92 =( CONVERSION_BASED_UNIT ( 'INCH', #214 ) LENGTH_UNIT ( ) NAMED_UNIT ( #194 ) );
#93 = VECTOR ( 'NONE', #296, 39.37007874015748854 ) ;
#94 = CIRCLE ( 'NONE', #19, 0.04750000000000064587 ) ;
#95 = LINE ( 'NONE', #180, #250 ) ;
#96 = APPLICATION_PROTOCOL_DEFINITION ( 'draft international standard', 'automotive_design', 1998, #189 ) ;
#97 = FACE_OUTER_BOUND ( 'NONE', #64, .T. ) ;
#98 = ADVANCED_FACE ( 'NONE', ( #1 ), #52, .T. ) ;
#99 = UNCERTAINTY_MEASURE_WITH_UNIT (LENGTH_MEASURE( 1.000000000000000082E-05 ), #105, 'distance_accuracy_value', 'NONE');
#100 = CIRCLE ( 'NONE', #185, 0.002996999999999999664 ) ;
#101 = CARTESIAN_POINT ( 'NONE',  ( 0.0000000000000000000, 0.0000000000000000000, 1.485000000000000764 ) ) ;
#102 = EDGE_CURVE ( 'NONE', #221, #44, #72, .T. ) ;
#103 = DIRECTION ( 'NONE',  ( 1.000000000000000000, 0.0000000000000000000, 0.0000000000000000000 ) ) ;
#104 = VERTEX_POINT ( 'NONE', #299 ) ;
#105 =( CONVERSION_BASED_UNIT ( 'INCH', #151 ) LENGTH_UNIT ( ) NAMED_UNIT ( #210 ) );
#106 = CARTESIAN_POINT ( 'NONE',  ( 4.494780068637593816E-35, 0.0000000000000000000, 3.670266457044621484E-19 ) ) ;
#107 = VERTEX_POINT ( 'NONE', #51 ) ;
#108 = AXIS2_PLACEMENT_3D ( 'NONE', #20, #170, #253 ) ;
#109 = VERTEX_POINT ( 'NONE', #261 ) ;
#110 = AXIS2_PLACEMENT_3D ( 'NONE', #270, #128, #272 ) ;
#111 = EDGE_LOOP ( 'NONE', ( #294, #205, #10, #65 ) ) ;
#112 = DIRECTION ( 'NONE',  ( 1.000000000000000000, 0.0000000000000000000, 0.0000000000000000000 ) ) ;
#113 = EDGE_CURVE ( 'NONE', #109, #4, #30, .T. ) ;
#114 = SURFACE_SIDE_STYLE ('',( #282 ) ) ;
#115 = VECTOR ( 'NONE', #90, 39.37007874015748854 ) ;
#116 = CARTESIAN_POINT ( 'NONE',  ( -0.002996999999999998797, 3.670266457044617150E-19, 0.008999999999999999320 ) ) ;
#117 =( NAMED_UNIT ( * ) SI_UNIT ( $, .STERADIAN. ) SOLID_ANGLE_UNIT ( ) );
#118 = VECTOR ( 'NONE', #46, 39.37007874015747433 ) ;
#119 = CIRCLE ( 'NONE', #268, 0.06250000000000002776 ) ;
#120 = CARTESIAN_POINT ( 'NONE',  ( 0.0000000000000000000, 0.0000000000000000000, 0.0000000000000000000 ) ) ;
#121 = CONICAL_SURFACE ( 'NONE', #36, 0.002996999999999999664, 0.1745329251994338915 ) ;
#122 = DIRECTION ( 'NONE',  ( 0.0000000000000000000, 0.0000000000000000000, 1.000000000000000000 ) ) ;
#123 = ORIENTED_EDGE ( 'NONE', *, *, #131, .T. ) ;
#124 = VERTEX_POINT ( 'NONE', #184 ) ;
#125 = ORIENTED_EDGE ( 'NONE', *, *, #53, .T. ) ;
#126 = CIRCLE ( 'NONE', #62, 0.06250000000000002776 ) ;
#127 = DIRECTION ( 'NONE',  ( 1.000000000000000000, 0.0000000000000000000, 0.0000000000000000000 ) ) ;
#128 = DIRECTION ( 'NONE',  ( 0.0000000000000000000, 0.0000000000000000000, 1.000000000000000000 ) ) ;
#129 = ORIENTED_EDGE ( 'NONE', *, *, #215, .T. ) ;
#130 = ORIENTED_EDGE ( 'NONE', *, *, #159, .F. ) ;
#131 = EDGE_CURVE ( 'NONE', #44, #57, #240, .T. ) ;
#132 = CARTESIAN_POINT ( 'NONE',  ( -0.06249999999999997918, 0.0000000000000000000, 0.3464582821127109025 ) ) ;
#133 = CONICAL_SURFACE ( 'NONE', #49, 0.002996999999999999664, 0.1745329251994338915 ) ;
#134 = CARTESIAN_POINT ( 'NONE',  ( 0.002997000000000000965, 0.0000000000000000000, 0.008999999999999999320 ) ) ;
#135 = DIRECTION ( 'NONE',  ( 0.0000000000000000000, 0.0000000000000000000, -1.000000000000000000 ) ) ;
#136 = DIRECTION ( 'NONE',  ( -1.224646799147353700E-16, -0.0000000000000000000, -1.000000000000000000 ) ) ;
#137 = CARTESIAN_POINT ( 'NONE',  ( 0.0000000000000000000, 0.0000000000000000000, 1.500000000000000222 ) ) ;
#138 = DIRECTION ( 'NONE',  ( 0.0000000000000000000, 0.0000000000000000000, 1.000000000000000000 ) ) ;
#139 = CLOSED_SHELL ( 'NONE', ( #98, #28, #276, #232, #195, #32, #291, #285, #34, #258 ) ) ;
#140 = DIRECTION ( 'NONE',  ( 1.000000000000000000, 0.0000000000000000000, 0.0000000000000000000 ) ) ;
#141 = DIRECTION ( 'NONE',  ( -1.224646799147353700E-16, -0.0000000000000000000, -1.000000000000000000 ) ) ;
#142 = DIMENSIONAL_EXPONENTS ( 1.000000000000000000, 0.0000000000000000000, 0.0000000000000000000, 0.0000000000000000000, 0.0000000000000000000, 0.0000000000000000000, 0.0000000000000000000 ) ;
#143 =( GEOMETRIC_REPRESENTATION_CONTEXT ( 3 ) GLOBAL_UNCERTAINTY_ASSIGNED_CONTEXT ( ( #99 ) ) GLOBAL_UNIT_ASSIGNED_CONTEXT ( ( #105, #277, #200 ) ) REPRESENTATION_CONTEXT ( 'NONE', 'WORKASPACE' ) );
#144 = DIRECTION ( 'NONE',  ( 1.224646799147353700E-16, 0.0000000000000000000, 1.000000000000000000 ) ) ;
#145 = EDGE_CURVE ( 'NONE', #221, #273, #211, .T. ) ;
#146 = DIRECTION ( 'NONE',  ( -1.000000000000000000, 0.0000000000000000000, 0.0000000000000000000 ) ) ;
#147 = EDGE_CURVE ( 'NONE', #109, #6, #212, .T. ) ;
#148 = ORIENTED_EDGE ( 'NONE', *, *, #23, .T. ) ;
#149 = VECTOR ( 'NONE', #275, 39.37007874015748143 ) ;
#150 = CARTESIAN_POINT ( 'NONE',  ( -0.06250000000000002776, 0.0000000000000000000, 1.485000000000000764 ) ) ;
#151 = LENGTH_MEASURE_WITH_UNIT ( LENGTH_MEASURE( 0.02539999999999999897 ), #81 );
#152 = AXIS2_PLACEMENT_3D ( 'NONE', #257, #22, #238 ) ;
#153 = LINE ( 'NONE', #251, #93 ) ;
#154 = FACE_OUTER_BOUND ( 'NONE', #111, .T. ) ;
#155 = SURFACE_SIDE_STYLE ('',( #76 ) ) ;
#156 = DIRECTION ( 'NONE',  ( -1.000000000000000000, 0.0000000000000000000, 0.0000000000000000000 ) ) ;
#157 = DIRECTION ( 'NONE',  ( 1.224646799147353700E-16, 0.0000000000000000000, 1.000000000000000000 ) ) ;
#158 = PRESENTATION_LAYER_ASSIGNMENT (  '', '', ( #241 ) ) ;
#159 = EDGE_CURVE ( 'NONE', #104, #124, #286, .T. ) ;
#160 = ORIENTED_EDGE ( 'NONE', *, *, #147, .F. ) ;
#161 = AXIS2_PLACEMENT_3D ( 'NONE', #42, #283, #156 ) ;
#162 = DIRECTION ( 'NONE',  ( -1.000000000000000000, 0.0000000000000000000, 1.224646799147353700E-16 ) ) ;
#163 = CARTESIAN_POINT ( 'NONE',  ( 0.0000000000000000000, 0.0000000000000000000, 0.0000000000000000000 ) ) ;
#164 = CARTESIAN_POINT ( 'NONE',  ( 0.0000000000000000000, 0.0000000000000000000, 1.485000000000000764 ) ) ;
#165 = MANIFOLD_SOLID_BREP ( 'Cut-Revolve1', #139 ) ;
#166 = FILL_AREA_STYLE_COLOUR ( '', #89 ) ;
#167 = FACE_OUTER_BOUND ( 'NONE', #84, .T. ) ;
#168 = ORIENTED_EDGE ( 'NONE', *, *, #145, .F. ) ;
#169 = LINE ( 'NONE', #3, #236 ) ;
#170 = DIRECTION ( 'NONE',  ( 0.0000000000000000000, 0.0000000000000000000, 1.000000000000000000 ) ) ;
#171 = FACE_OUTER_BOUND ( 'NONE', #226, .T. ) ;
#172 = CYLINDRICAL_SURFACE ( 'NONE', #161, 0.06250000000000002776 ) ;
#173 = MECHANICAL_DESIGN_GEOMETRIC_PRESENTATION_REPRESENTATION (  '', ( #178 ), #191 ) ;
#174 = EDGE_LOOP ( 'NONE', ( #17, #199, #287, #292 ) ) ;
#175 = ORIENTED_EDGE ( 'NONE', *, *, #244, .T. ) ;
#176 = EDGE_CURVE ( 'NONE', #273, #57, #209, .T. ) ;
#177 = EDGE_LOOP ( 'NONE', ( #41, #129 ) ) ;
#178 = STYLED_ITEM ( 'NONE', ( #48 ), #165 ) ;
#179 = FILL_AREA_STYLE ('',( #182 ) ) ;
#180 = CARTESIAN_POINT ( 'NONE',  ( -0.06250000000000002776, 0.0000000000000000000, 1.500000000000000222 ) ) ;
#181 = APPLICATION_CONTEXT ( 'automotive_design' ) ;
#182 = FILL_AREA_STYLE_COLOUR ( '', #24 ) ;
#183 = DIRECTION ( 'NONE',  ( -1.224646799147353700E-16, -0.0000000000000000000, -1.000000000000000000 ) ) ;
#184 = CARTESIAN_POINT ( 'NONE',  ( 0.002997000000000001833, 3.670266457044619076E-19, 5.923751059261921468E-35 ) ) ;
#185 = AXIS2_PLACEMENT_3D ( 'NONE', #290, #83, #61 ) ;
#186 = AXIS2_PLACEMENT_3D ( 'NONE', #54, #5, #38 ) ;
#187 = EDGE_CURVE ( 'NONE', #6, #44, #95, .T. ) ;
#188 = DIRECTION ( 'NONE',  ( -0.0000000000000000000, -0.0000000000000000000, -1.000000000000000000 ) ) ;
#189 = APPLICATION_CONTEXT ( 'automotive_design' ) ;
#190 =( LENGTH_UNIT ( ) NAMED_UNIT ( * ) SI_UNIT ( $, .METRE. ) );
#191 =( GEOMETRIC_REPRESENTATION_CONTEXT ( 3 ) GLOBAL_UNCERTAINTY_ASSIGNED_CONTEXT ( ( #266 ) ) GLOBAL_UNIT_ASSIGNED_CONTEXT ( ( #92, #71, #117 ) ) REPRESENTATION_CONTEXT ( 'NONE', 'WORKASPACE' ) );
#192 = FACE_OUTER_BOUND ( 'NONE', #248, .T. ) ;
#193 = DIRECTION ( 'NONE',  ( 0.0000000000000000000, 0.0000000000000000000, -1.000000000000000000 ) ) ;
#194 = DIMENSIONAL_EXPONENTS ( 1.000000000000000000, 0.0000000000000000000, 0.0000000000000000000, 0.0000000000000000000, 0.0000000000000000000, 0.0000000000000000000, 0.0000000000000000000 ) ;
#195 = ADVANCED_FACE ( 'NONE', ( #233 ), #256, .T. ) ;
#196 = AXIS2_PLACEMENT_3D ( 'NONE', #137, #138, #112 ) ;
#197 = AXIS2_PLACEMENT_3D ( 'NONE', #101, #7, #35 ) ;
#198 = CARTESIAN_POINT ( 'NONE',  ( -0.002996999999999998797, 4.010534570187710810E-18, 0.008999999999999999320 ) ) ;
#199 = ORIENTED_EDGE ( 'NONE', *, *, #91, .T. ) ;
#200 =( NAMED_UNIT ( * ) SI_UNIT ( $, .STERADIAN. ) SOLID_ANGLE_UNIT ( ) );
#201 = ORIENTED_EDGE ( 'NONE', *, *, #102, .T. ) ;
#202 = SURFACE_STYLE_USAGE ( .BOTH. , #155 ) ;
#203 = CARTESIAN_POINT ( 'NONE',  ( 0.04750000000000064587, 6.735557395310483192E-18, 1.500000000000000222 ) ) ;
#204 = MECHANICAL_DESIGN_GEOMETRIC_PRESENTATION_REPRESENTATION (  '', ( #241 ), #143 ) ;
#205 = ORIENTED_EDGE ( 'NONE', *, *, #67, .T. ) ;
#206 = PRODUCT_DEFINITION_CONTEXT ( 'detailed design', #181, 'design' ) ;
#207 = DIRECTION ( 'NONE',  ( -1.224646799147353700E-16, -0.0000000000000000000, -1.000000000000000000 ) ) ;
#208 = ADVANCED_BREP_SHAPE_REPRESENTATION ( 'Micro_SME-006-2', ( #165, #110 ), #37 ) ;
#209 = LINE ( 'NONE', #134, #66 ) ;
#210 = DIMENSIONAL_EXPONENTS ( 1.000000000000000000, 0.0000000000000000000, 0.0000000000000000000, 0.0000000000000000000, 0.0000000000000000000, 0.0000000000000000000, 0.0000000000000000000 ) ;
#211 = CIRCLE ( 'NONE', #75, 0.002996999999999999664 ) ;
#212 = LINE ( 'NONE', #237, #115 ) ;
#213 = CARTESIAN_POINT ( 'NONE',  ( 1.102182119232618142E-18, 0.0000000000000000000, 0.008999999999999999320 ) ) ;
#214 = LENGTH_MEASURE_WITH_UNIT ( LENGTH_MEASURE( 0.02539999999999999897 ), #280 );
#215 = EDGE_CURVE ( 'NONE', #4, #109, #94, .T. ) ;
#216 = ORIENTED_EDGE ( 'NONE', *, *, #228, .F. ) ;
#217 = CARTESIAN_POINT ( 'NONE',  ( 0.002997000000000000965, 0.0000000000000000000, 0.008999999999999999320 ) ) ;
#218 = ORIENTED_EDGE ( 'NONE', *, *, #244, .F. ) ;
#219 = CARTESIAN_POINT ( 'NONE',  ( 1.102182119232618142E-18, 0.0000000000000000000, 0.008999999999999999320 ) ) ;
#220 = CARTESIAN_POINT ( 'NONE',  ( 0.0000000000000000000, 0.0000000000000000000, 1.500000000000000222 ) ) ;
#221 = VERTEX_POINT ( 'NONE', #198 ) ;
#222 = FACE_OUTER_BOUND ( 'NONE', #231, .T. ) ;
#223 = ORIENTED_EDGE ( 'NONE', *, *, #215, .F. ) ;
#224 = AXIS2_PLACEMENT_3D ( 'NONE', #29, #136, #298 ) ;
#225 = PRESENTATION_STYLE_ASSIGNMENT (( #202 ) ) ;
#226 = EDGE_LOOP ( 'NONE', ( #168, #201, #123, #39 ) ) ;
#227 = APPLICATION_PROTOCOL_DEFINITION ( 'draft international standard', 'automotive_design', 1998, #181 ) ;
#228 = EDGE_CURVE ( 'NONE', #221, #104, #259, .T. ) ;
#229 = ORIENTED_EDGE ( 'NONE', *, *, #187, .F. ) ;
#230 = LINE ( 'NONE', #85, #149 ) ;
#231 = EDGE_LOOP ( 'NONE', ( #16, #288, #242, #267 ) ) ;
#232 = ADVANCED_FACE ( 'NONE', ( #97 ), #172, .T. ) ;
#233 = FACE_OUTER_BOUND ( 'NONE', #174, .T. ) ;
#234 = DIRECTION ( 'NONE',  ( -1.000000000000000000, 0.0000000000000000000, 0.0000000000000000000 ) ) ;
#235 = EDGE_CURVE ( 'NONE', #57, #44, #126, .T. ) ;
#236 = VECTOR ( 'NONE', #31, 39.37007874015748143 ) ;
#237 = CARTESIAN_POINT ( 'NONE',  ( -0.04750000000000064587, 0.0000000000000000000, 1.500000000000000222 ) ) ;
#238 = DIRECTION ( 'NONE',  ( -1.000000000000000000, 0.0000000000000000000, 1.224646799147353700E-16 ) ) ;
#239 = DIRECTION ( 'NONE',  ( 1.000000000000000000, 0.0000000000000000000, -0.0000000000000000000 ) ) ;
#240 = CIRCLE ( 'NONE', #224, 0.06250000000000002776 ) ;
#241 = STYLED_ITEM ( 'NONE', ( #225 ), #208 ) ;
#242 = ORIENTED_EDGE ( 'NONE', *, *, #147, .T. ) ;
#243 = ORIENTED_EDGE ( 'NONE', *, *, #235, .T. ) ;
#244 = EDGE_CURVE ( 'NONE', #6, #107, #45, .T. ) ;
#245 = CARTESIAN_POINT ( 'NONE',  ( 0.0000000000000000000, 0.0000000000000000000, 1.500000000000000222 ) ) ;
#246 =( NAMED_UNIT ( * ) PLANE_ANGLE_UNIT ( ) SI_UNIT ( $, .RADIAN. ) );
#247 = ORIENTED_EDGE ( 'NONE', *, *, #145, .T. ) ;
#248 = EDGE_LOOP ( 'NONE', ( #87, #12, #40, #243 ) ) ;
#249 = ORIENTED_EDGE ( 'NONE', *, *, #159, .T. ) ;
#250 = VECTOR ( 'NONE', #188, 39.37007874015748143 ) ;
#251 = CARTESIAN_POINT ( 'NONE',  ( 0.04750000000000064587, 5.817072295950006528E-18, 1.500000000000000222 ) ) ;
#252 = CARTESIAN_POINT ( 'NONE',  ( 0.0000000000000000000, 0.0000000000000000000, 0.0000000000000000000 ) ) ;
#253 = DIRECTION ( 'NONE',  ( 1.000000000000000000, 0.0000000000000000000, -0.0000000000000000000 ) ) ;
#254 = AXIS2_PLACEMENT_3D ( 'NONE', #163, #284, #162 ) ;
#255 = CYLINDRICAL_SURFACE ( 'NONE', #18, 0.002997000000000000965 ) ;
#256 = CYLINDRICAL_SURFACE ( 'NONE', #70, 0.06250000000000002776 ) ;
#257 = CARTESIAN_POINT ( 'NONE',  ( 4.494780068637593816E-35, 0.0000000000000000000, 3.670266457044621484E-19 ) ) ;
#258 = ADVANCED_FACE ( 'NONE', ( #2 ), #78, .F. ) ;
#259 = LINE ( 'NONE', #50, #269 ) ;
#260 = CONICAL_SURFACE ( 'NONE', #186, 0.04750000000000064587, 0.7853981633974466137 ) ;
#261 = CARTESIAN_POINT ( 'NONE',  ( -0.04750000000000064587, 0.0000000000000000000, 1.500000000000000222 ) ) ;
#262 = LENGTH_MEASURE_WITH_UNIT ( LENGTH_MEASURE( 0.02539999999999999897 ), #190 );
#263 = DIRECTION ( 'NONE',  ( 0.0000000000000000000, 0.0000000000000000000, 1.000000000000000000 ) ) ;
#264 = FILL_AREA_STYLE ('',( #166 ) ) ;
#265 = AXIS2_PLACEMENT_3D ( 'NONE', #220, #193, #146 ) ;
#266 = UNCERTAINTY_MEASURE_WITH_UNIT (LENGTH_MEASURE( 1.000000000000000082E-05 ), #92, 'distance_accuracy_value', 'NONE');
#267 = ORIENTED_EDGE ( 'NONE', *, *, #91, .F. ) ;
#268 = AXIS2_PLACEMENT_3D ( 'NONE', #164, #135, #26 ) ;
#269 = VECTOR ( 'NONE', #141, 39.37007874015748143 ) ;
#270 = CARTESIAN_POINT ( 'NONE',  ( 0.0000000000000000000, 0.0000000000000000000, 0.0000000000000000000 ) ) ;
#271 = DIRECTION ( 'NONE',  ( -1.000000000000000000, 0.0000000000000000000, 1.224646799147353700E-16 ) ) ;
#272 = DIRECTION ( 'NONE',  ( 1.000000000000000000, 0.0000000000000000000, 0.0000000000000000000 ) ) ;
#273 = VERTEX_POINT ( 'NONE', #217 ) ;
#274 = PRODUCT_DEFINITION_FORMATION_WITH_SPECIFIED_SOURCE ( 'ANY', '', #8, .NOT_KNOWN. ) ;
#275 = DIRECTION ( 'NONE',  ( -1.224646799147353700E-16, -0.0000000000000000000, -1.000000000000000000 ) ) ;
#276 = ADVANCED_FACE ( 'NONE', ( #167 ), #79, .T. ) ;
#277 =( NAMED_UNIT ( * ) PLANE_ANGLE_UNIT ( ) SI_UNIT ( $, .RADIAN. ) );
#278 = FACE_OUTER_BOUND ( 'NONE', #177, .T. ) ;
#279 = CARTESIAN_POINT ( 'NONE',  ( 0.06250000000000006939, 7.654042494670963708E-18, 0.3464582821127109025 ) ) ;
#280 =( LENGTH_UNIT ( ) NAMED_UNIT ( * ) SI_UNIT ( $, .METRE. ) );
#281 = CARTESIAN_POINT ( 'NONE',  ( 0.0000000000000000000, 0.0000000000000000000, 1.500000000000000222 ) ) ;
#282 = SURFACE_STYLE_FILL_AREA ( #179 ) ;
#283 = DIRECTION ( 'NONE',  ( -0.0000000000000000000, -0.0000000000000000000, -1.000000000000000000 ) ) ;
#284 = DIRECTION ( 'NONE',  ( -1.224646799147353700E-16, -0.0000000000000000000, -1.000000000000000000 ) ) ;
#285 = ADVANCED_FACE ( 'NONE', ( #192 ), #133, .T. ) ;
#286 = CIRCLE ( 'NONE', #152, 0.002997000000000001833 ) ;
#287 = ORIENTED_EDGE ( 'NONE', *, *, #187, .T. ) ;
#288 = ORIENTED_EDGE ( 'NONE', *, *, #113, .F. ) ;
#289 = EDGE_LOOP ( 'NONE', ( #249, #125 ) ) ;
#290 = CARTESIAN_POINT ( 'NONE',  ( 1.102182119232618142E-18, 0.0000000000000000000, 0.008999999999999999320 ) ) ;
#291 = ADVANCED_FACE ( 'NONE', ( #222 ), #260, .T. ) ;
#292 = ORIENTED_EDGE ( 'NONE', *, *, #235, .F. ) ;
#293 = EDGE_CURVE ( 'NONE', #107, #57, #169, .T. ) ;
#294 = ORIENTED_EDGE ( 'NONE', *, *, #23, .F. ) ;
#295 = DIRECTION ( 'NONE',  ( -1.000000000000000000, 0.0000000000000000000, 1.224646799147353700E-16 ) ) ;
#296 = DIRECTION ( 'NONE',  ( 0.7071067811865462405, 8.659560562354916834E-17, -0.7071067811865486830 ) ) ;
#297 = CIRCLE ( 'NONE', #56, 0.002997000000000001833 ) ;
#298 = DIRECTION ( 'NONE',  ( 1.000000000000000000, 0.0000000000000000000, 0.0000000000000000000 ) ) ;
#299 = CARTESIAN_POINT ( 'NONE',  ( -0.002997000000000001833, 0.0000000000000000000, 7.340532914089242967E-19 ) ) ;
ENDSEC;
END-ISO-10303-21;
