ISO-10303-21;
HEADER;
FILE_DESCRIPTION (( 'STEP AP214' ),
    '1' );
FILE_NAME ('59695.STEP',
    '2023-07-24T15:25:13',
    ( '' ),
    ( '' ),
    'SwSTEP 2.0',
    'SolidWorks 2023',
    '' );
FILE_SCHEMA (( 'AUTOMOTIVE_DESIGN' ));
ENDSEC;

DATA;
#1 = CARTESIAN_POINT ( 'NONE',  ( 0.000000000000000000, 0.000000000000000000, -3.000000000000000000 ) ) ;
#2 = DIRECTION ( 'NONE',  ( 0.000000000000000000, 0.000000000000000000, -1.000000000000000000 ) ) ;
#3 = FILL_AREA_STYLE_COLOUR ( '', #213 ) ;
#4 = AXIS2_PLACEMENT_3D ( 'NONE', #210, #363, #102 ) ;
#5 = FILL_AREA_STYLE_COLOUR ( '', #339 ) ;
#6 =( NAMED_UNIT ( * ) PLANE_ANGLE_UNIT ( ) SI_UNIT ( $, .RADIAN. ) );
#7 = ADVANCED_BREP_SHAPE_REPRESENTATION ( '59695', ( #35, #295, #221 ), #86 ) ;
#8 = FILL_AREA_STYLE_COLOUR ( '', #318 ) ;
#9 = CIRCLE ( 'NONE', #259, 2.999999999999992450 ) ;
#10 = FACE_OUTER_BOUND ( 'NONE', #194, .T. ) ;
#11 = PRESENTATION_STYLE_ASSIGNMENT (( #66 ) ) ;
#12 = CIRCLE ( 'NONE', #331, 2.000000000000000000 ) ;
#13 = LINE ( 'NONE', #219, #272 ) ;
#14 = DIRECTION ( 'NONE',  ( -1.000000000000000000, 0.000000000000000000, 0.000000000000000000 ) ) ;
#15 = EDGE_LOOP ( 'NONE', ( #279, #128, #107, #159 ) ) ;
#16 =( GEOMETRIC_REPRESENTATION_CONTEXT ( 3 ) GLOBAL_UNCERTAINTY_ASSIGNED_CONTEXT ( ( #369 ) ) GLOBAL_UNIT_ASSIGNED_CONTEXT ( ( #179, #207, #319 ) ) REPRESENTATION_CONTEXT ( 'NONE', 'WORKASPACE' ) );
#17 = MECHANICAL_DESIGN_GEOMETRIC_PRESENTATION_REPRESENTATION (  '', ( #148 ), #366 ) ;
#18 = LINE ( 'NONE', #358, #24 ) ;
#19 = ORIENTED_EDGE ( 'NONE', *, *, #118, .T. ) ;
#20 = CYLINDRICAL_SURFACE ( 'NONE', #245, 2.999999999999995559 ) ;
#21 = ORIENTED_EDGE ( 'NONE', *, *, #88, .F. ) ;
#22 = SURFACE_STYLE_USAGE ( .BOTH. , #200 ) ;
#23 = STYLED_ITEM ( 'NONE', ( #175 ), #35 ) ;
#24 = VECTOR ( 'NONE', #46, 1000.000000000000000 ) ;
#25 = EDGE_CURVE ( 'NONE', #359, #52, #196, .T. ) ;
#26 = ORIENTED_EDGE ( 'NONE', *, *, #151, .F. ) ;
#27 = CYLINDRICAL_SURFACE ( 'NONE', #354, 3.000000000000000000 ) ;
#28 = VERTEX_POINT ( 'NONE', #58 ) ;
#29 = UNCERTAINTY_MEASURE_WITH_UNIT (LENGTH_MEASURE( 1.000000000000000082E-05 ), #67, 'distance_accuracy_value', 'NONE');
#30 = PRODUCT_CONTEXT ( 'NONE', #309, 'mechanical' ) ;
#31 = SURFACE_SIDE_STYLE ('',( #202 ) ) ;
#32 = ORIENTED_EDGE ( 'NONE', *, *, #63, .F. ) ;
#33 = PRESENTATION_LAYER_ASSIGNMENT (  '', '', ( #190 ) ) ;
#34 = MECHANICAL_DESIGN_GEOMETRIC_PRESENTATION_REPRESENTATION (  '', ( #94 ), #77 ) ;
#35 = MANIFOLD_SOLID_BREP ( 'Revolve - Cutting Edge', #110 ) ;
#36 = DIRECTION ( 'NONE',  ( -1.213614799521464586E-16, 1.000000000000000000, -0.000000000000000000 ) ) ;
#37 = CARTESIAN_POINT ( 'NONE',  ( 1.469576158976823750E-15, 63.00000000000000000, 0.000000000000000000 ) ) ;
#38 = DIRECTION ( 'NONE',  ( -0.000000000000000000, -1.000000000000000000, -0.000000000000000000 ) ) ;
#39 = SURFACE_SIDE_STYLE ('',( #267 ) ) ;
#40 = PLANE ( 'NONE',  #115 ) ;
#41 = MECHANICAL_DESIGN_GEOMETRIC_PRESENTATION_REPRESENTATION (  '', ( #23 ), #53 ) ;
#42 =( GEOMETRIC_REPRESENTATION_CONTEXT ( 3 ) GLOBAL_UNCERTAINTY_ASSIGNED_CONTEXT ( ( #254 ) ) GLOBAL_UNIT_ASSIGNED_CONTEXT ( ( #365, #250, #223 ) ) REPRESENTATION_CONTEXT ( 'NONE', 'WORKASPACE' ) );
#43 = EDGE_CURVE ( 'NONE', #252, #28, #161, .T. ) ;
#44 = DIRECTION ( 'NONE',  ( 0.000000000000000000, 0.000000000000000000, -1.000000000000000000 ) ) ;
#45 = ADVANCED_FACE ( 'NONE', ( #257 ), #93, .T. ) ;
#46 = DIRECTION ( 'NONE',  ( -1.213614799521464586E-16, 1.000000000000000000, -0.000000000000000000 ) ) ;
#47 = AXIS2_PLACEMENT_3D ( 'NONE', #106, #314, #84 ) ;
#48 = DIRECTION ( 'NONE',  ( -1.000000000000000000, 0.000000000000000000, 0.000000000000000000 ) ) ;
#49 = CARTESIAN_POINT ( 'NONE',  ( 8.023096076392732812E-15, 9.000000000000001776, 0.000000000000000000 ) ) ;
#50 = ORIENTED_EDGE ( 'NONE', *, *, #119, .T. ) ;
#51 =( LENGTH_UNIT ( ) NAMED_UNIT ( * ) SI_UNIT ( .MILLI., .METRE. ) );
#52 = VERTEX_POINT ( 'NONE', #105 ) ;
#53 =( GEOMETRIC_REPRESENTATION_CONTEXT ( 3 ) GLOBAL_UNCERTAINTY_ASSIGNED_CONTEXT ( ( #171 ) ) GLOBAL_UNIT_ASSIGNED_CONTEXT ( ( #82, #288, #260 ) ) REPRESENTATION_CONTEXT ( 'NONE', 'WORKASPACE' ) );
#54 = PRESENTATION_STYLE_ASSIGNMENT (( #135 ) ) ;
#55 = AXIS2_PLACEMENT_3D ( 'NONE', #78, #130, #168 ) ;
#56 = SURFACE_SIDE_STYLE ('',( #317 ) ) ;
#57 = FACE_OUTER_BOUND ( 'NONE', #72, .T. ) ;
#58 = CARTESIAN_POINT ( 'NONE',  ( 0.000000000000000000, 1.000000000000000000, -3.000000000000000000 ) ) ;
#59 = TOROIDAL_SURFACE ( 'NONE', #271, 2.000000000000000000, 0.9999999999999997780 ) ;
#60 = AXIS2_PLACEMENT_3D ( 'NONE', #127, #69, #126 ) ;
#61 = CARTESIAN_POINT ( 'NONE',  ( 3.673940397442059868E-16, 0.000000000000000000, 3.000000000000000000 ) ) ;
#62 = DIRECTION ( 'NONE',  ( -0.000000000000000000, -1.000000000000000000, -0.000000000000000000 ) ) ;
#63 = EDGE_CURVE ( 'NONE', #52, #286, #337, .T. ) ;
#64 = AXIS2_PLACEMENT_3D ( 'NONE', #351, #262, #321 ) ;
#65 = CIRCLE ( 'NONE', #85, 3.000000000000000000 ) ;
#66 = SURFACE_STYLE_USAGE ( .BOTH. , #114 ) ;
#67 =( LENGTH_UNIT ( ) NAMED_UNIT ( * ) SI_UNIT ( .MILLI., .METRE. ) );
#68 = PRESENTATION_LAYER_ASSIGNMENT (  '', '', ( #173 ) ) ;
#69 = DIRECTION ( 'NONE',  ( -0.000000000000000000, -1.000000000000000000, -0.000000000000000000 ) ) ;
#70 = VERTEX_POINT ( 'NONE', #294 ) ;
#71 = DIRECTION ( 'NONE',  ( -1.213614799521464586E-16, 1.000000000000000000, -0.000000000000000000 ) ) ;
#72 = EDGE_LOOP ( 'NONE', ( #74, #19 ) ) ;
#73 = CARTESIAN_POINT ( 'NONE',  ( 0.000000000000000000, 9.000000000000000000, 0.000000000000000000 ) ) ;
#74 = ORIENTED_EDGE ( 'NONE', *, *, #88, .T. ) ;
#75 = CLOSED_SHELL ( 'NONE', ( #268, #352, #211, #320 ) ) ;
#76 = SHAPE_DEFINITION_REPRESENTATION ( #304, #7 ) ;
#77 =( GEOMETRIC_REPRESENTATION_CONTEXT ( 3 ) GLOBAL_UNCERTAINTY_ASSIGNED_CONTEXT ( ( #280 ) ) GLOBAL_UNIT_ASSIGNED_CONTEXT ( ( #230, #170, #266 ) ) REPRESENTATION_CONTEXT ( 'NONE', 'WORKASPACE' ) );
#78 = CARTESIAN_POINT ( 'NONE',  ( 8.023096076392732812E-15, 9.000000000000001776, 0.000000000000000000 ) ) ;
#79 = FILL_AREA_STYLE ('',( #5 ) ) ;
#80 = ADVANCED_FACE ( 'NONE', ( #144 ), #323, .T. ) ;
#81 =( NAMED_UNIT ( * ) PLANE_ANGLE_UNIT ( ) SI_UNIT ( $, .RADIAN. ) );
#82 =( LENGTH_UNIT ( ) NAMED_UNIT ( * ) SI_UNIT ( .MILLI., .METRE. ) );
#83 = APPLICATION_PROTOCOL_DEFINITION ( 'draft international standard', 'automotive_design', 1998, #309 ) ;
#84 = DIRECTION ( 'NONE',  ( 0.000000000000000000, 0.000000000000000000, -1.000000000000000000 ) ) ;
#85 = AXIS2_PLACEMENT_3D ( 'NONE', #73, #281, #44 ) ;
#86 =( GEOMETRIC_REPRESENTATION_CONTEXT ( 3 ) GLOBAL_UNCERTAINTY_ASSIGNED_CONTEXT ( ( #269 ) ) GLOBAL_UNIT_ASSIGNED_CONTEXT ( ( #51, #222, #349 ) ) REPRESENTATION_CONTEXT ( 'NONE', 'WORKASPACE' ) );
#87 = ADVANCED_FACE ( 'NONE', ( #10 ), #59, .T. ) ;
#88 = EDGE_CURVE ( 'NONE', #70, #242, #183, .T. ) ;
#89 = PRESENTATION_STYLE_ASSIGNMENT (( #22 ) ) ;
#90 = PRESENTATION_STYLE_ASSIGNMENT (( #350 ) ) ;
#91 =( NAMED_UNIT ( * ) SI_UNIT ( $, .STERADIAN. ) SOLID_ANGLE_UNIT ( ) );
#92 = PRODUCT_DEFINITION ( 'UNKNOWN', '', #215, #342 ) ;
#93 = TOROIDAL_SURFACE ( 'NONE', #329, 2.000000000000000000, 0.9999999999999997780 ) ;
#94 = STYLED_ITEM ( 'NONE', ( #256 ), #325 ) ;
#95 = DIRECTION ( 'NONE',  ( -1.000000000000000000, 0.000000000000000000, 0.000000000000000000 ) ) ;
#96 = CARTESIAN_POINT ( 'NONE',  ( 1.469576158976823750E-15, 63.00000000000000000, 0.000000000000000000 ) ) ;
#97 = ORIENTED_EDGE ( 'NONE', *, *, #165, .F. ) ;
#98 = COLOUR_RGB ( '',1.000000000000000000, 0.000000000000000000, 0.000000000000000000 ) ;
#99 = COLOUR_RGB ( '',1.000000000000000000, 0.000000000000000000, 0.000000000000000000 ) ;
#100 =( NAMED_UNIT ( * ) PLANE_ANGLE_UNIT ( ) SI_UNIT ( $, .RADIAN. ) );
#101 = EDGE_LOOP ( 'NONE', ( #246, #153, #21, #97 ) ) ;
#102 = DIRECTION ( 'NONE',  ( 0.000000000000000000, 0.000000000000000000, -1.000000000000000000 ) ) ;
#103 = CIRCLE ( 'NONE', #60, 2.000000000000000000 ) ;
#104 = FACE_OUTER_BOUND ( 'NONE', #140, .T. ) ;
#105 = CARTESIAN_POINT ( 'NONE',  ( 3.673940397442059375E-16, 1.000000000000000000, 3.000000000000000000 ) ) ;
#106 = CARTESIAN_POINT ( 'NONE',  ( 0.000000000000000000, 0.000000000000000000, 0.000000000000000000 ) ) ;
#107 = ORIENTED_EDGE ( 'NONE', *, *, #348, .F. ) ;
#108 = DIRECTION ( 'NONE',  ( -1.213614799521464586E-16, 1.000000000000000000, -0.000000000000000000 ) ) ;
#109 = FILL_AREA_STYLE_COLOUR ( '', #182 ) ;
#110 = CLOSED_SHELL ( 'NONE', ( #285, #45, #80, #87, #325, #129 ) ) ;
#111 = PRESENTATION_LAYER_ASSIGNMENT (  '', '', ( #297 ) ) ;
#112 = FILL_AREA_STYLE ('',( #3 ) ) ;
#113 =( NAMED_UNIT ( * ) SI_UNIT ( $, .STERADIAN. ) SOLID_ANGLE_UNIT ( ) );
#114 = SURFACE_SIDE_STYLE ('',( #176 ) ) ;
#115 = AXIS2_PLACEMENT_3D ( 'NONE', #249, #185, #149 ) ;
#116 = DIRECTION ( 'NONE',  ( 0.000000000000000000, 0.000000000000000000, -1.000000000000000000 ) ) ;
#117 = SURFACE_STYLE_USAGE ( .BOTH. , #39 ) ;
#118 = EDGE_CURVE ( 'NONE', #242, #70, #300, .T. ) ;
#119 = EDGE_CURVE ( 'NONE', #252, #359, #287, .T. ) ;
#120 = CIRCLE ( 'NONE', #330, 3.000000000000000000 ) ;
#121 =( NAMED_UNIT ( * ) SI_UNIT ( $, .STERADIAN. ) SOLID_ANGLE_UNIT ( ) );
#122 = DIRECTION ( 'NONE',  ( -0.000000000000000000, -1.000000000000000000, -0.000000000000000000 ) ) ;
#123 = DIRECTION ( 'NONE',  ( -1.000000000000000000, 0.000000000000000000, 0.000000000000000000 ) ) ;
#124 = ORIENTED_EDGE ( 'NONE', *, *, #25, .F. ) ;
#125 = PRESENTATION_LAYER_ASSIGNMENT (  '', '', ( #147 ) ) ;
#126 = DIRECTION ( 'NONE',  ( 0.000000000000000000, 0.000000000000000000, -1.000000000000000000 ) ) ;
#127 = CARTESIAN_POINT ( 'NONE',  ( 0.000000000000000000, 0.000000000000000000, 0.000000000000000000 ) ) ;
#128 = ORIENTED_EDGE ( 'NONE', *, *, #63, .T. ) ;
#129 = ADVANCED_FACE ( 'NONE', ( #154 ), #40, .T. ) ;
#130 = DIRECTION ( 'NONE',  ( -1.213614799521464586E-16, 1.000000000000000000, -0.000000000000000000 ) ) ;
#131 = VERTEX_POINT ( 'NONE', #303 ) ;
#132 = PRESENTATION_LAYER_ASSIGNMENT (  '', '', ( #148 ) ) ;
#133 = DIRECTION ( 'NONE',  ( 1.213614799521464586E-16, -1.000000000000000000, 0.000000000000000000 ) ) ;
#134 = ORIENTED_EDGE ( 'NONE', *, *, #119, .F. ) ;
#135 = SURFACE_STYLE_USAGE ( .BOTH. , #367 ) ;
#136 = ORIENTED_EDGE ( 'NONE', *, *, #283, .F. ) ;
#137 = APPLICATION_PROTOCOL_DEFINITION ( 'draft international standard', 'automotive_design', 1998, #328 ) ;
#138 = SURFACE_STYLE_USAGE ( .BOTH. , #31 ) ;
#139 = DIRECTION ( 'NONE',  ( -0.000000000000000000, -1.000000000000000000, -0.000000000000000000 ) ) ;
#140 = EDGE_LOOP ( 'NONE', ( #327, #224 ) ) ;
#141 = DIRECTION ( 'NONE',  ( 0.000000000000000000, 0.000000000000000000, -1.000000000000000000 ) ) ;
#142 = DIRECTION ( 'NONE',  ( -0.000000000000000000, -1.000000000000000000, -0.000000000000000000 ) ) ;
#143 = PRESENTATION_LAYER_ASSIGNMENT (  '', '', ( #94 ) ) ;
#144 = FACE_OUTER_BOUND ( 'NONE', #217, .T. ) ;
#145 = CARTESIAN_POINT ( 'NONE',  ( 0.000000000000000000, 1.000000000000000000, 0.000000000000000000 ) ) ;
#146 = FILL_AREA_STYLE_COLOUR ( '', #236 ) ;
#147 = STYLED_ITEM ( 'NONE', ( #263 ), #87 ) ;
#148 = STYLED_ITEM ( 'NONE', ( #216 ), #129 ) ;
#149 = DIRECTION ( 'NONE',  ( 0.000000000000000000, -0.000000000000000000, 1.000000000000000000 ) ) ;
#150 = ORIENTED_EDGE ( 'NONE', *, *, #348, .T. ) ;
#151 = EDGE_CURVE ( 'NONE', #274, #242, #13, .T. ) ;
#152 = FACE_OUTER_BOUND ( 'NONE', #101, .T. ) ;
#153 = ORIENTED_EDGE ( 'NONE', *, *, #151, .T. ) ;
#154 = FACE_OUTER_BOUND ( 'NONE', #312, .T. ) ;
#155 = PRODUCT ( '59695', '59695', '', ( #30 ) ) ;
#156 = AXIS2_PLACEMENT_3D ( 'NONE', #293, #142, #234 ) ;
#157 = DIRECTION ( 'NONE',  ( 0.000000000000000000, 0.000000000000000000, -1.000000000000000000 ) ) ;
#158 = FACE_OUTER_BOUND ( 'NONE', #184, .T. ) ;
#159 = ORIENTED_EDGE ( 'NONE', *, *, #232, .F. ) ;
#160 = CARTESIAN_POINT ( 'NONE',  ( 3.000000000000000000, 63.00000000000000000, 0.000000000000000000 ) ) ;
#161 = LINE ( 'NONE', #1, #258 ) ;
#162 = VECTOR ( 'NONE', #139, 1000.000000000000000 ) ;
#163 = MECHANICAL_DESIGN_GEOMETRIC_PRESENTATION_REPRESENTATION (  '', ( #173 ), #42 ) ;
#164 = DIRECTION ( 'NONE',  ( 1.000000000000000000, 1.213614799521464586E-16, 0.000000000000000000 ) ) ;
#165 = EDGE_CURVE ( 'NONE', #131, #70, #18, .T. ) ;
#166 = UNCERTAINTY_MEASURE_WITH_UNIT (LENGTH_MEASURE( 1.000000000000000082E-05 ), #343, 'distance_accuracy_value', 'NONE');
#167 = DIRECTION ( 'NONE',  ( 0.000000000000000000, 0.000000000000000000, -1.000000000000000000 ) ) ;
#168 = DIRECTION ( 'NONE',  ( -1.000000000000000000, 0.000000000000000000, 0.000000000000000000 ) ) ;
#169 = DIRECTION ( 'NONE',  ( -0.000000000000000000, -1.000000000000000000, -0.000000000000000000 ) ) ;
#170 =( NAMED_UNIT ( * ) PLANE_ANGLE_UNIT ( ) SI_UNIT ( $, .RADIAN. ) );
#171 = UNCERTAINTY_MEASURE_WITH_UNIT (LENGTH_MEASURE( 1.000000000000000082E-05 ), #82, 'distance_accuracy_value', 'NONE');
#172 = AXIS2_PLACEMENT_3D ( 'NONE', #296, #205, #238 ) ;
#173 = STYLED_ITEM ( 'NONE', ( #89 ), #295 ) ;
#174 = AXIS2_PLACEMENT_3D ( 'NONE', #239, #357, #95 ) ;
#175 = PRESENTATION_STYLE_ASSIGNMENT (( #201 ) ) ;
#176 = SURFACE_STYLE_FILL_AREA ( #209 ) ;
#177 =( NAMED_UNIT ( * ) PLANE_ANGLE_UNIT ( ) SI_UNIT ( $, .RADIAN. ) );
#178 = AXIS2_PLACEMENT_3D ( 'NONE', #37, #36, #270 ) ;
#179 =( LENGTH_UNIT ( ) NAMED_UNIT ( * ) SI_UNIT ( .MILLI., .METRE. ) );
#180 = FACE_OUTER_BOUND ( 'NONE', #341, .T. ) ;
#181 = SURFACE_STYLE_FILL_AREA ( #241 ) ;
#182 = COLOUR_RGB ( '',0.7921568627450980005, 0.8196078431372548767, 0.9333333333333333481 ) ;
#183 = CIRCLE ( 'NONE', #178, 2.999999999999998668 ) ;
#184 = EDGE_LOOP ( 'NONE', ( #124, #306, #307, #136 ) ) ;
#185 = DIRECTION ( 'NONE',  ( 0.000000000000000000, 1.000000000000000000, 0.000000000000000000 ) ) ;
#186 = ORIENTED_EDGE ( 'NONE', *, *, #298, .T. ) ;
#187 = DIRECTION ( 'NONE',  ( -1.213614799521464586E-16, 1.000000000000000000, -0.000000000000000000 ) ) ;
#188 = CARTESIAN_POINT ( 'NONE',  ( 3.000000000000000444, 63.00000000000000000, 3.673940397442056910E-16 ) ) ;
#189 = VERTEX_POINT ( 'NONE', #243 ) ;
#190 = STYLED_ITEM ( 'NONE', ( #11 ), #80 ) ;
#191 =( GEOMETRIC_REPRESENTATION_CONTEXT ( 3 ) GLOBAL_UNCERTAINTY_ASSIGNED_CONTEXT ( ( #166 ) ) GLOBAL_UNIT_ASSIGNED_CONTEXT ( ( #343, #81, #113 ) ) REPRESENTATION_CONTEXT ( 'NONE', 'WORKASPACE' ) );
#192 = CARTESIAN_POINT ( 'NONE',  ( 0.000000000000000000, 0.000000000000000000, 0.000000000000000000 ) ) ;
#193 = PLANE ( 'NONE',  #265 ) ;
#194 = EDGE_LOOP ( 'NONE', ( #32, #368, #276, #344 ) ) ;
#195 = DIRECTION ( 'NONE',  ( 1.000000000000000000, 0.000000000000000000, 0.000000000000000000 ) ) ;
#196 = LINE ( 'NONE', #61, #162 ) ;
#197 = DIRECTION ( 'NONE',  ( -0.000000000000000000, -1.000000000000000000, -0.000000000000000000 ) ) ;
#198 = CIRCLE ( 'NONE', #228, 0.9999999999999997780 ) ;
#199 = EDGE_CURVE ( 'NONE', #28, #52, #120, .T. ) ;
#200 = SURFACE_SIDE_STYLE ('',( #251 ) ) ;
#201 = SURFACE_STYLE_USAGE ( .BOTH. , #56 ) ;
#202 = SURFACE_STYLE_FILL_AREA ( #290 ) ;
#203 = SURFACE_STYLE_FILL_AREA ( #112 ) ;
#204 = UNCERTAINTY_MEASURE_WITH_UNIT (LENGTH_MEASURE( 1.000000000000000082E-05 ), #316, 'distance_accuracy_value', 'NONE');
#205 = DIRECTION ( 'NONE',  ( 0.000000000000000000, -1.000000000000000000, -0.000000000000000000 ) ) ;
#206 = CARTESIAN_POINT ( 'NONE',  ( 0.000000000000000000, 1.000000000000000000, 0.000000000000000000 ) ) ;
#207 =( NAMED_UNIT ( * ) PLANE_ANGLE_UNIT ( ) SI_UNIT ( $, .RADIAN. ) );
#208 =( LENGTH_UNIT ( ) NAMED_UNIT ( * ) SI_UNIT ( .MILLI., .METRE. ) );
#209 = FILL_AREA_STYLE ('',( #8 ) ) ;
#210 = CARTESIAN_POINT ( 'NONE',  ( 0.000000000000000000, 1.000000000000000000, 0.000000000000000000 ) ) ;
#211 = ADVANCED_FACE ( 'NONE', ( #305 ), #20, .T. ) ;
#212 = DIRECTION ( 'NONE',  ( 0.000000000000000000, 0.000000000000000000, 1.000000000000000000 ) ) ;
#213 = COLOUR_RGB ( '',1.000000000000000000, 0.000000000000000000, 0.000000000000000000 ) ;
#214 = MECHANICAL_DESIGN_GEOMETRIC_PRESENTATION_REPRESENTATION (  '', ( #297 ), #191 ) ;
#215 = PRODUCT_DEFINITION_FORMATION_WITH_SPECIFIED_SOURCE ( 'ANY', '', #155, .NOT_KNOWN. ) ;
#216 = PRESENTATION_STYLE_ASSIGNMENT (( #332 ) ) ;
#217 = EDGE_LOOP ( 'NONE', ( #150, #346 ) ) ;
#218 = DIRECTION ( 'NONE',  ( -1.213614799521464586E-16, 1.000000000000000000, 0.000000000000000000 ) ) ;
#219 = CARTESIAN_POINT ( 'NONE',  ( 2.999999999999996891, 63.00000000000000000, 3.673940397442054445E-16 ) ) ;
#220 = ORIENTED_EDGE ( 'NONE', *, *, #43, .F. ) ;
#221 = AXIS2_PLACEMENT_3D ( 'NONE', #229, #289, #195 ) ;
#222 =( NAMED_UNIT ( * ) PLANE_ANGLE_UNIT ( ) SI_UNIT ( $, .RADIAN. ) );
#223 =( NAMED_UNIT ( * ) SI_UNIT ( $, .STERADIAN. ) SOLID_ANGLE_UNIT ( ) );
#224 = ORIENTED_EDGE ( 'NONE', *, *, #298, .F. ) ;
#225 = FILL_AREA_STYLE_COLOUR ( '', #99 ) ;
#226 = FILL_AREA_STYLE ('',( #109 ) ) ;
#227 = PRESENTATION_LAYER_ASSIGNMENT (  '', '', ( #292 ) ) ;
#228 = AXIS2_PLACEMENT_3D ( 'NONE', #334, #48, #212 ) ;
#229 = CARTESIAN_POINT ( 'NONE',  ( 0.000000000000000000, 0.000000000000000000, 0.000000000000000000 ) ) ;
#230 =( LENGTH_UNIT ( ) NAMED_UNIT ( * ) SI_UNIT ( .MILLI., .METRE. ) );
#231 = SURFACE_SIDE_STYLE ('',( #203 ) ) ;
#232 = EDGE_CURVE ( 'NONE', #28, #189, #198, .T. ) ;
#233 = EDGE_CURVE ( 'NONE', #286, #189, #103, .T. ) ;
#234 = DIRECTION ( 'NONE',  ( 0.000000000000000000, 0.000000000000000000, -1.000000000000000000 ) ) ;
#235 = MECHANICAL_DESIGN_GEOMETRIC_PRESENTATION_REPRESENTATION (  '', ( #292 ), #360 ) ;
#236 = COLOUR_RGB ( '',1.000000000000000000, 0.000000000000000000, 0.000000000000000000 ) ;
#237 = FILL_AREA_STYLE ('',( #356 ) ) ;
#238 = DIRECTION ( 'NONE',  ( 0.000000000000000000, 0.000000000000000000, -1.000000000000000000 ) ) ;
#239 = CARTESIAN_POINT ( 'NONE',  ( 1.469576158976823750E-15, 63.00000000000000000, 0.000000000000000000 ) ) ;
#240 = EDGE_CURVE ( 'NONE', #359, #252, #65, .T. ) ;
#241 = FILL_AREA_STYLE ('',( #301 ) ) ;
#242 = VERTEX_POINT ( 'NONE', #188 ) ;
#243 = CARTESIAN_POINT ( 'NONE',  ( 0.000000000000000000, 0.000000000000000000, -2.000000000000000000 ) ) ;
#244 = PRESENTATION_LAYER_ASSIGNMENT (  '', '', ( #23 ) ) ;
#245 = AXIS2_PLACEMENT_3D ( 'NONE', #96, #187, #123 ) ;
#246 = ORIENTED_EDGE ( 'NONE', *, *, #310, .T. ) ;
#247 = AXIS2_PLACEMENT_3D ( 'NONE', #313, #218, #253 ) ;
#248 = CARTESIAN_POINT ( 'NONE',  ( 0.000000000000000000, 9.000000000000000000, -3.000000000000000000 ) ) ;
#249 = CARTESIAN_POINT ( 'NONE',  ( 0.000000000000000000, 9.000000000000000000, 0.000000000000000000 ) ) ;
#250 =( NAMED_UNIT ( * ) PLANE_ANGLE_UNIT ( ) SI_UNIT ( $, .RADIAN. ) );
#251 = SURFACE_STYLE_FILL_AREA ( #79 ) ;
#252 = VERTEX_POINT ( 'NONE', #248 ) ;
#253 = DIRECTION ( 'NONE',  ( -1.000000000000000000, -1.213614799521464586E-16, 0.000000000000000000 ) ) ;
#254 = UNCERTAINTY_MEASURE_WITH_UNIT (LENGTH_MEASURE( 1.000000000000000082E-05 ), #365, 'distance_accuracy_value', 'NONE');
#255 = ORIENTED_EDGE ( 'NONE', *, *, #240, .F. ) ;
#256 = PRESENTATION_STYLE_ASSIGNMENT (( #138 ) ) ;
#257 = FACE_OUTER_BOUND ( 'NONE', #15, .T. ) ;
#258 = VECTOR ( 'NONE', #169, 1000.000000000000000 ) ;
#259 = AXIS2_PLACEMENT_3D ( 'NONE', #49, #108, #308 ) ;
#260 =( NAMED_UNIT ( * ) SI_UNIT ( $, .STERADIAN. ) SOLID_ANGLE_UNIT ( ) );
#261 = UNCERTAINTY_MEASURE_WITH_UNIT (LENGTH_MEASURE( 1.000000000000000082E-05 ), #208, 'distance_accuracy_value', 'NONE');
#262 = DIRECTION ( 'NONE',  ( 1.000000000000000000, 0.000000000000000000, -1.224646799147353207E-16 ) ) ;
#263 = PRESENTATION_STYLE_ASSIGNMENT (( #117 ) ) ;
#264 =( GEOMETRIC_REPRESENTATION_CONTEXT ( 3 ) GLOBAL_UNCERTAINTY_ASSIGNED_CONTEXT ( ( #261 ) ) GLOBAL_UNIT_ASSIGNED_CONTEXT ( ( #208, #177, #324 ) ) REPRESENTATION_CONTEXT ( 'NONE', 'WORKASPACE' ) );
#265 = AXIS2_PLACEMENT_3D ( 'NONE', #160, #133, #164 ) ;
#266 =( NAMED_UNIT ( * ) SI_UNIT ( $, .STERADIAN. ) SOLID_ANGLE_UNIT ( ) );
#267 = SURFACE_STYLE_FILL_AREA ( #237 ) ;
#268 = ADVANCED_FACE ( 'NONE', ( #152 ), #364, .T. ) ;
#269 = UNCERTAINTY_MEASURE_WITH_UNIT (LENGTH_MEASURE( 1.000000000000000082E-05 ), #51, 'distance_accuracy_value', 'NONE');
#270 = DIRECTION ( 'NONE',  ( -1.000000000000000000, 0.000000000000000000, 0.000000000000000000 ) ) ;
#271 = AXIS2_PLACEMENT_3D ( 'NONE', #145, #62, #141 ) ;
#272 = VECTOR ( 'NONE', #335, 1000.000000000000000 ) ;
#273 = FILL_AREA_STYLE ('',( #146 ) ) ;
#274 = VERTEX_POINT ( 'NONE', #338 ) ;
#275 = CARTESIAN_POINT ( 'NONE',  ( 1.469576158976823750E-15, 63.00000000000000000, 0.000000000000000000 ) ) ;
#276 = ORIENTED_EDGE ( 'NONE', *, *, #232, .T. ) ;
#277 = SURFACE_SIDE_STYLE ('',( #181 ) ) ;
#278 = CIRCLE ( 'NONE', #4, 3.000000000000000000 ) ;
#279 = ORIENTED_EDGE ( 'NONE', *, *, #199, .T. ) ;
#280 = UNCERTAINTY_MEASURE_WITH_UNIT (LENGTH_MEASURE( 1.000000000000000082E-05 ), #230, 'distance_accuracy_value', 'NONE');
#281 = DIRECTION ( 'NONE',  ( -0.000000000000000000, -1.000000000000000000, -0.000000000000000000 ) ) ;
#282 = CARTESIAN_POINT ( 'NONE',  ( 3.061616997868383141E-16, 0.000000000000000000, 2.000000000000000000 ) ) ;
#283 = EDGE_CURVE ( 'NONE', #52, #28, #278, .T. ) ;
#284 = CARTESIAN_POINT ( 'NONE',  ( 0.000000000000000000, 0.000000000000000000, 0.000000000000000000 ) ) ;
#285 = ADVANCED_FACE ( 'NONE', ( #180 ), #299, .T. ) ;
#286 = VERTEX_POINT ( 'NONE', #282 ) ;
#287 = CIRCLE ( 'NONE', #156, 3.000000000000000000 ) ;
#288 =( NAMED_UNIT ( * ) PLANE_ANGLE_UNIT ( ) SI_UNIT ( $, .RADIAN. ) );
#289 = DIRECTION ( 'NONE',  ( 0.000000000000000000, 0.000000000000000000, 1.000000000000000000 ) ) ;
#290 = FILL_AREA_STYLE ('',( #225 ) ) ;
#291 = ORIENTED_EDGE ( 'NONE', *, *, #199, .F. ) ;
#292 = STYLED_ITEM ( 'NONE', ( #90 ), #45 ) ;
#293 = CARTESIAN_POINT ( 'NONE',  ( 0.000000000000000000, 9.000000000000000000, 0.000000000000000000 ) ) ;
#294 = CARTESIAN_POINT ( 'NONE',  ( -2.999999999999997335, 63.00000000000000000, 0.000000000000000000 ) ) ;
#295 = MANIFOLD_SOLID_BREP ( 'Revolve - Tool Body (Straight Shanked)', #75 ) ;
#296 = CARTESIAN_POINT ( 'NONE',  ( 0.000000000000000000, 0.000000000000000000, 0.000000000000000000 ) ) ;
#297 = STYLED_ITEM ( 'NONE', ( #54 ), #285 ) ;
#298 = EDGE_CURVE ( 'NONE', #274, #131, #9, .T. ) ;
#299 = CYLINDRICAL_SURFACE ( 'NONE', #47, 3.000000000000000000 ) ;
#300 = CIRCLE ( 'NONE', #174, 2.999999999999998668 ) ;
#301 = FILL_AREA_STYLE_COLOUR ( '', #340 ) ;
#302 = ORIENTED_EDGE ( 'NONE', *, *, #118, .F. ) ;
#303 = CARTESIAN_POINT ( 'NONE',  ( -2.999999999999984457, 9.000000000000001776, 0.000000000000000000 ) ) ;
#304 = PRODUCT_DEFINITION_SHAPE ( 'NONE', 'NONE',  #92 ) ;
#305 = FACE_OUTER_BOUND ( 'NONE', #315, .T. ) ;
#306 = ORIENTED_EDGE ( 'NONE', *, *, #240, .T. ) ;
#307 = ORIENTED_EDGE ( 'NONE', *, *, #43, .T. ) ;
#308 = DIRECTION ( 'NONE',  ( -1.000000000000000000, 0.000000000000000000, 0.000000000000000000 ) ) ;
#309 = APPLICATION_CONTEXT ( 'automotive_design' ) ;
#310 = EDGE_CURVE ( 'NONE', #131, #274, #347, .T. ) ;
#311 = MECHANICAL_DESIGN_GEOMETRIC_PRESENTATION_REPRESENTATION (  '', ( #147 ), #16 ) ;
#312 = EDGE_LOOP ( 'NONE', ( #134, #255 ) ) ;
#313 = CARTESIAN_POINT ( 'NONE',  ( 8.023096076392732812E-15, 9.000000000000000000, 0.000000000000000000 ) ) ;
#314 = DIRECTION ( 'NONE',  ( -0.000000000000000000, -1.000000000000000000, -0.000000000000000000 ) ) ;
#315 = EDGE_LOOP ( 'NONE', ( #26, #186, #362, #302 ) ) ;
#316 =( LENGTH_UNIT ( ) NAMED_UNIT ( * ) SI_UNIT ( .MILLI., .METRE. ) );
#317 = SURFACE_STYLE_FILL_AREA ( #226 ) ;
#318 = COLOUR_RGB ( '',1.000000000000000000, 0.000000000000000000, 0.000000000000000000 ) ;
#319 =( NAMED_UNIT ( * ) SI_UNIT ( $, .STERADIAN. ) SOLID_ANGLE_UNIT ( ) );
#320 = ADVANCED_FACE ( 'NONE', ( #57 ), #193, .F. ) ;
#321 = DIRECTION ( 'NONE',  ( -1.224646799147353207E-16, 0.000000000000000000, -1.000000000000000000 ) ) ;
#322 = MECHANICAL_DESIGN_GEOMETRIC_PRESENTATION_REPRESENTATION (  '', ( #190 ), #264 ) ;
#323 = PLANE ( 'NONE',  #172 ) ;
#324 =( NAMED_UNIT ( * ) SI_UNIT ( $, .STERADIAN. ) SOLID_ANGLE_UNIT ( ) );
#325 = ADVANCED_FACE ( 'NONE', ( #158 ), #27, .T. ) ;
#326 = SURFACE_STYLE_FILL_AREA ( #273 ) ;
#327 = ORIENTED_EDGE ( 'NONE', *, *, #310, .F. ) ;
#328 = APPLICATION_CONTEXT ( 'automotive_design' ) ;
#329 = AXIS2_PLACEMENT_3D ( 'NONE', #206, #38, #116 ) ;
#330 = AXIS2_PLACEMENT_3D ( 'NONE', #361, #122, #157 ) ;
#331 = AXIS2_PLACEMENT_3D ( 'NONE', #284, #197, #2 ) ;
#332 = SURFACE_STYLE_USAGE ( .BOTH. , #277 ) ;
#333 = ORIENTED_EDGE ( 'NONE', *, *, #25, .T. ) ;
#334 = CARTESIAN_POINT ( 'NONE',  ( 0.000000000000000000, 1.000000000000000000, -2.000000000000000000 ) ) ;
#335 = DIRECTION ( 'NONE',  ( -1.213614799521464586E-16, 1.000000000000000000, -0.000000000000000000 ) ) ;
#336 = PLANE ( 'NONE',  #247 ) ;
#337 = CIRCLE ( 'NONE', #64, 0.9999999999999997780 ) ;
#338 = CARTESIAN_POINT ( 'NONE',  ( 3.000000000000000888, 9.000000000000001776, 3.673940397442056910E-16 ) ) ;
#339 = COLOUR_RGB ( '',0.7921568627450980005, 0.8196078431372548767, 0.9333333333333333481 ) ;
#340 = COLOUR_RGB ( '',1.000000000000000000, 0.000000000000000000, 0.000000000000000000 ) ;
#341 = EDGE_LOOP ( 'NONE', ( #50, #333, #291, #220 ) ) ;
#342 = PRODUCT_DEFINITION_CONTEXT ( 'detailed design', #328, 'design' ) ;
#343 =( LENGTH_UNIT ( ) NAMED_UNIT ( * ) SI_UNIT ( .MILLI., .METRE. ) );
#344 = ORIENTED_EDGE ( 'NONE', *, *, #233, .F. ) ;
#345 = DIRECTION ( 'NONE',  ( -0.000000000000000000, -1.000000000000000000, -0.000000000000000000 ) ) ;
#346 = ORIENTED_EDGE ( 'NONE', *, *, #233, .T. ) ;
#347 = CIRCLE ( 'NONE', #55, 2.999999999999992450 ) ;
#348 = EDGE_CURVE ( 'NONE', #189, #286, #12, .T. ) ;
#349 =( NAMED_UNIT ( * ) SI_UNIT ( $, .STERADIAN. ) SOLID_ANGLE_UNIT ( ) );
#350 = SURFACE_STYLE_USAGE ( .BOTH. , #231 ) ;
#351 = CARTESIAN_POINT ( 'NONE',  ( 2.449293598294706414E-16, 1.000000000000000000, 2.000000000000000000 ) ) ;
#352 = ADVANCED_FACE ( 'NONE', ( #104 ), #336, .F. ) ;
#353 = AXIS2_PLACEMENT_3D ( 'NONE', #275, #71, #14 ) ;
#354 = AXIS2_PLACEMENT_3D ( 'NONE', #192, #345, #167 ) ;
#355 = PRODUCT_RELATED_PRODUCT_CATEGORY ( 'part', '', ( #155 ) ) ;
#356 = FILL_AREA_STYLE_COLOUR ( '', #98 ) ;
#357 = DIRECTION ( 'NONE',  ( -1.213614799521464586E-16, 1.000000000000000000, -0.000000000000000000 ) ) ;
#358 = CARTESIAN_POINT ( 'NONE',  ( -2.999999999999994227, 63.00000000000000000, 0.000000000000000000 ) ) ;
#359 = VERTEX_POINT ( 'NONE', #370 ) ;
#360 =( GEOMETRIC_REPRESENTATION_CONTEXT ( 3 ) GLOBAL_UNCERTAINTY_ASSIGNED_CONTEXT ( ( #204 ) ) GLOBAL_UNIT_ASSIGNED_CONTEXT ( ( #316, #6, #91 ) ) REPRESENTATION_CONTEXT ( 'NONE', 'WORKASPACE' ) );
#361 = CARTESIAN_POINT ( 'NONE',  ( 0.000000000000000000, 1.000000000000000000, 0.000000000000000000 ) ) ;
#362 = ORIENTED_EDGE ( 'NONE', *, *, #165, .T. ) ;
#363 = DIRECTION ( 'NONE',  ( -0.000000000000000000, -1.000000000000000000, -0.000000000000000000 ) ) ;
#364 = CYLINDRICAL_SURFACE ( 'NONE', #353, 2.999999999999995559 ) ;
#365 =( LENGTH_UNIT ( ) NAMED_UNIT ( * ) SI_UNIT ( .MILLI., .METRE. ) );
#366 =( GEOMETRIC_REPRESENTATION_CONTEXT ( 3 ) GLOBAL_UNCERTAINTY_ASSIGNED_CONTEXT ( ( #29 ) ) GLOBAL_UNIT_ASSIGNED_CONTEXT ( ( #67, #100, #121 ) ) REPRESENTATION_CONTEXT ( 'NONE', 'WORKASPACE' ) );
#367 = SURFACE_SIDE_STYLE ('',( #326 ) ) ;
#368 = ORIENTED_EDGE ( 'NONE', *, *, #283, .T. ) ;
#369 = UNCERTAINTY_MEASURE_WITH_UNIT (LENGTH_MEASURE( 1.000000000000000082E-05 ), #179, 'distance_accuracy_value', 'NONE');
#370 = CARTESIAN_POINT ( 'NONE',  ( 3.673940397442059868E-16, 9.000000000000000000, 3.000000000000000000 ) ) ;
ENDSEC;
END-ISO-10303-21;
