ISO-10303-21;
HEADER;
FILE_DESCRIPTION (( 'STEP AP214' ),
    '1' );
FILE_NAME ('17645.STEP',
    '2023-06-30T21:54:34',
    ( '' ),
    ( '' ),
    'SwSTEP 2.0',
    'SolidWorks 2023',
    '' );
FILE_SCHEMA (( 'AUTOMOTIVE_DESIGN' ));
ENDSEC;

DATA;
#1 = SURFACE_SIDE_STYLE ('',( #38 ) ) ;
#2 = ORIENTED_EDGE ( 'NONE', *, *, #98, .F. ) ;
#3 = PRESENTATION_LAYER_ASSIGNMENT (  '', '', ( #241 ) ) ;
#4 = CYLINDRICAL_SURFACE ( 'NONE', #317, 0.3749999999999998890 ) ;
#5 = STYLED_ITEM ( 'NONE', ( #234 ), #207 ) ;
#6 = DIMENSIONAL_EXPONENTS ( 1.000000000000000000, 0.000000000000000000, 0.000000000000000000, 0.000000000000000000, 0.000000000000000000, 0.000000000000000000, 0.000000000000000000 ) ;
#7 = ORIENTED_EDGE ( 'NONE', *, *, #274, .T. ) ;
#8 = FILL_AREA_STYLE_COLOUR ( '', #35 ) ;
#9 = EDGE_CURVE ( 'NONE', #326, #159, #353, .T. ) ;
#10 = CARTESIAN_POINT ( 'NONE',  ( 0.3749999999999999445, 4.000000000000000000, 0.000000000000000000 ) ) ;
#11 = ADVANCED_FACE ( 'NONE', ( #77 ), #83, .F. ) ;
#12 = CIRCLE ( 'NONE', #284, 0.3750000000000001110 ) ;
#13 = DIRECTION ( 'NONE',  ( 0.000000000000000000, 0.000000000000000000, -1.000000000000000000 ) ) ;
#14 =( NAMED_UNIT ( * ) SI_UNIT ( $, .STERADIAN. ) SOLID_ANGLE_UNIT ( ) );
#15 = CARTESIAN_POINT ( 'NONE',  ( -1.224646799147352714E-16, 4.000000000000000000, 0.000000000000000000 ) ) ;
#16 = CARTESIAN_POINT ( 'NONE',  ( 0.000000000000000000, 0.3750000000000001110, 0.000000000000000000 ) ) ;
#17 = PRESENTATION_STYLE_ASSIGNMENT (( #133 ) ) ;
#18 =( LENGTH_UNIT ( ) NAMED_UNIT ( * ) SI_UNIT ( $, .METRE. ) );
#19 = DIRECTION ( 'NONE',  ( -1.231509348634544819E-16, 1.000000000000000000, -0.000000000000000000 ) ) ;
#20 = LENGTH_MEASURE_WITH_UNIT ( LENGTH_MEASURE( 0.02539999999999999897 ), #139 );
#21 = MECHANICAL_DESIGN_GEOMETRIC_PRESENTATION_REPRESENTATION (  '', ( #182 ), #304 ) ;
#22 =( NAMED_UNIT ( * ) PLANE_ANGLE_UNIT ( ) SI_UNIT ( $, .RADIAN. ) );
#23 =( NAMED_UNIT ( * ) SI_UNIT ( $, .STERADIAN. ) SOLID_ANGLE_UNIT ( ) );
#24 = DIRECTION ( 'NONE',  ( 1.224646799147353207E-16, -0.000000000000000000, 1.000000000000000000 ) ) ;
#25 = DIRECTION ( 'NONE',  ( -0.000000000000000000, -1.000000000000000000, -0.000000000000000000 ) ) ;
#26 = COLOUR_RGB ( '',0.7921568627450980005, 0.8196078431372548767, 0.9333333333333333481 ) ;
#27 = UNCERTAINTY_MEASURE_WITH_UNIT (LENGTH_MEASURE( 1.000000000000000082E-05 ), #307, 'distance_accuracy_value', 'NONE');
#28 = EDGE_CURVE ( 'NONE', #250, #273, #197, .T. ) ;
#29 = CIRCLE ( 'NONE', #349, 0.3750000000000001110 ) ;
#30 = CARTESIAN_POINT ( 'NONE',  ( -4.592425496802575451E-17, 0.3750000000000000555, 0.000000000000000000 ) ) ;
#31 = CARTESIAN_POINT ( 'NONE',  ( 0.000000000000000000, 0.3750000000000001110, 0.000000000000000000 ) ) ;
#32 = DIRECTION ( 'NONE',  ( 0.000000000000000000, 0.000000000000000000, 1.000000000000000000 ) ) ;
#33 = DIRECTION ( 'NONE',  ( 0.000000000000000000, 0.000000000000000000, -1.000000000000000000 ) ) ;
#34 = VERTEX_POINT ( 'NONE', #105 ) ;
#35 = COLOUR_RGB ( '',1.000000000000000000, 0.000000000000000000, 0.000000000000000000 ) ;
#36 = AXIS2_PLACEMENT_3D ( 'NONE', #30, #260, #71 ) ;
#37 = PRESENTATION_STYLE_ASSIGNMENT (( #313 ) ) ;
#38 = SURFACE_STYLE_FILL_AREA ( #143 ) ;
#39 = EDGE_LOOP ( 'NONE', ( #237, #328 ) ) ;
#40 = APPLICATION_PROTOCOL_DEFINITION ( 'draft international standard', 'automotive_design', 1998, #113 ) ;
#41 = CARTESIAN_POINT ( 'NONE',  ( 0.000000000000000000, 0.3750000000000001110, -0.3750000000000001110 ) ) ;
#42 = FACE_OUTER_BOUND ( 'NONE', #239, .T. ) ;
#43 = VERTEX_POINT ( 'NONE', #164 ) ;
#44 = UNCERTAINTY_MEASURE_WITH_UNIT (LENGTH_MEASURE( 1.000000000000000082E-05 ), #135, 'distance_accuracy_value', 'NONE');
#45 = DIMENSIONAL_EXPONENTS ( 1.000000000000000000, 0.000000000000000000, 0.000000000000000000, 0.000000000000000000, 0.000000000000000000, 0.000000000000000000, 0.000000000000000000 ) ;
#46 = CIRCLE ( 'NONE', #89, 0.3750000000000001110 ) ;
#47 = AXIS2_PLACEMENT_3D ( 'NONE', #366, #228, #312 ) ;
#48 = DIRECTION ( 'NONE',  ( -0.000000000000000000, -1.000000000000000000, -0.000000000000000000 ) ) ;
#49 = DIRECTION ( 'NONE',  ( 1.231509348634544819E-16, -1.000000000000000000, 0.000000000000000000 ) ) ;
#50 =( NAMED_UNIT ( * ) PLANE_ANGLE_UNIT ( ) SI_UNIT ( $, .RADIAN. ) );
#51 = CARTESIAN_POINT ( 'NONE',  ( 2.469881246756281744E-16, 1.000000000000000000, 0.000000000000000000 ) ) ;
#52 = COLOUR_RGB ( '',1.000000000000000000, 0.000000000000000000, 0.000000000000000000 ) ;
#53 = CARTESIAN_POINT ( 'NONE',  ( 0.000000000000000000, 0.000000000000000000, -0.3750000000000000555 ) ) ;
#54 = DIMENSIONAL_EXPONENTS ( 1.000000000000000000, 0.000000000000000000, 0.000000000000000000, 0.000000000000000000, 0.000000000000000000, 0.000000000000000000, 0.000000000000000000 ) ;
#55 = FILL_AREA_STYLE ('',( #278 ) ) ;
#56 = ORIENTED_EDGE ( 'NONE', *, *, #98, .T. ) ;
#57 = LINE ( 'NONE', #243, #65 ) ;
#58 = CARTESIAN_POINT ( 'NONE',  ( -4.592425496802575451E-17, 0.3750000000000000555, 0.000000000000000000 ) ) ;
#59 = PRODUCT_RELATED_PRODUCT_CATEGORY ( 'part', '', ( #138 ) ) ;
#60 = EDGE_CURVE ( 'NONE', #34, #250, #303, .T. ) ;
#61 = FILL_AREA_STYLE ('',( #306 ) ) ;
#62 = AXIS2_PLACEMENT_3D ( 'NONE', #10, #49, #165 ) ;
#63 = AXIS2_PLACEMENT_3D ( 'NONE', #124, #32, #146 ) ;
#64 = FILL_AREA_STYLE_COLOUR ( '', #26 ) ;
#65 = VECTOR ( 'NONE', #19, 39.37007874015748143 ) ;
#66 =( CONVERSION_BASED_UNIT ( 'INCH', #92 ) LENGTH_UNIT ( ) NAMED_UNIT ( #45 ) );
#67 = ORIENTED_EDGE ( 'NONE', *, *, #168, .F. ) ;
#68 = UNCERTAINTY_MEASURE_WITH_UNIT (LENGTH_MEASURE( 1.000000000000000082E-05 ), #132, 'distance_accuracy_value', 'NONE');
#69 = SPHERICAL_SURFACE ( 'NONE', #63, 0.3750000000000001110 ) ;
#70 = ORIENTED_EDGE ( 'NONE', *, *, #311, .F. ) ;
#71 = DIRECTION ( 'NONE',  ( 1.000000000000000000, 0.000000000000000000, 0.000000000000000000 ) ) ;
#72 = DIRECTION ( 'NONE',  ( -1.231509348634544819E-16, 1.000000000000000000, -0.000000000000000000 ) ) ;
#73 = FACE_OUTER_BOUND ( 'NONE', #294, .T. ) ;
#74 = ORIENTED_EDGE ( 'NONE', *, *, #9, .T. ) ;
#75 = CIRCLE ( 'NONE', #316, 0.3749999999999999445 ) ;
#76 =( GEOMETRIC_REPRESENTATION_CONTEXT ( 3 ) GLOBAL_UNCERTAINTY_ASSIGNED_CONTEXT ( ( #233 ) ) GLOBAL_UNIT_ASSIGNED_CONTEXT ( ( #220, #50, #14 ) ) REPRESENTATION_CONTEXT ( 'NONE', 'WORKASPACE' ) );
#77 = FACE_OUTER_BOUND ( 'NONE', #39, .T. ) ;
#78 = ADVANCED_FACE ( 'NONE', ( #221 ), #129, .T. ) ;
#79 = PRESENTATION_STYLE_ASSIGNMENT (( #355 ) ) ;
#80 = FACE_OUTER_BOUND ( 'NONE', #155, .T. ) ;
#81 =( NAMED_UNIT ( * ) SI_UNIT ( $, .STERADIAN. ) SOLID_ANGLE_UNIT ( ) );
#82 = AXIS2_PLACEMENT_3D ( 'NONE', #104, #158, #171 ) ;
#83 = PLANE ( 'NONE',  #62 ) ;
#84 =( LENGTH_UNIT ( ) NAMED_UNIT ( * ) SI_UNIT ( $, .METRE. ) );
#85 = CARTESIAN_POINT ( 'NONE',  ( -2.296212748401287109E-17, -6.829619984160658046E-17, 0.000000000000000000 ) ) ;
#86 = PRESENTATION_LAYER_ASSIGNMENT (  '', '', ( #245 ) ) ;
#87 = AXIS2_PLACEMENT_3D ( 'NONE', #288, #153, #33 ) ;
#88 = SURFACE_STYLE_USAGE ( .BOTH. , #370 ) ;
#89 = AXIS2_PLACEMENT_3D ( 'NONE', #185, #222, #336 ) ;
#90 =( LENGTH_UNIT ( ) NAMED_UNIT ( * ) SI_UNIT ( $, .METRE. ) );
#91 = MANIFOLD_SOLID_BREP ( 'Revolve - Cutting Edge', #334 ) ;
#92 = LENGTH_MEASURE_WITH_UNIT ( LENGTH_MEASURE( 0.02539999999999999897 ), #90 );
#93 = ORIENTED_EDGE ( 'NONE', *, *, #283, .F. ) ;
#94 =( LENGTH_UNIT ( ) NAMED_UNIT ( * ) SI_UNIT ( $, .METRE. ) );
#95 =( GEOMETRIC_REPRESENTATION_CONTEXT ( 3 ) GLOBAL_UNCERTAINTY_ASSIGNED_CONTEXT ( ( #68 ) ) GLOBAL_UNIT_ASSIGNED_CONTEXT ( ( #132, #127, #23 ) ) REPRESENTATION_CONTEXT ( 'NONE', 'WORKASPACE' ) );
#96 = MECHANICAL_DESIGN_GEOMETRIC_PRESENTATION_REPRESENTATION (  '', ( #268 ), #262 ) ;
#97 = CYLINDRICAL_SURFACE ( 'NONE', #361, 0.3749999999999998890 ) ;
#98 = EDGE_CURVE ( 'NONE', #357, #99, #12, .T. ) ;
#99 = VERTEX_POINT ( 'NONE', #85 ) ;
#100 = DIRECTION ( 'NONE',  ( -0.000000000000000000, -1.000000000000000000, -0.000000000000000000 ) ) ;
#101 = DIMENSIONAL_EXPONENTS ( 1.000000000000000000, 0.000000000000000000, 0.000000000000000000, 0.000000000000000000, 0.000000000000000000, 0.000000000000000000, 0.000000000000000000 ) ;
#102 = ORIENTED_EDGE ( 'NONE', *, *, #168, .T. ) ;
#103 = AXIS2_PLACEMENT_3D ( 'NONE', #31, #136, #225 ) ;
#104 = CARTESIAN_POINT ( 'NONE',  ( -4.592425496802575451E-17, 0.3750000000000000555, 0.000000000000000000 ) ) ;
#105 = CARTESIAN_POINT ( 'NONE',  ( 0.000000000000000000, 1.000000000000000000, -0.3749999999999999445 ) ) ;
#106 = SURFACE_STYLE_FILL_AREA ( #55 ) ;
#107 = COLOUR_RGB ( '',1.000000000000000000, 0.000000000000000000, 0.000000000000000000 ) ;
#108 = PRESENTATION_STYLE_ASSIGNMENT (( #285 ) ) ;
#109 = STYLED_ITEM ( 'NONE', ( #17 ), #373 ) ;
#110 = DIRECTION ( 'NONE',  ( -1.000000000000000000, -1.231509348634544819E-16, 0.000000000000000000 ) ) ;
#111 = PLANE ( 'NONE',  #47 ) ;
#112 = CARTESIAN_POINT ( 'NONE',  ( 4.592425496802575451E-17, 1.000000000000000000, 0.3749999999999999445 ) ) ;
#113 = APPLICATION_CONTEXT ( 'automotive_design' ) ;
#114 = CARTESIAN_POINT ( 'NONE',  ( 0.000000000000000000, 0.000000000000000000, 0.000000000000000000 ) ) ;
#115 = UNCERTAINTY_MEASURE_WITH_UNIT (LENGTH_MEASURE( 1.000000000000000082E-05 ), #282, 'distance_accuracy_value', 'NONE');
#116 = DIRECTION ( 'NONE',  ( 0.000000000000000000, 0.000000000000000000, -1.000000000000000000 ) ) ;
#117 = SURFACE_STYLE_USAGE ( .BOTH. , #369 ) ;
#118 = VERTEX_POINT ( 'NONE', #112 ) ;
#119 =( GEOMETRIC_REPRESENTATION_CONTEXT ( 3 ) GLOBAL_UNCERTAINTY_ASSIGNED_CONTEXT ( ( #115 ) ) GLOBAL_UNIT_ASSIGNED_CONTEXT ( ( #282, #141, #368 ) ) REPRESENTATION_CONTEXT ( 'NONE', 'WORKASPACE' ) );
#120 = VERTEX_POINT ( 'NONE', #196 ) ;
#121 =( LENGTH_UNIT ( ) NAMED_UNIT ( * ) SI_UNIT ( $, .METRE. ) );
#122 = ORIENTED_EDGE ( 'NONE', *, *, #283, .T. ) ;
#123 =( NAMED_UNIT ( * ) PLANE_ANGLE_UNIT ( ) SI_UNIT ( $, .RADIAN. ) );
#124 = CARTESIAN_POINT ( 'NONE',  ( -4.592425496802575451E-17, 0.3750000000000000555, 0.000000000000000000 ) ) ;
#125 = ORIENTED_EDGE ( 'NONE', *, *, #179, .F. ) ;
#126 = EDGE_LOOP ( 'NONE', ( #264, #372, #7, #70 ) ) ;
#127 =( NAMED_UNIT ( * ) PLANE_ANGLE_UNIT ( ) SI_UNIT ( $, .RADIAN. ) );
#128 = COLOUR_RGB ( '',1.000000000000000000, 0.000000000000000000, 0.000000000000000000 ) ;
#129 = CYLINDRICAL_SURFACE ( 'NONE', #194, 0.3750000000000000555 ) ;
#130 = DIRECTION ( 'NONE',  ( -1.231509348634544819E-16, 1.000000000000000000, -0.000000000000000000 ) ) ;
#131 = DIRECTION ( 'NONE',  ( 0.000000000000000000, 0.000000000000000000, -1.000000000000000000 ) ) ;
#132 =( CONVERSION_BASED_UNIT ( 'INCH', #352 ) LENGTH_UNIT ( ) NAMED_UNIT ( #238 ) );
#133 = SURFACE_STYLE_USAGE ( .BOTH. , #277 ) ;
#134 = VECTOR ( 'NONE', #323, 39.37007874015748143 ) ;
#135 =( CONVERSION_BASED_UNIT ( 'INCH', #175 ) LENGTH_UNIT ( ) NAMED_UNIT ( #6 ) );
#136 = DIRECTION ( 'NONE',  ( -0.000000000000000000, -1.000000000000000000, -0.000000000000000000 ) ) ;
#137 = DIRECTION ( 'NONE',  ( -1.000000000000000000, 0.000000000000000000, 0.000000000000000000 ) ) ;
#138 = PRODUCT ( '17645', '17645', '', ( #297 ) ) ;
#139 =( LENGTH_UNIT ( ) NAMED_UNIT ( * ) SI_UNIT ( $, .METRE. ) );
#140 = EDGE_CURVE ( 'NONE', #159, #326, #212, .T. ) ;
#141 =( NAMED_UNIT ( * ) PLANE_ANGLE_UNIT ( ) SI_UNIT ( $, .RADIAN. ) );
#142 = STYLED_ITEM ( 'NONE', ( #261 ), #189 ) ;
#143 = FILL_AREA_STYLE ('',( #338 ) ) ;
#144 = SURFACE_SIDE_STYLE ('',( #200 ) ) ;
#145 = FILL_AREA_STYLE_COLOUR ( '', #331 ) ;
#146 = DIRECTION ( 'NONE',  ( 1.000000000000000000, 0.000000000000000000, 0.000000000000000000 ) ) ;
#147 = VERTEX_POINT ( 'NONE', #308 ) ;
#148 = ADVANCED_BREP_SHAPE_REPRESENTATION ( '17645', ( #91, #207, #300 ), #76 ) ;
#149 = FACE_OUTER_BOUND ( 'NONE', #150, .T. ) ;
#150 = EDGE_LOOP ( 'NONE', ( #102, #122, #125, #191, #187 ) ) ;
#151 = AXIS2_PLACEMENT_3D ( 'NONE', #314, #199, #137 ) ;
#152 =( CONVERSION_BASED_UNIT ( 'INCH', #318 ) LENGTH_UNIT ( ) NAMED_UNIT ( #54 ) );
#153 = DIRECTION ( 'NONE',  ( -0.000000000000000000, -1.000000000000000000, -0.000000000000000000 ) ) ;
#154 =( NAMED_UNIT ( * ) SI_UNIT ( $, .STERADIAN. ) SOLID_ANGLE_UNIT ( ) );
#155 = EDGE_LOOP ( 'NONE', ( #67, #293 ) ) ;
#156 = ADVANCED_FACE ( 'NONE', ( #254 ), #69, .T. ) ;
#157 = LENGTH_MEASURE_WITH_UNIT ( LENGTH_MEASURE( 0.02539999999999999897 ), #94 );
#158 = DIRECTION ( 'NONE',  ( 0.000000000000000000, 0.000000000000000000, -1.000000000000000000 ) ) ;
#159 = VERTEX_POINT ( 'NONE', #364 ) ;
#160 = AXIS2_PLACEMENT_3D ( 'NONE', #247, #166, #170 ) ;
#161 = APPLICATION_PROTOCOL_DEFINITION ( 'draft international standard', 'automotive_design', 1998, #236 ) ;
#162 = VECTOR ( 'NONE', #100, 39.37007874015748143 ) ;
#163 = PRESENTATION_LAYER_ASSIGNMENT (  '', '', ( #109 ) ) ;
#164 = CARTESIAN_POINT ( 'NONE',  ( 4.592425496802576068E-17, 0.3750000000000001110, 0.3750000000000001110 ) ) ;
#165 = DIRECTION ( 'NONE',  ( 1.000000000000000000, 1.231509348634544819E-16, 0.000000000000000000 ) ) ;
#166 = DIRECTION ( 'NONE',  ( -1.231509348634544819E-16, 1.000000000000000000, -0.000000000000000000 ) ) ;
#167 = DIRECTION ( 'NONE',  ( -0.000000000000000000, -1.000000000000000000, -0.000000000000000000 ) ) ;
#168 = EDGE_CURVE ( 'NONE', #34, #118, #371, .T. ) ;
#169 = CARTESIAN_POINT ( 'NONE',  ( 4.592425496802575451E-17, 0.000000000000000000, 0.3750000000000000555 ) ) ;
#170 = DIRECTION ( 'NONE',  ( -1.000000000000000000, 0.000000000000000000, 0.000000000000000000 ) ) ;
#171 = DIRECTION ( 'NONE',  ( -1.000000000000000000, 0.000000000000000000, 0.000000000000000000 ) ) ;
#172 = FACE_OUTER_BOUND ( 'NONE', #354, .T. ) ;
#173 = MECHANICAL_DESIGN_GEOMETRIC_PRESENTATION_REPRESENTATION (  '', ( #109 ), #226 ) ;
#174 = FILL_AREA_STYLE ('',( #64 ) ) ;
#175 = LENGTH_MEASURE_WITH_UNIT ( LENGTH_MEASURE( 0.02539999999999999897 ), #358 );
#176 = UNCERTAINTY_MEASURE_WITH_UNIT (LENGTH_MEASURE( 1.000000000000000082E-05 ), #152, 'distance_accuracy_value', 'NONE');
#177 = SURFACE_SIDE_STYLE ('',( #229 ) ) ;
#178 = AXIS2_PLACEMENT_3D ( 'NONE', #16, #48, #13 ) ;
#179 = EDGE_CURVE ( 'NONE', #273, #43, #29, .T. ) ;
#180 = ORIENTED_EDGE ( 'NONE', *, *, #28, .T. ) ;
#181 = MECHANICAL_DESIGN_GEOMETRIC_PRESENTATION_REPRESENTATION (  '', ( #245 ), #95 ) ;
#182 = STYLED_ITEM ( 'NONE', ( #37 ), #201 ) ;
#183 =( NAMED_UNIT ( * ) PLANE_ANGLE_UNIT ( ) SI_UNIT ( $, .RADIAN. ) );
#184 = EDGE_CURVE ( 'NONE', #159, #147, #289, .T. ) ;
#185 = CARTESIAN_POINT ( 'NONE',  ( -1.224646799147352714E-16, 4.000000000000000000, 0.000000000000000000 ) ) ;
#186 = CARTESIAN_POINT ( 'NONE',  ( 0.000000000000000000, 0.3750000000000001110, 0.000000000000000000 ) ) ;
#187 = ORIENTED_EDGE ( 'NONE', *, *, #60, .F. ) ;
#188 = DIMENSIONAL_EXPONENTS ( 1.000000000000000000, 0.000000000000000000, 0.000000000000000000, 0.000000000000000000, 0.000000000000000000, 0.000000000000000000, 0.000000000000000000 ) ;
#189 = ADVANCED_FACE ( 'NONE', ( #42 ), #232, .T. ) ;
#190 = MECHANICAL_DESIGN_GEOMETRIC_PRESENTATION_REPRESENTATION (  '', ( #142 ), #281 ) ;
#191 = ORIENTED_EDGE ( 'NONE', *, *, #28, .F. ) ;
#192 = ORIENTED_EDGE ( 'NONE', *, *, #184, .T. ) ;
#193 = DIRECTION ( 'NONE',  ( -0.000000000000000000, -1.000000000000000000, -0.000000000000000000 ) ) ;
#194 = AXIS2_PLACEMENT_3D ( 'NONE', #114, #25, #363 ) ;
#195 = LENGTH_MEASURE_WITH_UNIT ( LENGTH_MEASURE( 0.02539999999999999897 ), #84 );
#196 = CARTESIAN_POINT ( 'NONE',  ( -0.3750000000000002220, 4.000000000000000000, 0.000000000000000000 ) ) ;
#197 = CIRCLE ( 'NONE', #178, 0.3750000000000001110 ) ;
#198 = MECHANICAL_DESIGN_GEOMETRIC_PRESENTATION_REPRESENTATION (  '', ( #5 ), #324 ) ;
#199 = DIRECTION ( 'NONE',  ( -1.231509348634544819E-16, 1.000000000000000000, -0.000000000000000000 ) ) ;
#200 = SURFACE_STYLE_FILL_AREA ( #174 ) ;
#201 = ADVANCED_FACE ( 'NONE', ( #149 ), #235, .T. ) ;
#202 =( LENGTH_UNIT ( ) NAMED_UNIT ( * ) SI_UNIT ( $, .METRE. ) );
#203 = AXIS2_PLACEMENT_3D ( 'NONE', #51, #213, #110 ) ;
#204 =( NAMED_UNIT ( * ) PLANE_ANGLE_UNIT ( ) SI_UNIT ( $, .RADIAN. ) );
#205 = UNCERTAINTY_MEASURE_WITH_UNIT (LENGTH_MEASURE( 1.000000000000000082E-05 ), #66, 'distance_accuracy_value', 'NONE');
#206 = FILL_AREA_STYLE ('',( #145 ) ) ;
#207 = MANIFOLD_SOLID_BREP ( 'Revolve - Tool Body (Straight Shanked)', #315 ) ;
#208 = ORIENTED_EDGE ( 'NONE', *, *, #248, .F. ) ;
#209 =( CONVERSION_BASED_UNIT ( 'INCH', #320 ) LENGTH_UNIT ( ) NAMED_UNIT ( #101 ) );
#210 = CARTESIAN_POINT ( 'NONE',  ( 0.000000000000000000, 1.000000000000000000, 0.000000000000000000 ) ) ;
#211 = ORIENTED_EDGE ( 'NONE', *, *, #274, .F. ) ;
#212 = CIRCLE ( 'NONE', #151, 0.3749999999999997780 ) ;
#213 = DIRECTION ( 'NONE',  ( -1.231509348634544819E-16, 1.000000000000000000, 0.000000000000000000 ) ) ;
#214 = ORIENTED_EDGE ( 'NONE', *, *, #248, .T. ) ;
#215 = DIRECTION ( 'NONE',  ( 0.000000000000000000, 0.000000000000000000, 1.000000000000000000 ) ) ;
#216 = LINE ( 'NONE', #169, #162 ) ;
#217 = ORIENTED_EDGE ( 'NONE', *, *, #140, .F. ) ;
#218 = DIMENSIONAL_EXPONENTS ( 1.000000000000000000, 0.000000000000000000, 0.000000000000000000, 0.000000000000000000, 0.000000000000000000, 0.000000000000000000, 0.000000000000000000 ) ;
#219 = PRESENTATION_LAYER_ASSIGNMENT (  '', '', ( #182 ) ) ;
#220 =( CONVERSION_BASED_UNIT ( 'INCH', #157 ) LENGTH_UNIT ( ) NAMED_UNIT ( #218 ) );
#221 = FACE_OUTER_BOUND ( 'NONE', #321, .T. ) ;
#222 = DIRECTION ( 'NONE',  ( -1.231509348634544819E-16, 1.000000000000000000, -0.000000000000000000 ) ) ;
#223 = EDGE_CURVE ( 'NONE', #43, #357, #242, .T. ) ;
#224 = FILL_AREA_STYLE ('',( #8 ) ) ;
#225 = DIRECTION ( 'NONE',  ( 0.000000000000000000, 0.000000000000000000, -1.000000000000000000 ) ) ;
#226 =( GEOMETRIC_REPRESENTATION_CONTEXT ( 3 ) GLOBAL_UNCERTAINTY_ASSIGNED_CONTEXT ( ( #27 ) ) GLOBAL_UNIT_ASSIGNED_CONTEXT ( ( #307, #22, #81 ) ) REPRESENTATION_CONTEXT ( 'NONE', 'WORKASPACE' ) );
#227 = FACE_OUTER_BOUND ( 'NONE', #126, .T. ) ;
#228 = DIRECTION ( 'NONE',  ( 0.000000000000000000, 1.000000000000000000, 0.000000000000000000 ) ) ;
#229 = SURFACE_STYLE_FILL_AREA ( #61 ) ;
#230 = CIRCLE ( 'NONE', #82, 0.3750000000000001110 ) ;
#231 = PRESENTATION_STYLE_ASSIGNMENT (( #310 ) ) ;
#232 = SPHERICAL_SURFACE ( 'NONE', #36, 0.3750000000000001110 ) ;
#233 = UNCERTAINTY_MEASURE_WITH_UNIT (LENGTH_MEASURE( 1.000000000000000082E-05 ), #220, 'distance_accuracy_value', 'NONE');
#234 = PRESENTATION_STYLE_ASSIGNMENT (( #117 ) ) ;
#235 = CYLINDRICAL_SURFACE ( 'NONE', #87, 0.3750000000000000555 ) ;
#236 = APPLICATION_CONTEXT ( 'automotive_design' ) ;
#237 = ORIENTED_EDGE ( 'NONE', *, *, #271, .T. ) ;
#238 = DIMENSIONAL_EXPONENTS ( 1.000000000000000000, 0.000000000000000000, 0.000000000000000000, 0.000000000000000000, 0.000000000000000000, 0.000000000000000000, 0.000000000000000000 ) ;
#239 = EDGE_LOOP ( 'NONE', ( #2, #214, #180, #290 ) ) ;
#240 = DIRECTION ( 'NONE',  ( -0.000000000000000000, -1.000000000000000000, -0.000000000000000000 ) ) ;
#241 = STYLED_ITEM ( 'NONE', ( #231 ), #91 ) ;
#242 = CIRCLE ( 'NONE', #103, 0.3750000000000001110 ) ;
#243 = CARTESIAN_POINT ( 'NONE',  ( -0.3750000000000000555, 4.000000000000000000, 0.000000000000000000 ) ) ;
#244 = SURFACE_SIDE_STYLE ('',( #272 ) ) ;
#245 = STYLED_ITEM ( 'NONE', ( #79 ), #78 ) ;
#246 = AXIS2_PLACEMENT_3D ( 'NONE', #327, #193, #131 ) ;
#247 = CARTESIAN_POINT ( 'NONE',  ( 2.469881246756281744E-16, 1.000000000000000222, 0.000000000000000000 ) ) ;
#248 = EDGE_CURVE ( 'NONE', #357, #250, #365, .T. ) ;
#249 =( NAMED_UNIT ( * ) SI_UNIT ( $, .STERADIAN. ) SOLID_ANGLE_UNIT ( ) );
#250 = VERTEX_POINT ( 'NONE', #41 ) ;
#251 = CARTESIAN_POINT ( 'NONE',  ( -0.3750000000000001110, 0.3750000000000001110, 4.592425496802575451E-17 ) ) ;
#252 = CARTESIAN_POINT ( 'NONE',  ( -1.224646799147352714E-16, 4.000000000000000000, 0.000000000000000000 ) ) ;
#253 = PRODUCT_DEFINITION_FORMATION_WITH_SPECIFIED_SOURCE ( 'ANY', '', #138, .NOT_KNOWN. ) ;
#254 = FACE_OUTER_BOUND ( 'NONE', #263, .T. ) ;
#255 = DIRECTION ( 'NONE',  ( 1.000000000000000000, 0.000000000000000000, -1.224646799147353207E-16 ) ) ;
#256 = VECTOR ( 'NONE', #167, 39.37007874015748143 ) ;
#257 = SURFACE_STYLE_FILL_AREA ( #206 ) ;
#258 = SURFACE_STYLE_FILL_AREA ( #348 ) ;
#259 = ORIENTED_EDGE ( 'NONE', *, *, #179, .T. ) ;
#260 = DIRECTION ( 'NONE',  ( 0.000000000000000000, 0.000000000000000000, 1.000000000000000000 ) ) ;
#261 = PRESENTATION_STYLE_ASSIGNMENT (( #88 ) ) ;
#262 =( GEOMETRIC_REPRESENTATION_CONTEXT ( 3 ) GLOBAL_UNCERTAINTY_ASSIGNED_CONTEXT ( ( #44 ) ) GLOBAL_UNIT_ASSIGNED_CONTEXT ( ( #135, #337, #280 ) ) REPRESENTATION_CONTEXT ( 'NONE', 'WORKASPACE' ) );
#263 = EDGE_LOOP ( 'NONE', ( #296, #56, #301, #259 ) ) ;
#264 = ORIENTED_EDGE ( 'NONE', *, *, #184, .F. ) ;
#265 = EDGE_CURVE ( 'NONE', #273, #99, #230, .T. ) ;
#266 = DIRECTION ( 'NONE',  ( -1.000000000000000000, 0.000000000000000000, 0.000000000000000000 ) ) ;
#267 = ORIENTED_EDGE ( 'NONE', *, *, #60, .T. ) ;
#268 = STYLED_ITEM ( 'NONE', ( #108 ), #156 ) ;
#269 = UNCERTAINTY_MEASURE_WITH_UNIT (LENGTH_MEASURE( 1.000000000000000082E-05 ), #209, 'distance_accuracy_value', 'NONE');
#270 = SHAPE_DEFINITION_REPRESENTATION ( #343, #148 ) ;
#271 = EDGE_CURVE ( 'NONE', #120, #147, #335, .T. ) ;
#272 = SURFACE_STYLE_FILL_AREA ( #224 ) ;
#273 = VERTEX_POINT ( 'NONE', #330 ) ;
#274 = EDGE_CURVE ( 'NONE', #326, #120, #57, .T. ) ;
#275 = PRESENTATION_LAYER_ASSIGNMENT (  '', '', ( #5 ) ) ;
#276 = CARTESIAN_POINT ( 'NONE',  ( -1.224646799147352714E-16, 4.000000000000000000, 0.000000000000000000 ) ) ;
#277 = SURFACE_SIDE_STYLE ('',( #106 ) ) ;
#278 = FILL_AREA_STYLE_COLOUR ( '', #292 ) ;
#279 = EDGE_CURVE ( 'NONE', #118, #34, #75, .T. ) ;
#280 =( NAMED_UNIT ( * ) SI_UNIT ( $, .STERADIAN. ) SOLID_ANGLE_UNIT ( ) );
#281 =( GEOMETRIC_REPRESENTATION_CONTEXT ( 3 ) GLOBAL_UNCERTAINTY_ASSIGNED_CONTEXT ( ( #176 ) ) GLOBAL_UNIT_ASSIGNED_CONTEXT ( ( #152, #183, #154 ) ) REPRESENTATION_CONTEXT ( 'NONE', 'WORKASPACE' ) );
#282 =( CONVERSION_BASED_UNIT ( 'INCH', #20 ) LENGTH_UNIT ( ) NAMED_UNIT ( #325 ) );
#283 = EDGE_CURVE ( 'NONE', #118, #43, #216, .T. ) ;
#284 = AXIS2_PLACEMENT_3D ( 'NONE', #58, #24, #255 ) ;
#285 = SURFACE_STYLE_USAGE ( .BOTH. , #177 ) ;
#286 = ORIENTED_EDGE ( 'NONE', *, *, #279, .T. ) ;
#287 = ADVANCED_FACE ( 'NONE', ( #73 ), #302, .F. ) ;
#288 = CARTESIAN_POINT ( 'NONE',  ( 0.000000000000000000, 0.000000000000000000, 0.000000000000000000 ) ) ;
#289 = LINE ( 'NONE', #339, #134 ) ;
#290 = ORIENTED_EDGE ( 'NONE', *, *, #265, .T. ) ;
#291 = FILL_AREA_STYLE_COLOUR ( '', #128 ) ;
#292 = COLOUR_RGB ( '',1.000000000000000000, 0.000000000000000000, 0.000000000000000000 ) ;
#293 = ORIENTED_EDGE ( 'NONE', *, *, #279, .F. ) ;
#294 = EDGE_LOOP ( 'NONE', ( #342, #217 ) ) ;
#295 = CARTESIAN_POINT ( 'NONE',  ( -0.3749999999999995004, 1.000000000000000222, 0.000000000000000000 ) ) ;
#296 = ORIENTED_EDGE ( 'NONE', *, *, #223, .T. ) ;
#297 = PRODUCT_CONTEXT ( 'NONE', #113, 'mechanical' ) ;
#298 = ORIENTED_EDGE ( 'NONE', *, *, #223, .F. ) ;
#299 = PRESENTATION_LAYER_ASSIGNMENT (  '', '', ( #268 ) ) ;
#300 = AXIS2_PLACEMENT_3D ( 'NONE', #350, #215, #329 ) ;
#301 = ORIENTED_EDGE ( 'NONE', *, *, #265, .F. ) ;
#302 = PLANE ( 'NONE',  #203 ) ;
#303 = LINE ( 'NONE', #53, #256 ) ;
#304 =( GEOMETRIC_REPRESENTATION_CONTEXT ( 3 ) GLOBAL_UNCERTAINTY_ASSIGNED_CONTEXT ( ( #205 ) ) GLOBAL_UNIT_ASSIGNED_CONTEXT ( ( #66, #204, #344 ) ) REPRESENTATION_CONTEXT ( 'NONE', 'WORKASPACE' ) );
#305 = DIRECTION ( 'NONE',  ( -1.000000000000000000, 0.000000000000000000, 0.000000000000000000 ) ) ;
#306 = FILL_AREA_STYLE_COLOUR ( '', #52 ) ;
#307 =( CONVERSION_BASED_UNIT ( 'INCH', #195 ) LENGTH_UNIT ( ) NAMED_UNIT ( #188 ) );
#308 = CARTESIAN_POINT ( 'NONE',  ( 0.3749999999999999445, 4.000000000000000000, 4.592425496802575451E-17 ) ) ;
#309 = AXIS2_PLACEMENT_3D ( 'NONE', #252, #72, #266 ) ;
#310 = SURFACE_STYLE_USAGE ( .BOTH. , #144 ) ;
#311 = EDGE_CURVE ( 'NONE', #147, #120, #46, .T. ) ;
#312 = DIRECTION ( 'NONE',  ( 0.000000000000000000, -0.000000000000000000, 1.000000000000000000 ) ) ;
#313 = SURFACE_STYLE_USAGE ( .BOTH. , #1 ) ;
#314 = CARTESIAN_POINT ( 'NONE',  ( 2.469881246756281744E-16, 1.000000000000000222, 0.000000000000000000 ) ) ;
#315 = CLOSED_SHELL ( 'NONE', ( #333, #287, #346, #11 ) ) ;
#316 = AXIS2_PLACEMENT_3D ( 'NONE', #351, #332, #347 ) ;
#317 = AXIS2_PLACEMENT_3D ( 'NONE', #15, #356, #305 ) ;
#318 = LENGTH_MEASURE_WITH_UNIT ( LENGTH_MEASURE( 0.02539999999999999897 ), #202 );
#319 = DIRECTION ( 'NONE',  ( -0.000000000000000000, -1.000000000000000000, -0.000000000000000000 ) ) ;
#320 = LENGTH_MEASURE_WITH_UNIT ( LENGTH_MEASURE( 0.02539999999999999897 ), #121 );
#321 = EDGE_LOOP ( 'NONE', ( #93, #286, #267, #208, #298 ) ) ;
#322 = PRODUCT_DEFINITION_CONTEXT ( 'detailed design', #236, 'design' ) ;
#323 = DIRECTION ( 'NONE',  ( -1.231509348634544819E-16, 1.000000000000000000, -0.000000000000000000 ) ) ;
#324 =( GEOMETRIC_REPRESENTATION_CONTEXT ( 3 ) GLOBAL_UNCERTAINTY_ASSIGNED_CONTEXT ( ( #269 ) ) GLOBAL_UNIT_ASSIGNED_CONTEXT ( ( #209, #123, #249 ) ) REPRESENTATION_CONTEXT ( 'NONE', 'WORKASPACE' ) );
#325 = DIMENSIONAL_EXPONENTS ( 1.000000000000000000, 0.000000000000000000, 0.000000000000000000, 0.000000000000000000, 0.000000000000000000, 0.000000000000000000, 0.000000000000000000 ) ;
#326 = VERTEX_POINT ( 'NONE', #295 ) ;
#327 = CARTESIAN_POINT ( 'NONE',  ( 0.000000000000000000, 0.3750000000000001110, 0.000000000000000000 ) ) ;
#328 = ORIENTED_EDGE ( 'NONE', *, *, #311, .T. ) ;
#329 = DIRECTION ( 'NONE',  ( 1.000000000000000000, 0.000000000000000000, 0.000000000000000000 ) ) ;
#330 = CARTESIAN_POINT ( 'NONE',  ( 0.3750000000000001110, 0.3750000000000001110, 0.000000000000000000 ) ) ;
#331 = COLOUR_RGB ( '',0.7921568627450980005, 0.8196078431372548767, 0.9333333333333333481 ) ;
#332 = DIRECTION ( 'NONE',  ( -0.000000000000000000, -1.000000000000000000, -0.000000000000000000 ) ) ;
#333 = ADVANCED_FACE ( 'NONE', ( #172 ), #97, .T. ) ;
#334 = CLOSED_SHELL ( 'NONE', ( #156, #201, #373, #78, #189 ) ) ;
#335 = CIRCLE ( 'NONE', #309, 0.3750000000000001110 ) ;
#336 = DIRECTION ( 'NONE',  ( -1.000000000000000000, 0.000000000000000000, 0.000000000000000000 ) ) ;
#337 =( NAMED_UNIT ( * ) PLANE_ANGLE_UNIT ( ) SI_UNIT ( $, .RADIAN. ) );
#338 = FILL_AREA_STYLE_COLOUR ( '', #107 ) ;
#339 = CARTESIAN_POINT ( 'NONE',  ( 0.3749999999999997780, 4.000000000000000000, 4.592425496802572986E-17 ) ) ;
#340 = PRESENTATION_LAYER_ASSIGNMENT (  '', '', ( #142 ) ) ;
#341 = DIRECTION ( 'NONE',  ( 0.000000000000000000, 0.000000000000000000, -1.000000000000000000 ) ) ;
#342 = ORIENTED_EDGE ( 'NONE', *, *, #9, .F. ) ;
#343 = PRODUCT_DEFINITION_SHAPE ( 'NONE', 'NONE',  #367 ) ;
#344 =( NAMED_UNIT ( * ) SI_UNIT ( $, .STERADIAN. ) SOLID_ANGLE_UNIT ( ) );
#345 = ORIENTED_EDGE ( 'NONE', *, *, #271, .F. ) ;
#346 = ADVANCED_FACE ( 'NONE', ( #227 ), #4, .T. ) ;
#347 = DIRECTION ( 'NONE',  ( 0.000000000000000000, 0.000000000000000000, -1.000000000000000000 ) ) ;
#348 = FILL_AREA_STYLE ('',( #291 ) ) ;
#349 = AXIS2_PLACEMENT_3D ( 'NONE', #186, #240, #341 ) ;
#350 = CARTESIAN_POINT ( 'NONE',  ( 0.000000000000000000, 0.000000000000000000, 0.000000000000000000 ) ) ;
#351 = CARTESIAN_POINT ( 'NONE',  ( 0.000000000000000000, 1.000000000000000000, 0.000000000000000000 ) ) ;
#352 = LENGTH_MEASURE_WITH_UNIT ( LENGTH_MEASURE( 0.02539999999999999897 ), #18 );
#353 = CIRCLE ( 'NONE', #160, 0.3749999999999997780 ) ;
#354 = EDGE_LOOP ( 'NONE', ( #74, #192, #345, #211 ) ) ;
#355 = SURFACE_STYLE_USAGE ( .BOTH. , #244 ) ;
#356 = DIRECTION ( 'NONE',  ( -1.231509348634544819E-16, 1.000000000000000000, -0.000000000000000000 ) ) ;
#357 = VERTEX_POINT ( 'NONE', #251 ) ;
#358 =( LENGTH_UNIT ( ) NAMED_UNIT ( * ) SI_UNIT ( $, .METRE. ) );
#359 = MECHANICAL_DESIGN_GEOMETRIC_PRESENTATION_REPRESENTATION (  '', ( #241 ), #119 ) ;
#360 = AXIS2_PLACEMENT_3D ( 'NONE', #210, #319, #116 ) ;
#361 = AXIS2_PLACEMENT_3D ( 'NONE', #276, #130, #362 ) ;
#362 = DIRECTION ( 'NONE',  ( -1.000000000000000000, 0.000000000000000000, 0.000000000000000000 ) ) ;
#363 = DIRECTION ( 'NONE',  ( 0.000000000000000000, 0.000000000000000000, -1.000000000000000000 ) ) ;
#364 = CARTESIAN_POINT ( 'NONE',  ( 0.3750000000000000555, 1.000000000000000222, 4.592425496802575451E-17 ) ) ;
#365 = CIRCLE ( 'NONE', #246, 0.3750000000000001110 ) ;
#366 = CARTESIAN_POINT ( 'NONE',  ( 0.000000000000000000, 1.000000000000000000, 0.000000000000000000 ) ) ;
#367 = PRODUCT_DEFINITION ( 'UNKNOWN', '', #253, #322 ) ;
#368 =( NAMED_UNIT ( * ) SI_UNIT ( $, .STERADIAN. ) SOLID_ANGLE_UNIT ( ) );
#369 = SURFACE_SIDE_STYLE ('',( #257 ) ) ;
#370 = SURFACE_SIDE_STYLE ('',( #258 ) ) ;
#371 = CIRCLE ( 'NONE', #360, 0.3749999999999999445 ) ;
#372 = ORIENTED_EDGE ( 'NONE', *, *, #140, .T. ) ;
#373 = ADVANCED_FACE ( 'NONE', ( #80 ), #111, .T. ) ;
ENDSEC;
END-ISO-10303-21;
