ISO-10303-21;
HEADER;
/* Generated by software containing ST-Developer
 * from STEP Tools, Inc. (www.steptools.com) 
 */

FILE_DESCRIPTION(
/* description */ (''),
/* implementation_level */ '2;1');

FILE_NAME(
/* name */ 'Helical_86324.step',
/* time_stamp */ '2023-07-10T17:51:02-04:00',
/* author */ (''),
/* organization */ (''),
/* preprocessor_version */ 'ST-DEVELOPER v19.2',
/* originating_system */ 'Autodesk Translation Framework v12.6.0.85',
/* authorisation */ '');

FILE_SCHEMA (('AUTOMOTIVE_DESIGN { 1 0 10303 214 3 1 1 }'));
ENDSEC;

DATA;
#10=MECHANICAL_DESIGN_GEOMETRIC_PRESENTATION_REPRESENTATION('',(#13),#145);
#11=SHAPE_REPRESENTATION_RELATIONSHIP('SRR','None',#155,#12);
#12=ADVANCED_BREP_SHAPE_REPRESENTATION('',(#14),#144);
#13=STYLED_ITEM('',(#164),#14);
#14=MANIFOLD_SOLID_BREP('Body1',#60);
#15=(
BOUNDED_SURFACE()
B_SPLINE_SURFACE(2,2,((#114,#115,#116,#117,#118,#119,#120,#121,#122),(#123,
#124,#125,#126,#127,#128,#129,#130,#131),(#132,#133,#134,#135,#136,#137,
#138,#139,#140)),.UNSPECIFIED.,.F.,.T.,.F.)
B_SPLINE_SURFACE_WITH_KNOTS((3,3),(3,2,2,2,3),(1.08746347729675E-16,0.254688054269364),
(-3.14159265358979,-1.5707963267949,0.,1.5707963267949,3.14159265358979),
 .UNSPECIFIED.)
GEOMETRIC_REPRESENTATION_ITEM()
RATIONAL_B_SPLINE_SURFACE(((1.,0.707106781186548,1.,0.707106781186548,1.,
0.707106781186548,1.,0.707106781186548,1.),(0.991902700743322,0.701381125972854,
0.991902700743322,0.701381125972854,0.991902700743322,0.701381125972854,
0.991902700743322,0.701381125972854,0.991902700743322),(1.,0.707106781186548,
1.,0.707106781186548,1.,0.707106781186548,1.,0.707106781186548,1.)))
REPRESENTATION_ITEM('')
SURFACE()
);
#16=LINE('',#112,#17);
#17=VECTOR('',#96,0.375);
#18=CYLINDRICAL_SURFACE('',#78,0.375);
#19=PLANE('',#76);
#20=FACE_OUTER_BOUND('',#24,.T.);
#21=FACE_OUTER_BOUND('',#25,.T.);
#22=FACE_OUTER_BOUND('',#26,.T.);
#23=FACE_OUTER_BOUND('',#27,.T.);
#24=EDGE_LOOP('',(#43));
#25=EDGE_LOOP('',(#44));
#26=EDGE_LOOP('',(#45,#46,#47,#48,#49));
#27=EDGE_LOOP('',(#50,#51,#52,#53,#54));
#28=CIRCLE('',#75,0.181451612903226);
#29=CIRCLE('',#77,0.375);
#30=CIRCLE('',#79,0.375);
#31=CIRCLE('',#80,0.375);
#32=CIRCLE('',#81,6.);
#33=VERTEX_POINT('',#103);
#34=VERTEX_POINT('',#106);
#35=VERTEX_POINT('',#109);
#36=VERTEX_POINT('',#110);
#37=EDGE_CURVE('',#33,#33,#28,.T.);
#38=EDGE_CURVE('',#34,#34,#29,.T.);
#39=EDGE_CURVE('',#35,#36,#30,.T.);
#40=EDGE_CURVE('',#35,#34,#16,.T.);
#41=EDGE_CURVE('',#36,#35,#31,.T.);
#42=EDGE_CURVE('',#33,#36,#32,.T.);
#43=ORIENTED_EDGE('',*,*,#37,.T.);
#44=ORIENTED_EDGE('',*,*,#38,.F.);
#45=ORIENTED_EDGE('',*,*,#39,.F.);
#46=ORIENTED_EDGE('',*,*,#40,.T.);
#47=ORIENTED_EDGE('',*,*,#38,.T.);
#48=ORIENTED_EDGE('',*,*,#40,.F.);
#49=ORIENTED_EDGE('',*,*,#41,.F.);
#50=ORIENTED_EDGE('',*,*,#37,.F.);
#51=ORIENTED_EDGE('',*,*,#42,.T.);
#52=ORIENTED_EDGE('',*,*,#41,.T.);
#53=ORIENTED_EDGE('',*,*,#39,.T.);
#54=ORIENTED_EDGE('',*,*,#42,.F.);
#55=SPHERICAL_SURFACE('',#74,0.187500000000001);
#56=ADVANCED_FACE('',(#20),#55,.T.);
#57=ADVANCED_FACE('',(#21),#19,.T.);
#58=ADVANCED_FACE('',(#22),#18,.T.);
#59=ADVANCED_FACE('',(#23),#15,.F.);
#60=CLOSED_SHELL('',(#56,#57,#58,#59));
#61=DERIVED_UNIT_ELEMENT(#63,1.);
#62=DERIVED_UNIT_ELEMENT(#149,-3.);
#63=(
MASS_UNIT()
NAMED_UNIT(*)
SI_UNIT(.KILO.,.GRAM.)
);
#64=DERIVED_UNIT((#61,#62));
#65=MEASURE_REPRESENTATION_ITEM('density measure',
POSITIVE_RATIO_MEASURE(7850.),#64);
#66=PROPERTY_DEFINITION_REPRESENTATION(#71,#68);
#67=PROPERTY_DEFINITION_REPRESENTATION(#72,#69);
#68=REPRESENTATION('material name',(#70),#144);
#69=REPRESENTATION('density',(#65),#144);
#70=DESCRIPTIVE_REPRESENTATION_ITEM('Steel','Steel');
#71=PROPERTY_DEFINITION('material property','material name',#157);
#72=PROPERTY_DEFINITION('material property','density of part',#157);
#73=AXIS2_PLACEMENT_3D('',#101,#82,#83);
#74=AXIS2_PLACEMENT_3D('',#102,#84,#85);
#75=AXIS2_PLACEMENT_3D('',#104,#86,#87);
#76=AXIS2_PLACEMENT_3D('',#105,#88,#89);
#77=AXIS2_PLACEMENT_3D('',#107,#90,#91);
#78=AXIS2_PLACEMENT_3D('',#108,#92,#93);
#79=AXIS2_PLACEMENT_3D('',#111,#94,#95);
#80=AXIS2_PLACEMENT_3D('',#113,#97,#98);
#81=AXIS2_PLACEMENT_3D('',#141,#99,#100);
#82=DIRECTION('axis',(0.,0.,1.));
#83=DIRECTION('refdir',(1.,0.,0.));
#84=DIRECTION('center_axis',(6.12323399573679E-17,0.,1.));
#85=DIRECTION('ref_axis',(1.,0.,0.));
#86=DIRECTION('center_axis',(1.25E-16,-1.,0.));
#87=DIRECTION('ref_axis',(1.,1.25E-16,0.));
#88=DIRECTION('center_axis',(-1.25E-16,1.,0.));
#89=DIRECTION('ref_axis',(0.,0.,1.));
#90=DIRECTION('center_axis',(1.25E-16,-1.,0.));
#91=DIRECTION('ref_axis',(1.,1.25E-16,0.));
#92=DIRECTION('center_axis',(1.25E-16,-1.,0.));
#93=DIRECTION('ref_axis',(1.,0.,0.));
#94=DIRECTION('center_axis',(1.25E-16,-1.,0.));
#95=DIRECTION('ref_axis',(1.,1.25E-16,0.));
#96=DIRECTION('',(-1.25E-16,1.,0.));
#97=DIRECTION('center_axis',(1.25E-16,-1.,0.));
#98=DIRECTION('ref_axis',(1.,1.25E-16,0.));
#99=DIRECTION('center_axis',(-1.,-1.25E-16,-1.22464679914735E-16));
#100=DIRECTION('ref_axis',(-1.22464679914735E-16,0.,1.));
#101=CARTESIAN_POINT('',(0.,0.,0.));
#102=CARTESIAN_POINT('Origin',(-5.E-16,0.187499999999998,0.));
#103=CARTESIAN_POINT('',(-3.97539870239134E-17,0.140260586637659,0.181451612903226));
#104=CARTESIAN_POINT('Origin',(-1.75325733297074E-17,0.140260586637659,
0.));
#105=CARTESIAN_POINT('Origin',(0.375,4.,0.));
#106=CARTESIAN_POINT('',(-0.375000000000001,4.,-4.59242549680258E-17));
#107=CARTESIAN_POINT('Origin',(-5.E-16,4.,0.));
#108=CARTESIAN_POINT('Origin',(-3.53245113389531E-16,2.82596090711625,0.));
#109=CARTESIAN_POINT('',(-0.375000000000001,1.6519218142325,-4.59242549680258E-17));
#110=CARTESIAN_POINT('',(-2.52414481747088E-16,1.6519218142325,0.375));
#111=CARTESIAN_POINT('Origin',(-2.06490226779062E-16,1.6519218142325,0.));
#112=CARTESIAN_POINT('',(-0.375000000000001,2.82596090711625,-4.59242549680258E-17));
#113=CARTESIAN_POINT('Origin',(-2.06490226779062E-16,1.6519218142325,0.));
#114=CARTESIAN_POINT('Ctrl Pts',(-2.06490226779062E-16,1.6519218142325,
0.375));
#115=CARTESIAN_POINT('Ctrl Pts',(-0.375,1.6519218142325,0.374999999999999));
#116=CARTESIAN_POINT('Ctrl Pts',(-0.375,1.6519218142325,0.));
#117=CARTESIAN_POINT('Ctrl Pts',(-0.375,1.6519218142325,-0.374999999999999));
#118=CARTESIAN_POINT('Ctrl Pts',(-2.06490226779062E-16,1.6519218142325,
-0.375));
#119=CARTESIAN_POINT('Ctrl Pts',(0.374999999999999,1.6519218142325,-0.374999999999999));
#120=CARTESIAN_POINT('Ctrl Pts',(0.374999999999999,1.6519218142325,0.));
#121=CARTESIAN_POINT('Ctrl Pts',(0.374999999999999,1.6519218142325,0.374999999999999));
#122=CARTESIAN_POINT('Ctrl Pts',(-2.06490226779062E-16,1.6519218142325,
0.375));
#123=CARTESIAN_POINT('Ctrl Pts',(-1.1046256682939E-16,0.883700534635121,
0.375));
#124=CARTESIAN_POINT('Ctrl Pts',(-0.375,0.883700534635121,0.374999999999999));
#125=CARTESIAN_POINT('Ctrl Pts',(-0.375,0.883700534635121,-1.94109474709895E-32));
#126=CARTESIAN_POINT('Ctrl Pts',(-0.375,0.883700534635121,-0.374999999999999));
#127=CARTESIAN_POINT('Ctrl Pts',(-1.1046256682939E-16,0.883700534635121,
-0.375));
#128=CARTESIAN_POINT('Ctrl Pts',(0.374999999999999,0.883700534635121,-0.374999999999999));
#129=CARTESIAN_POINT('Ctrl Pts',(0.374999999999999,0.883700534635121,1.94109474709895E-32));
#130=CARTESIAN_POINT('Ctrl Pts',(0.374999999999999,0.883700534635121,0.374999999999999));
#131=CARTESIAN_POINT('Ctrl Pts',(-1.1046256682939E-16,0.883700534635121,
0.375));
#132=CARTESIAN_POINT('Ctrl Pts',(-1.75325733297074E-17,0.140260586637659,
0.181451612903225));
#133=CARTESIAN_POINT('Ctrl Pts',(-0.181451612903225,0.140260586637659,0.181451612903225));
#134=CARTESIAN_POINT('Ctrl Pts',(-0.181451612903225,0.140260586637659,0.));
#135=CARTESIAN_POINT('Ctrl Pts',(-0.181451612903225,0.140260586637659,-0.181451612903225));
#136=CARTESIAN_POINT('Ctrl Pts',(-1.75325733297074E-17,0.140260586637659,
-0.181451612903225));
#137=CARTESIAN_POINT('Ctrl Pts',(0.181451612903225,0.140260586637659,-0.181451612903225));
#138=CARTESIAN_POINT('Ctrl Pts',(0.181451612903225,0.140260586637659,0.));
#139=CARTESIAN_POINT('Ctrl Pts',(0.181451612903225,0.140260586637659,0.181451612903225));
#140=CARTESIAN_POINT('Ctrl Pts',(-1.75325733297074E-17,0.140260586637659,
0.181451612903225));
#141=CARTESIAN_POINT('Origin',(4.82373597741324E-16,1.6519218142325,-5.625));
#142=UNCERTAINTY_MEASURE_WITH_UNIT(LENGTH_MEASURE(0.000393700787401575),
#147,'DISTANCE_ACCURACY_VALUE',
'Maximum model space distance between geometric entities at asserted c
onnectivities');
#143=UNCERTAINTY_MEASURE_WITH_UNIT(LENGTH_MEASURE(0.000393700787401575),
#147,'DISTANCE_ACCURACY_VALUE',
'Maximum model space distance between geometric entities at asserted c
onnectivities');
#144=(
GEOMETRIC_REPRESENTATION_CONTEXT(3)
GLOBAL_UNCERTAINTY_ASSIGNED_CONTEXT((#142))
GLOBAL_UNIT_ASSIGNED_CONTEXT((#147,#151,#152))
REPRESENTATION_CONTEXT('','3D')
);
#145=(
GEOMETRIC_REPRESENTATION_CONTEXT(3)
GLOBAL_UNCERTAINTY_ASSIGNED_CONTEXT((#143))
GLOBAL_UNIT_ASSIGNED_CONTEXT((#147,#151,#152))
REPRESENTATION_CONTEXT('','3D')
);
#146=DIMENSIONAL_EXPONENTS(1.,0.,0.,0.,0.,0.,0.);
#147=(
CONVERSION_BASED_UNIT('inch',#150)
LENGTH_UNIT()
NAMED_UNIT(#146)
);
#148=(
LENGTH_UNIT()
NAMED_UNIT(*)
SI_UNIT(.MILLI.,.METRE.)
);
#149=(
LENGTH_UNIT()
NAMED_UNIT(*)
SI_UNIT($,.METRE.)
);
#150=LENGTH_MEASURE_WITH_UNIT(LENGTH_MEASURE(25.4),#148);
#151=(
NAMED_UNIT(*)
PLANE_ANGLE_UNIT()
SI_UNIT($,.RADIAN.)
);
#152=(
NAMED_UNIT(*)
SI_UNIT($,.STERADIAN.)
SOLID_ANGLE_UNIT()
);
#153=SHAPE_DEFINITION_REPRESENTATION(#154,#155);
#154=PRODUCT_DEFINITION_SHAPE('',$,#157);
#155=SHAPE_REPRESENTATION('',(#73),#144);
#156=PRODUCT_DEFINITION_CONTEXT('part definition',#161,'design');
#157=PRODUCT_DEFINITION('(Unsaved)','(Unsaved)',#158,#156);
#158=PRODUCT_DEFINITION_FORMATION('',$,#163);
#159=PRODUCT_RELATED_PRODUCT_CATEGORY('(Unsaved)','(Unsaved)',(#163));
#160=APPLICATION_PROTOCOL_DEFINITION('international standard',
'automotive_design',2009,#161);
#161=APPLICATION_CONTEXT(
'Core Data for Automotive Mechanical Design Process');
#162=PRODUCT_CONTEXT('part definition',#161,'mechanical');
#163=PRODUCT('(Unsaved)','(Unsaved)',$,(#162));
#164=PRESENTATION_STYLE_ASSIGNMENT((#165));
#165=SURFACE_STYLE_USAGE(.BOTH.,#166);
#166=SURFACE_SIDE_STYLE('',(#167));
#167=SURFACE_STYLE_FILL_AREA(#168);
#168=FILL_AREA_STYLE('Steel - Satin',(#169));
#169=FILL_AREA_STYLE_COLOUR('Steel - Satin',#170);
#170=COLOUR_RGB('Steel - Satin',0.627450980392157,0.627450980392157,0.627450980392157);
ENDSEC;
END-ISO-10303-21;
