ISO-10303-21;
HEADER;
FILE_DESCRIPTION (( 'STEP AP214' ),
    '1' );
FILE_NAME ('Micro_CREM-060-030.STEP',
    '2021-09-02T15:17:59',
    ( '' ),
    ( '' ),
    'SwSTEP 2.0',
    'SolidWorks 2020',
    '' );
FILE_SCHEMA (( 'AUTOMOTIVE_DESIGN' ));
ENDSEC;

DATA;
#1 = CARTESIAN_POINT ( 'NONE',  ( 0.1181100000000000344, 1.446430334472939084E-17, 0.01692899879175291042 ) ) ;
#2 = EDGE_CURVE ( 'NONE', #168, #133, #93, .T. ) ;
#3 = CARTESIAN_POINT ( 'NONE',  ( 8.537024980200822558E-18, 0.0000000000000000000, 0.0000000000000000000 ) ) ;
#4 = DIRECTION ( 'NONE',  ( -1.250499981774462892E-16, -0.0000000000000000000, -1.000000000000000000 ) ) ;
#5 = ORIENTED_EDGE ( 'NONE', *, *, #2, .F. ) ;
#6 = CARTESIAN_POINT ( 'NONE',  ( 0.0000000000000000000, 0.0000000000000000000, 0.01692899879175292430 ) ) ;
#7 = ORIENTED_EDGE ( 'NONE', *, *, #288, .T. ) ;
#8 = EDGE_CURVE ( 'NONE', #96, #248, #295, .T. ) ;
#9 = CONICAL_SURFACE ( 'NONE', #197, 0.1031100000000002709, 0.7853981633974318477 ) ;
#10 = PRODUCT_DEFINITION_FORMATION_WITH_SPECIFIED_SOURCE ( 'ANY', '', #278, .NOT_KNOWN. ) ;
#11 = DIRECTION ( 'NONE',  ( 1.000000000000000000, 0.0000000000000000000, 0.0000000000000000000 ) ) ;
#12 = CARTESIAN_POINT ( 'NONE',  ( 0.0000000000000000000, 0.0000000000000000000, 0.0000000000000000000 ) ) ;
#13 = EDGE_LOOP ( 'NONE', ( #102, #50 ) ) ;
#14 = DIRECTION ( 'NONE',  ( 1.000000000000000000, 0.0000000000000000000, -0.0000000000000000000 ) ) ;
#15 = CARTESIAN_POINT ( 'NONE',  ( 8.537024980200822558E-18, 0.0000000000000000000, 0.0000000000000000000 ) ) ;
#16 = AXIS2_PLACEMENT_3D ( 'NONE', #134, #81, #106 ) ;
#17 = FACE_OUTER_BOUND ( 'NONE', #13, .T. ) ;
#18 = ORIENTED_EDGE ( 'NONE', *, *, #25, .T. ) ;
#19 = DIRECTION ( 'NONE',  ( 0.0000000000000000000, 0.0000000000000000000, 1.000000000000000000 ) ) ;
#20 = UNCERTAINTY_MEASURE_WITH_UNIT (LENGTH_MEASURE( 1.000000000000000082E-05 ), #156, 'distance_accuracy_value', 'NONE');
#21 = ORIENTED_EDGE ( 'NONE', *, *, #98, .F. ) ;
#22 = SURFACE_SIDE_STYLE ('',( #247 ) ) ;
#23 = DIMENSIONAL_EXPONENTS ( 1.000000000000000000, 0.0000000000000000000, 0.0000000000000000000, 0.0000000000000000000, 0.0000000000000000000, 0.0000000000000000000, 0.0000000000000000000 ) ;
#24 = ORIENTED_EDGE ( 'NONE', *, *, #308, .F. ) ;
#25 = EDGE_CURVE ( 'NONE', #194, #123, #325, .T. ) ;
#26 = DIRECTION ( 'NONE',  ( 1.000000000000000000, 0.0000000000000000000, -0.0000000000000000000 ) ) ;
#27 = TOROIDAL_SURFACE ( 'NONE', #72, 0.04133498323758130061, 0.01181100000000009226 ) ;
#28 = CIRCLE ( 'NONE', #83, 0.1181100000000000344 ) ;
#29 = EDGE_CURVE ( 'NONE', #168, #194, #271, .T. ) ;
#30 = AXIS2_PLACEMENT_3D ( 'NONE', #209, #55, #281 ) ;
#31 = AXIS2_PLACEMENT_3D ( 'NONE', #153, #78, #148 ) ;
#32 = DIRECTION ( 'NONE',  ( -1.000000000000000000, 0.0000000000000000000, 1.264905064376550141E-16 ) ) ;
#33 = SURFACE_SIDE_STYLE ('',( #182 ) ) ;
#34 = DIRECTION ( 'NONE',  ( 1.000000000000000000, 0.0000000000000000000, 0.0000000000000000000 ) ) ;
#35 = AXIS2_PLACEMENT_3D ( 'NONE', #230, #211, #34 ) ;
#36 = AXIS2_PLACEMENT_3D ( 'NONE', #317, #161, #320 ) ;
#37 = ORIENTED_EDGE ( 'NONE', *, *, #318, .T. ) ;
#38 = CARTESIAN_POINT ( 'NONE',  ( 8.537024980200822558E-18, 0.0000000000000000000, 0.005117998791752706271 ) ) ;
#39 = ADVANCED_BREP_SHAPE_REPRESENTATION ( 'Micro_CREM-060-030', ( #202, #31 ), #256 ) ;
#40 = DIRECTION ( 'NONE',  ( -1.250499981774462892E-16, -0.0000000000000000000, -1.000000000000000000 ) ) ;
#41 = DIRECTION ( 'NONE',  ( 1.000000000000000000, 0.0000000000000000000, 0.0000000000000000000 ) ) ;
#42 = CIRCLE ( 'NONE', #263, 0.04133498323758130061 ) ;
#43 = CARTESIAN_POINT ( 'NONE',  ( 0.0000000000000000000, 0.0000000000000000000, 2.244094000000000033 ) ) ;
#44 = EDGE_LOOP ( 'NONE', ( #121, #48, #71, #57 ) ) ;
#45 = CARTESIAN_POINT ( 'NONE',  ( 0.0000000000000000000, 0.0000000000000000000, 2.244094000000000033 ) ) ;
#46 = ORIENTED_EDGE ( 'NONE', *, *, #110, .T. ) ;
#47 = DIRECTION ( 'NONE',  ( -1.000000000000000000, 0.0000000000000000000, 0.0000000000000000000 ) ) ;
#48 = ORIENTED_EDGE ( 'NONE', *, *, #139, .T. ) ;
#49 = COLOUR_RGB ( '',0.7921568627450980005, 0.8196078431372548767, 0.9333333333333333481 ) ;
#50 = ORIENTED_EDGE ( 'NONE', *, *, #205, .F. ) ;
#51 = ORIENTED_EDGE ( 'NONE', *, *, #126, .T. ) ;
#52 =( NAMED_UNIT ( * ) PLANE_ANGLE_UNIT ( ) SI_UNIT ( $, .RADIAN. ) );
#53 = AXIS2_PLACEMENT_3D ( 'NONE', #3, #61, #62 ) ;
#54 = CARTESIAN_POINT ( 'NONE',  ( -0.1181100000000000344, 0.0000000000000000000, 2.229093999999999465 ) ) ;
#55 = DIRECTION ( 'NONE',  ( -1.250499981774462892E-16, -0.0000000000000000000, -1.000000000000000000 ) ) ;
#56 = FACE_OUTER_BOUND ( 'NONE', #289, .T. ) ;
#57 = ORIENTED_EDGE ( 'NONE', *, *, #126, .F. ) ;
#58 = CARTESIAN_POINT ( 'NONE',  ( 0.1031100000000002709, 1.354581824536889030E-17, 2.244094000000000033 ) ) ;
#59 = EDGE_CURVE ( 'NONE', #133, #188, #94, .T. ) ;
#60 = CARTESIAN_POINT ( 'NONE',  ( 0.0000000000000000000, 0.0000000000000000000, 2.244094000000000033 ) ) ;
#61 = DIRECTION ( 'NONE',  ( 0.0000000000000000000, 0.0000000000000000000, 1.000000000000000000 ) ) ;
#62 = DIRECTION ( 'NONE',  ( 1.000000000000000000, 0.0000000000000000000, 0.0000000000000000000 ) ) ;
#63 = ORIENTED_EDGE ( 'NONE', *, *, #283, .F. ) ;
#64 = PRESENTATION_LAYER_ASSIGNMENT (  '', '', ( #296 ) ) ;
#65 = PRESENTATION_LAYER_ASSIGNMENT (  '', '', ( #326 ) ) ;
#66 = FACE_OUTER_BOUND ( 'NONE', #198, .T. ) ;
#67 = EDGE_LOOP ( 'NONE', ( #299, #75, #222, #218 ) ) ;
#68 = CARTESIAN_POINT ( 'NONE',  ( 0.02952398323758121876, 3.615645156998396157E-18, 0.005117998791752702802 ) ) ;
#69 = VERTEX_POINT ( 'NONE', #54 ) ;
#70 = PLANE ( 'NONE',  #181 ) ;
#71 = ORIENTED_EDGE ( 'NONE', *, *, #154, .T. ) ;
#72 = AXIS2_PLACEMENT_3D ( 'NONE', #86, #305, #80 ) ;
#73 = MECHANICAL_DESIGN_GEOMETRIC_PRESENTATION_REPRESENTATION (  '', ( #326 ), #136 ) ;
#74 = ADVANCED_FACE ( 'NONE', ( #88 ), #204, .T. ) ;
#75 = ORIENTED_EDGE ( 'NONE', *, *, #87, .T. ) ;
#76 = FILL_AREA_STYLE ('',( #270 ) ) ;
#77 = ORIENTED_EDGE ( 'NONE', *, *, #318, .F. ) ;
#78 = DIRECTION ( 'NONE',  ( 0.0000000000000000000, 0.0000000000000000000, 1.000000000000000000 ) ) ;
#79 = APPLICATION_PROTOCOL_DEFINITION ( 'draft international standard', 'automotive_design', 1998, #90 ) ;
#80 = DIRECTION ( 'NONE',  ( -1.000000000000000000, 0.0000000000000000000, 1.250499981774462892E-16 ) ) ;
#81 = DIRECTION ( 'NONE',  ( -1.224646799147353207E-16, 1.000000000000000000, 1.531420800013919374E-32 ) ) ;
#82 = CIRCLE ( 'NONE', #16, 0.01181100000000009226 ) ;
#83 = AXIS2_PLACEMENT_3D ( 'NONE', #117, #219, #41 ) ;
#84 = DIRECTION ( 'NONE',  ( -1.000000000000000000, 0.0000000000000000000, 1.250499981774462892E-16 ) ) ;
#85 = ORIENTED_EDGE ( 'NONE', *, *, #205, .T. ) ;
#86 = CARTESIAN_POINT ( 'NONE',  ( 8.537024980200822558E-18, 0.0000000000000000000, 0.005117998791752706271 ) ) ;
#87 = EDGE_CURVE ( 'NONE', #248, #158, #307, .T. ) ;
#88 = FACE_OUTER_BOUND ( 'NONE', #255, .T. ) ;
#89 = ORIENTED_EDGE ( 'NONE', *, *, #269, .T. ) ;
#90 = APPLICATION_CONTEXT ( 'automotive_design' ) ;
#91 = CARTESIAN_POINT ( 'NONE',  ( 0.1181100000000000344, 1.446430334472939084E-17, 2.229093999999999465 ) ) ;
#92 = DIRECTION ( 'NONE',  ( -1.000000000000000000, 0.0000000000000000000, 0.0000000000000000000 ) ) ;
#93 = LINE ( 'NONE', #195, #244 ) ;
#94 = CIRCLE ( 'NONE', #226, 0.02952398323758123611 ) ;
#95 = CARTESIAN_POINT ( 'NONE',  ( -0.1031100000000002709, 0.0000000000000000000, 2.244094000000000033 ) ) ;
#96 = VERTEX_POINT ( 'NONE', #58 ) ;
#97 = VERTEX_POINT ( 'NONE', #104 ) ;
#98 = EDGE_CURVE ( 'NONE', #273, #188, #210, .T. ) ;
#99 = PRODUCT_DEFINITION_CONTEXT ( 'detailed design', #300, 'design' ) ;
#100 = ORIENTED_EDGE ( 'NONE', *, *, #212, .F. ) ;
#101 = SURFACE_STYLE_USAGE ( .BOTH. , #22 ) ;
#102 = ORIENTED_EDGE ( 'NONE', *, *, #59, .F. ) ;
#103 = APPLICATION_PROTOCOL_DEFINITION ( 'draft international standard', 'automotive_design', 1998, #300 ) ;
#104 = CARTESIAN_POINT ( 'NONE',  ( -0.1031100000000002709, 0.0000000000000000000, 2.244094000000000033 ) ) ;
#105 = CARTESIAN_POINT ( 'NONE',  ( -0.02952398323758120141, 0.0000000000000000000, 0.005117998791752708873 ) ) ;
#106 = DIRECTION ( 'NONE',  ( -1.000000000000000000, -1.224646799147353207E-16, 0.0000000000000000000 ) ) ;
#107 =( GEOMETRIC_REPRESENTATION_CONTEXT ( 3 ) GLOBAL_UNCERTAINTY_ASSIGNED_CONTEXT ( ( #20 ) ) GLOBAL_UNIT_ASSIGNED_CONTEXT ( ( #156, #145, #217 ) ) REPRESENTATION_CONTEXT ( 'NONE', 'WORKASPACE' ) );
#108 = AXIS2_PLACEMENT_3D ( 'NONE', #43, #115, #203 ) ;
#109 = PRESENTATION_STYLE_ASSIGNMENT (( #185 ) ) ;
#110 = EDGE_CURVE ( 'NONE', #273, #123, #82, .T. ) ;
#111 = CARTESIAN_POINT ( 'NONE',  ( 0.1181100000000000344, 1.446430334472939084E-17, 2.244094000000000033 ) ) ;
#112 = AXIS2_PLACEMENT_3D ( 'NONE', #38, #128, #84 ) ;
#113 = AXIS2_PLACEMENT_3D ( 'NONE', #12, #285, #14 ) ;
#114 = FACE_OUTER_BOUND ( 'NONE', #44, .T. ) ;
#115 = DIRECTION ( 'NONE',  ( -0.0000000000000000000, -0.0000000000000000000, -1.000000000000000000 ) ) ;
#116 = ORIENTED_EDGE ( 'NONE', *, *, #29, .T. ) ;
#117 = CARTESIAN_POINT ( 'NONE',  ( 0.0000000000000000000, 0.0000000000000000000, 2.229093999999999465 ) ) ;
#118 = CLOSED_SHELL ( 'NONE', ( #183, #74, #216, #231, #324, #330, #257, #274, #149, #144, #294 ) ) ;
#119 = DIRECTION ( 'NONE',  ( -1.250499981774462892E-16, -0.0000000000000000000, -1.000000000000000000 ) ) ;
#120 = CARTESIAN_POINT ( 'NONE',  ( 1.065399624825550151E-17, 0.0000000000000000000, 0.01692899879175279940 ) ) ;
#121 = ORIENTED_EDGE ( 'NONE', *, *, #87, .F. ) ;
#122 =( LENGTH_UNIT ( ) NAMED_UNIT ( * ) SI_UNIT ( $, .METRE. ) );
#123 = VERTEX_POINT ( 'NONE', #235 ) ;
#124 = FACE_OUTER_BOUND ( 'NONE', #171, .T. ) ;
#125 = ORIENTED_EDGE ( 'NONE', *, *, #279, .T. ) ;
#126 = EDGE_CURVE ( 'NONE', #158, #319, #312, .T. ) ;
#127 = LENGTH_MEASURE_WITH_UNIT ( LENGTH_MEASURE( 0.02539999999999999897 ), #122 );
#128 = DIRECTION ( 'NONE',  ( -1.250499981774462892E-16, -0.0000000000000000000, -1.000000000000000000 ) ) ;
#129 =( LENGTH_UNIT ( ) NAMED_UNIT ( * ) SI_UNIT ( $, .METRE. ) );
#130 = PRODUCT_DEFINITION_SHAPE ( 'NONE', 'NONE',  #264 ) ;
#131 = DIRECTION ( 'NONE',  ( 1.000000000000000000, 0.0000000000000000000, 0.0000000000000000000 ) ) ;
#132 = CIRCLE ( 'NONE', #316, 0.02952398323758121182 ) ;
#133 = VERTEX_POINT ( 'NONE', #275 ) ;
#134 = CARTESIAN_POINT ( 'NONE',  ( 0.04133498323758131449, 5.062075491471344177E-18, 0.005117998791752700199 ) ) ;
#135 = DIRECTION ( 'NONE',  ( 0.0000000000000000000, 0.0000000000000000000, -1.000000000000000000 ) ) ;
#136 =( GEOMETRIC_REPRESENTATION_CONTEXT ( 3 ) GLOBAL_UNCERTAINTY_ASSIGNED_CONTEXT ( ( #280 ) ) GLOBAL_UNIT_ASSIGNED_CONTEXT ( ( #298, #172, #152 ) ) REPRESENTATION_CONTEXT ( 'NONE', 'WORKASPACE' ) );
#137 = DIRECTION ( 'NONE',  ( 0.0000000000000000000, 0.0000000000000000000, 1.000000000000000000 ) ) ;
#138 = CIRCLE ( 'NONE', #179, 0.1031100000000002709 ) ;
#139 = EDGE_CURVE ( 'NONE', #248, #69, #261, .T. ) ;
#140 = DIRECTION ( 'NONE',  ( -0.7071067811865358044, 0.0000000000000000000, -0.7071067811865590080 ) ) ;
#141 = ORIENTED_EDGE ( 'NONE', *, *, #212, .T. ) ;
#142 = PLANE ( 'NONE',  #233 ) ;
#143 = EDGE_LOOP ( 'NONE', ( #227, #314, #24, #173 ) ) ;
#144 = ADVANCED_FACE ( 'NONE', ( #232 ), #207, .F. ) ;
#145 =( NAMED_UNIT ( * ) PLANE_ANGLE_UNIT ( ) SI_UNIT ( $, .RADIAN. ) );
#146 = ORIENTED_EDGE ( 'NONE', *, *, #236, .T. ) ;
#147 = ORIENTED_EDGE ( 'NONE', *, *, #59, .T. ) ;
#148 = DIRECTION ( 'NONE',  ( 1.000000000000000000, 0.0000000000000000000, 0.0000000000000000000 ) ) ;
#149 = ADVANCED_FACE ( 'NONE', ( #160 ), #311, .T. ) ;
#150 = ORIENTED_EDGE ( 'NONE', *, *, #2, .T. ) ;
#151 = DIMENSIONAL_EXPONENTS ( 1.000000000000000000, 0.0000000000000000000, 0.0000000000000000000, 0.0000000000000000000, 0.0000000000000000000, 0.0000000000000000000, 0.0000000000000000000 ) ;
#152 =( NAMED_UNIT ( * ) SI_UNIT ( $, .STERADIAN. ) SOLID_ANGLE_UNIT ( ) );
#153 = CARTESIAN_POINT ( 'NONE',  ( 0.0000000000000000000, 0.0000000000000000000, 0.0000000000000000000 ) ) ;
#154 = EDGE_CURVE ( 'NONE', #69, #319, #258, .T. ) ;
#155 = CARTESIAN_POINT ( 'NONE',  ( 0.02952398323758124651, 3.615645156998396927E-18, 0.0000000000000000000 ) ) ;
#156 =( CONVERSION_BASED_UNIT ( 'INCH', #250 ) LENGTH_UNIT ( ) NAMED_UNIT ( #23 ) );
#157 = CARTESIAN_POINT ( 'NONE',  ( 0.02952398323758124651, 3.615645156998396927E-18, -9.202884646213579614E-18 ) ) ;
#158 = VERTEX_POINT ( 'NONE', #1 ) ;
#159 = AXIS2_PLACEMENT_3D ( 'NONE', #223, #322, #192 ) ;
#160 = FACE_OUTER_BOUND ( 'NONE', #240, .T. ) ;
#161 = DIRECTION ( 'NONE',  ( -1.250499981774462892E-16, -0.0000000000000000000, -1.000000000000000000 ) ) ;
#162 = DIRECTION ( 'NONE',  ( -1.000000000000000000, 0.0000000000000000000, 1.032663413836715365E-16 ) ) ;
#163 = CARTESIAN_POINT ( 'NONE',  ( -0.1181100000000000344, 0.0000000000000000000, 0.01692899879175293817 ) ) ;
#164 = UNCERTAINTY_MEASURE_WITH_UNIT (LENGTH_MEASURE( 1.000000000000000082E-05 ), #251, 'distance_accuracy_value', 'NONE');
#165 = CIRCLE ( 'NONE', #228, 0.02952398323758121182 ) ;
#166 = EDGE_LOOP ( 'NONE', ( #146, #51 ) ) ;
#167 = DIRECTION ( 'NONE',  ( 0.0000000000000000000, 0.0000000000000000000, -1.000000000000000000 ) ) ;
#168 = VERTEX_POINT ( 'NONE', #105 ) ;
#169 = FACE_OUTER_BOUND ( 'NONE', #166, .T. ) ;
#170 = ORIENTED_EDGE ( 'NONE', *, *, #110, .F. ) ;
#171 = EDGE_LOOP ( 'NONE', ( #37, #7 ) ) ;
#172 =( NAMED_UNIT ( * ) PLANE_ANGLE_UNIT ( ) SI_UNIT ( $, .RADIAN. ) );
#173 = ORIENTED_EDGE ( 'NONE', *, *, #269, .F. ) ;
#174 = PRODUCT_RELATED_PRODUCT_CATEGORY ( 'part', '', ( #278 ) ) ;
#175 = ORIENTED_EDGE ( 'NONE', *, *, #139, .F. ) ;
#176 = AXIS2_PLACEMENT_3D ( 'NONE', #253, #4, #304 ) ;
#177 =( LENGTH_UNIT ( ) NAMED_UNIT ( * ) SI_UNIT ( $, .METRE. ) );
#178 = FILL_AREA_STYLE ('',( #206 ) ) ;
#179 = AXIS2_PLACEMENT_3D ( 'NONE', #60, #137, #11 ) ;
#180 = VECTOR ( 'NONE', #246, 39.37007874015748854 ) ;
#181 = AXIS2_PLACEMENT_3D ( 'NONE', #224, #19, #26 ) ;
#182 = SURFACE_STYLE_FILL_AREA ( #178 ) ;
#183 = ADVANCED_FACE ( 'NONE', ( #56 ), #27, .F. ) ;
#184 = CARTESIAN_POINT ( 'NONE',  ( -0.1181100000000000344, 0.0000000000000000000, 2.244094000000000033 ) ) ;
#185 = SURFACE_STYLE_USAGE ( .BOTH. , #33 ) ;
#186 = MECHANICAL_DESIGN_GEOMETRIC_PRESENTATION_REPRESENTATION (  '', ( #296 ), #107 ) ;
#187 = PLANE ( 'NONE',  #113 ) ;
#188 = VERTEX_POINT ( 'NONE', #155 ) ;
#189 = DIRECTION ( 'NONE',  ( -1.000000000000000000, 0.0000000000000000000, 1.250499981774462892E-16 ) ) ;
#190 = LINE ( 'NONE', #95, #252 ) ;
#191 = FACE_OUTER_BOUND ( 'NONE', #143, .T. ) ;
#192 = DIRECTION ( 'NONE',  ( -1.000000000000000000, 0.0000000000000000000, 1.032663413836715365E-16 ) ) ;
#193 = FACE_OUTER_BOUND ( 'NONE', #67, .T. ) ;
#194 = VERTEX_POINT ( 'NONE', #331 ) ;
#195 = CARTESIAN_POINT ( 'NONE',  ( -0.02952398323758122917, 0.0000000000000000000, -1.818936546112604119E-18 ) ) ;
#196 = PRESENTATION_STYLE_ASSIGNMENT (( #101 ) ) ;
#197 = AXIS2_PLACEMENT_3D ( 'NONE', #45, #135, #92 ) ;
#198 = EDGE_LOOP ( 'NONE', ( #321, #77, #89, #175 ) ) ;
#199 = CIRCLE ( 'NONE', #36, 0.1181100000000000344 ) ;
#200 = DIMENSIONAL_EXPONENTS ( 1.000000000000000000, 0.0000000000000000000, 0.0000000000000000000, 0.0000000000000000000, 0.0000000000000000000, 0.0000000000000000000, 0.0000000000000000000 ) ;
#201 = EDGE_LOOP ( 'NONE', ( #249, #63 ) ) ;
#202 = MANIFOLD_SOLID_BREP ( 'Cut-Revolve1', #118 ) ;
#203 = DIRECTION ( 'NONE',  ( -1.000000000000000000, 0.0000000000000000000, 0.0000000000000000000 ) ) ;
#204 = CYLINDRICAL_SURFACE ( 'NONE', #30, 0.02952398323758123611 ) ;
#205 = EDGE_CURVE ( 'NONE', #188, #133, #284, .T. ) ;
#206 = FILL_AREA_STYLE_COLOUR ( '', #49 ) ;
#207 = TOROIDAL_SURFACE ( 'NONE', #112, 0.04133498323758130061, 0.01181100000000009226 ) ;
#208 = COLOUR_RGB ( '',0.7921568627450980005, 0.8196078431372548767, 0.9333333333333333481 ) ;
#209 = CARTESIAN_POINT ( 'NONE',  ( 8.537024980200822558E-18, 0.0000000000000000000, -5.510910596163092637E-18 ) ) ;
#210 = LINE ( 'NONE', #157, #315 ) ;
#211 = DIRECTION ( 'NONE',  ( 0.0000000000000000000, 0.0000000000000000000, -1.000000000000000000 ) ) ;
#212 = EDGE_CURVE ( 'NONE', #273, #168, #132, .T. ) ;
#213 = AXIS2_PLACEMENT_3D ( 'NONE', #6, #254, #32 ) ;
#214 = CARTESIAN_POINT ( 'NONE',  ( 0.0000000000000000000, 0.0000000000000000000, 2.244094000000000033 ) ) ;
#215 = CARTESIAN_POINT ( 'NONE',  ( 9.177030719781672087E-18, 0.0000000000000000000, 0.005117998791752706271 ) ) ;
#216 = ADVANCED_FACE ( 'NONE', ( #191 ), #9, .T. ) ;
#217 =( NAMED_UNIT ( * ) SI_UNIT ( $, .STERADIAN. ) SOLID_ANGLE_UNIT ( ) );
#218 = ORIENTED_EDGE ( 'NONE', *, *, #154, .F. ) ;
#219 = DIRECTION ( 'NONE',  ( 0.0000000000000000000, 0.0000000000000000000, -1.000000000000000000 ) ) ;
#220 = DIRECTION ( 'NONE',  ( 0.0000000000000000000, 0.0000000000000000000, 1.000000000000000000 ) ) ;
#221 = DIRECTION ( 'NONE',  ( -0.0000000000000000000, -0.0000000000000000000, -1.000000000000000000 ) ) ;
#222 = ORIENTED_EDGE ( 'NONE', *, *, #236, .F. ) ;
#223 = CARTESIAN_POINT ( 'NONE',  ( 1.065399624825550151E-17, 0.0000000000000000000, 0.01692899879175279940 ) ) ;
#224 = CARTESIAN_POINT ( 'NONE',  ( 0.0000000000000000000, 0.0000000000000000000, 2.244094000000000033 ) ) ;
#225 = AXIS2_PLACEMENT_3D ( 'NONE', #287, #260, #239 ) ;
#226 = AXIS2_PLACEMENT_3D ( 'NONE', #15, #220, #131 ) ;
#227 = ORIENTED_EDGE ( 'NONE', *, *, #288, .F. ) ;
#228 = AXIS2_PLACEMENT_3D ( 'NONE', #265, #241, #286 ) ;
#229 = PRODUCT_CONTEXT ( 'NONE', #90, 'mechanical' ) ;
#230 = CARTESIAN_POINT ( 'NONE',  ( 0.0000000000000000000, 0.0000000000000000000, 2.229093999999999465 ) ) ;
#231 = ADVANCED_FACE ( 'NONE', ( #193 ), #238, .T. ) ;
#232 = FACE_OUTER_BOUND ( 'NONE', #327, .T. ) ;
#233 = AXIS2_PLACEMENT_3D ( 'NONE', #267, #243, #189 ) ;
#234 = DIRECTION ( 'NONE',  ( -0.0000000000000000000, -0.0000000000000000000, -1.000000000000000000 ) ) ;
#235 = CARTESIAN_POINT ( 'NONE',  ( 0.04133498323758131449, 5.062075491471344177E-18, 0.01692899879175279246 ) ) ;
#236 = EDGE_CURVE ( 'NONE', #319, #158, #199, .T. ) ;
#237 = FACE_BOUND ( 'NONE', #201, .T. ) ;
#238 = CYLINDRICAL_SURFACE ( 'NONE', #276, 0.1181100000000000344 ) ;
#239 = DIRECTION ( 'NONE',  ( 1.000000000000000000, 0.0000000000000000000, 0.0000000000000000000 ) ) ;
#240 = EDGE_LOOP ( 'NONE', ( #21, #141, #150, #147 ) ) ;
#241 = DIRECTION ( 'NONE',  ( -1.250499981774462892E-16, -0.0000000000000000000, -1.000000000000000000 ) ) ;
#242 = DIRECTION ( 'NONE',  ( 0.0000000000000000000, 0.0000000000000000000, -1.000000000000000000 ) ) ;
#243 = DIRECTION ( 'NONE',  ( -1.250499981774462892E-16, 0.0000000000000000000, -1.000000000000000000 ) ) ;
#244 = VECTOR ( 'NONE', #119, 39.37007874015748143 ) ;
#245 = CIRCLE ( 'NONE', #225, 0.1031100000000002709 ) ;
#246 = DIRECTION ( 'NONE',  ( 0.7071067811865358044, 8.659560562354788645E-17, -0.7071067811865590080 ) ) ;
#247 = SURFACE_STYLE_FILL_AREA ( #76 ) ;
#248 = VERTEX_POINT ( 'NONE', #91 ) ;
#249 = ORIENTED_EDGE ( 'NONE', *, *, #25, .F. ) ;
#250 = LENGTH_MEASURE_WITH_UNIT ( LENGTH_MEASURE( 0.02539999999999999897 ), #129 );
#251 =( CONVERSION_BASED_UNIT ( 'INCH', #127 ) LENGTH_UNIT ( ) NAMED_UNIT ( #151 ) );
#252 = VECTOR ( 'NONE', #140, 39.37007874015748854 ) ;
#253 = CARTESIAN_POINT ( 'NONE',  ( 8.537024980200822558E-18, 0.0000000000000000000, -5.510910596163092637E-18 ) ) ;
#254 = DIRECTION ( 'NONE',  ( -1.250499981774462892E-16, -0.0000000000000000000, -1.000000000000000000 ) ) ;
#255 = EDGE_LOOP ( 'NONE', ( #125, #309, #85, #5 ) ) ;
#256 =( GEOMETRIC_REPRESENTATION_CONTEXT ( 3 ) GLOBAL_UNCERTAINTY_ASSIGNED_CONTEXT ( ( #164 ) ) GLOBAL_UNIT_ASSIGNED_CONTEXT ( ( #251, #52, #301 ) ) REPRESENTATION_CONTEXT ( 'NONE', 'WORKASPACE' ) );
#257 = ADVANCED_FACE ( 'NONE', ( #66 ), #323, .T. ) ;
#258 = LINE ( 'NONE', #184, #306 ) ;
#259 = DIRECTION ( 'NONE',  ( -1.000000000000000000, 0.0000000000000000000, 1.084333486377357081E-16 ) ) ;
#260 = DIRECTION ( 'NONE',  ( 0.0000000000000000000, 0.0000000000000000000, 1.000000000000000000 ) ) ;
#261 = CIRCLE ( 'NONE', #35, 0.1181100000000000344 ) ;
#262 = CYLINDRICAL_SURFACE ( 'NONE', #108, 0.1181100000000000344 ) ;
#263 = AXIS2_PLACEMENT_3D ( 'NONE', #120, #313, #162 ) ;
#264 = PRODUCT_DEFINITION ( 'UNKNOWN', '', #10, #99 ) ;
#265 = CARTESIAN_POINT ( 'NONE',  ( 9.177030719781672087E-18, 0.0000000000000000000, 0.005117998791752706271 ) ) ;
#266 = DIRECTION ( 'NONE',  ( 0.0000000000000000000, -1.000000000000000000, 0.0000000000000000000 ) ) ;
#267 = CARTESIAN_POINT ( 'NONE',  ( -0.04133498323758129367, 0.0000000000000000000, 0.01692899879175282368 ) ) ;
#268 = CARTESIAN_POINT ( 'NONE',  ( 0.1031100000000002709, 1.262733314600839129E-17, 2.244094000000000033 ) ) ;
#269 = EDGE_CURVE ( 'NONE', #97, #69, #190, .T. ) ;
#270 = FILL_AREA_STYLE_COLOUR ( '', #208 ) ;
#271 = CIRCLE ( 'NONE', #302, 0.01181100000000009226 ) ;
#272 = ORIENTED_EDGE ( 'NONE', *, *, #29, .F. ) ;
#273 = VERTEX_POINT ( 'NONE', #68 ) ;
#274 = ADVANCED_FACE ( 'NONE', ( #237, #169 ), #142, .T. ) ;
#275 = CARTESIAN_POINT ( 'NONE',  ( -0.02952398323758122917, 0.0000000000000000000, 0.0000000000000000000 ) ) ;
#276 = AXIS2_PLACEMENT_3D ( 'NONE', #214, #221, #290 ) ;
#277 = SHAPE_DEFINITION_REPRESENTATION ( #130, #39 ) ;
#278 = PRODUCT ( 'Micro_CREM-060-030', 'Micro_CREM-060-030', '', ( #229 ) ) ;
#279 = EDGE_CURVE ( 'NONE', #168, #273, #165, .T. ) ;
#280 = UNCERTAINTY_MEASURE_WITH_UNIT (LENGTH_MEASURE( 1.000000000000000082E-05 ), #298, 'distance_accuracy_value', 'NONE');
#281 = DIRECTION ( 'NONE',  ( -1.000000000000000000, 0.0000000000000000000, 1.250499981774462892E-16 ) ) ;
#282 = DIRECTION ( 'NONE',  ( -0.0000000000000000000, -0.0000000000000000000, -1.000000000000000000 ) ) ;
#283 = EDGE_CURVE ( 'NONE', #123, #194, #42, .T. ) ;
#284 = CIRCLE ( 'NONE', #53, 0.02952398323758123611 ) ;
#285 = DIRECTION ( 'NONE',  ( 0.0000000000000000000, 0.0000000000000000000, 1.000000000000000000 ) ) ;
#286 = DIRECTION ( 'NONE',  ( -1.000000000000000000, 0.0000000000000000000, 1.084333486377357081E-16 ) ) ;
#287 = CARTESIAN_POINT ( 'NONE',  ( 0.0000000000000000000, 0.0000000000000000000, 2.244094000000000033 ) ) ;
#288 = EDGE_CURVE ( 'NONE', #96, #97, #245, .T. ) ;
#289 = EDGE_LOOP ( 'NONE', ( #100, #46, #297, #272 ) ) ;
#290 = DIRECTION ( 'NONE',  ( -1.000000000000000000, 0.0000000000000000000, 0.0000000000000000000 ) ) ;
#291 = CARTESIAN_POINT ( 'NONE',  ( -0.04133498323758129367, 0.0000000000000000000, 0.005117998791752711475 ) ) ;
#292 = CARTESIAN_POINT ( 'NONE',  ( 0.0000000000000000000, 0.0000000000000000000, 2.244094000000000033 ) ) ;
#293 = ORIENTED_EDGE ( 'NONE', *, *, #279, .F. ) ;
#294 = ADVANCED_FACE ( 'NONE', ( #17 ), #187, .F. ) ;
#295 = LINE ( 'NONE', #268, #180 ) ;
#296 = STYLED_ITEM ( 'NONE', ( #109 ), #202 ) ;
#297 = ORIENTED_EDGE ( 'NONE', *, *, #283, .T. ) ;
#298 =( CONVERSION_BASED_UNIT ( 'INCH', #328 ) LENGTH_UNIT ( ) NAMED_UNIT ( #200 ) );
#299 = ORIENTED_EDGE ( 'NONE', *, *, #308, .T. ) ;
#300 = APPLICATION_CONTEXT ( 'automotive_design' ) ;
#301 =( NAMED_UNIT ( * ) SI_UNIT ( $, .STERADIAN. ) SOLID_ANGLE_UNIT ( ) );
#302 = AXIS2_PLACEMENT_3D ( 'NONE', #291, #266, #242 ) ;
#303 = AXIS2_PLACEMENT_3D ( 'NONE', #292, #167, #47 ) ;
#304 = DIRECTION ( 'NONE',  ( -1.000000000000000000, 0.0000000000000000000, 1.250499981774462892E-16 ) ) ;
#305 = DIRECTION ( 'NONE',  ( -1.250499981774462892E-16, -0.0000000000000000000, -1.000000000000000000 ) ) ;
#306 = VECTOR ( 'NONE', #282, 39.37007874015748143 ) ;
#307 = LINE ( 'NONE', #111, #329 ) ;
#308 = EDGE_CURVE ( 'NONE', #69, #248, #28, .T. ) ;
#309 = ORIENTED_EDGE ( 'NONE', *, *, #98, .T. ) ;
#310 = DIRECTION ( 'NONE',  ( -1.250499981774462892E-16, -0.0000000000000000000, -1.000000000000000000 ) ) ;
#311 = CYLINDRICAL_SURFACE ( 'NONE', #176, 0.02952398323758123611 ) ;
#312 = CIRCLE ( 'NONE', #213, 0.1181100000000000344 ) ;
#313 = DIRECTION ( 'NONE',  ( -1.250499981774462892E-16, -0.0000000000000000000, -1.000000000000000000 ) ) ;
#314 = ORIENTED_EDGE ( 'NONE', *, *, #8, .T. ) ;
#315 = VECTOR ( 'NONE', #310, 39.37007874015748143 ) ;
#316 = AXIS2_PLACEMENT_3D ( 'NONE', #215, #40, #259 ) ;
#317 = CARTESIAN_POINT ( 'NONE',  ( 0.0000000000000000000, 0.0000000000000000000, 0.01692899879175292430 ) ) ;
#318 = EDGE_CURVE ( 'NONE', #97, #96, #138, .T. ) ;
#319 = VERTEX_POINT ( 'NONE', #163 ) ;
#320 = DIRECTION ( 'NONE',  ( -1.000000000000000000, 0.0000000000000000000, 1.264905064376550141E-16 ) ) ;
#321 = ORIENTED_EDGE ( 'NONE', *, *, #8, .F. ) ;
#322 = DIRECTION ( 'NONE',  ( -1.250499981774462892E-16, -0.0000000000000000000, -1.000000000000000000 ) ) ;
#323 = CONICAL_SURFACE ( 'NONE', #303, 0.1031100000000002709, 0.7853981633974318477 ) ;
#324 = ADVANCED_FACE ( 'NONE', ( #114 ), #262, .T. ) ;
#325 = CIRCLE ( 'NONE', #159, 0.04133498323758130061 ) ;
#326 = STYLED_ITEM ( 'NONE', ( #196 ), #39 ) ;
#327 = EDGE_LOOP ( 'NONE', ( #170, #293, #116, #18 ) ) ;
#328 = LENGTH_MEASURE_WITH_UNIT ( LENGTH_MEASURE( 0.02539999999999999897 ), #177 );
#329 = VECTOR ( 'NONE', #234, 39.37007874015748143 ) ;
#330 = ADVANCED_FACE ( 'NONE', ( #124 ), #70, .T. ) ;
#331 = CARTESIAN_POINT ( 'NONE',  ( -0.04133498323758129367, 0.0000000000000000000, 0.01692899879175280287 ) ) ;
ENDSEC;
END-ISO-10303-21;
