ISO-10303-21;
HEADER;
FILE_DESCRIPTION (( 'STEP AP214' ),
    '1' );
FILE_NAME ('83794.STEP',
    '2023-07-05T16:06:51',
    ( '' ),
    ( '' ),
    'SwSTEP 2.0',
    'SolidWorks 2023',
    '' );
FILE_SCHEMA (( 'AUTOMOTIVE_DESIGN' ));
ENDSEC;

DATA;
#1 = CARTESIAN_POINT ( 'NONE',  ( 0.000000000000000000, 0.4330127018922180770, 0.000000000000000000 ) ) ;
#2 = UNCERTAINTY_MEASURE_WITH_UNIT (LENGTH_MEASURE( 1.000000000000000082E-05 ), #90, 'distance_accuracy_value', 'NONE');
#3 = CIRCLE ( 'NONE', #260, 0.2499999999999999722 ) ;
#4 = FILL_AREA_STYLE ('',( #120 ) ) ;
#5 = ORIENTED_EDGE ( 'NONE', *, *, #255, .F. ) ;
#6 = PRESENTATION_LAYER_ASSIGNMENT (  '', '', ( #44 ) ) ;
#7 = ORIENTED_EDGE ( 'NONE', *, *, #27, .F. ) ;
#8 =( CONVERSION_BASED_UNIT ( 'INCH', #91 ) LENGTH_UNIT ( ) NAMED_UNIT ( #252 ) );
#9 = DIRECTION ( 'NONE',  ( -1.252875704100928464E-16, 1.000000000000000000, -0.000000000000000000 ) ) ;
#10 = PRESENTATION_LAYER_ASSIGNMENT (  '', '', ( #64 ) ) ;
#11 = FILL_AREA_STYLE_COLOUR ( '', #233 ) ;
#12 = FACE_OUTER_BOUND ( 'NONE', #164, .T. ) ;
#13 = STYLED_ITEM ( 'NONE', ( #116 ), #227 ) ;
#14 = DIRECTION ( 'NONE',  ( -1.252875704100928464E-16, 1.000000000000000000, -0.000000000000000000 ) ) ;
#15 = ADVANCED_BREP_SHAPE_REPRESENTATION ( '83794', ( #232, #139, #211 ), #203 ) ;
#16 = SURFACE_SIDE_STYLE ('',( #240 ) ) ;
#17 = PRODUCT_RELATED_PRODUCT_CATEGORY ( 'part', '', ( #88 ) ) ;
#18 =( LENGTH_UNIT ( ) NAMED_UNIT ( * ) SI_UNIT ( $, .METRE. ) );
#19 = VECTOR ( 'NONE', #9, 39.37007874015748143 ) ;
#20 = ORIENTED_EDGE ( 'NONE', *, *, #109, .F. ) ;
#21 =( NAMED_UNIT ( * ) PLANE_ANGLE_UNIT ( ) SI_UNIT ( $, .RADIAN. ) );
#22 = EDGE_LOOP ( 'NONE', ( #7, #168, #103, #122 ) ) ;
#23 = PRESENTATION_LAYER_ASSIGNMENT (  '', '', ( #256 ) ) ;
#24 =( CONVERSION_BASED_UNIT ( 'INCH', #206 ) LENGTH_UNIT ( ) NAMED_UNIT ( #172 ) );
#25 = LINE ( 'NONE', #52, #253 ) ;
#26 = AXIS2_PLACEMENT_3D ( 'NONE', #264, #14, #241 ) ;
#27 = EDGE_CURVE ( 'NONE', #187, #237, #192, .T. ) ;
#28 =( NAMED_UNIT ( * ) PLANE_ANGLE_UNIT ( ) SI_UNIT ( $, .RADIAN. ) );
#29 = DIRECTION ( 'NONE',  ( 0.000000000000000000, 0.000000000000000000, 1.000000000000000000 ) ) ;
#30 =( LENGTH_UNIT ( ) NAMED_UNIT ( * ) SI_UNIT ( $, .METRE. ) );
#31 = CIRCLE ( 'NONE', #36, 0.2500000000000000555 ) ;
#32 = DIRECTION ( 'NONE',  ( -1.252875704100928464E-16, 1.000000000000000000, -0.000000000000000000 ) ) ;
#33 = CYLINDRICAL_SURFACE ( 'NONE', #151, 0.2499999999999998612 ) ;
#34 = CARTESIAN_POINT ( 'NONE',  ( 2.603792618961250418E-16, 0.4330127018922179105, 0.000000000000000000 ) ) ;
#35 = CIRCLE ( 'NONE', #249, 0.2499999999999997224 ) ;
#36 = AXIS2_PLACEMENT_3D ( 'NONE', #81, #156, #178 ) ;
#37 = DIRECTION ( 'NONE',  ( -1.252875704100928464E-16, 1.000000000000000000, 0.000000000000000000 ) ) ;
#38 = DIRECTION ( 'NONE',  ( -1.000000000000000000, 0.000000000000000000, 0.000000000000000000 ) ) ;
#39 = PLANE ( 'NONE',  #82 ) ;
#40 =( NAMED_UNIT ( * ) SI_UNIT ( $, .STERADIAN. ) SOLID_ANGLE_UNIT ( ) );
#41 = AXIS2_PLACEMENT_3D ( 'NONE', #1, #141, #67 ) ;
#42 = FILL_AREA_STYLE_COLOUR ( '', #189 ) ;
#43 =( CONVERSION_BASED_UNIT ( 'INCH', #207 ) LENGTH_UNIT ( ) NAMED_UNIT ( #76 ) );
#44 = STYLED_ITEM ( 'NONE', ( #56 ), #139 ) ;
#45 = AXIS2_PLACEMENT_3D ( 'NONE', #85, #161, #104 ) ;
#46 =( NAMED_UNIT ( * ) PLANE_ANGLE_UNIT ( ) SI_UNIT ( $, .RADIAN. ) );
#47 = UNCERTAINTY_MEASURE_WITH_UNIT (LENGTH_MEASURE( 1.000000000000000082E-05 ), #74, 'distance_accuracy_value', 'NONE');
#48 = AXIS2_PLACEMENT_3D ( 'NONE', #128, #150, #126 ) ;
#49 = ORIENTED_EDGE ( 'NONE', *, *, #149, .F. ) ;
#50 = PRODUCT_DEFINITION ( 'UNKNOWN', '', #118, #51 ) ;
#51 = PRODUCT_DEFINITION_CONTEXT ( 'detailed design', #148, 'design' ) ;
#52 = CARTESIAN_POINT ( 'NONE',  ( 0.000000000000000000, 0.000000000000000000, 0.000000000000000000 ) ) ;
#53 = SURFACE_STYLE_FILL_AREA ( #155 ) ;
#54 = SURFACE_SIDE_STYLE ('',( #53 ) ) ;
#55 = STYLED_ITEM ( 'NONE', ( #79 ), #112 ) ;
#56 = PRESENTATION_STYLE_ASSIGNMENT (( #204 ) ) ;
#57 = DIRECTION ( 'NONE',  ( -1.000000000000000000, 0.000000000000000000, 0.000000000000000000 ) ) ;
#58 = EDGE_CURVE ( 'NONE', #87, #196, #229, .T. ) ;
#59 = FACE_OUTER_BOUND ( 'NONE', #185, .T. ) ;
#60 = MECHANICAL_DESIGN_GEOMETRIC_PRESENTATION_REPRESENTATION (  '', ( #256 ), #171 ) ;
#61 = DIRECTION ( 'NONE',  ( 1.000000000000000000, 1.252875704100928464E-16, 0.000000000000000000 ) ) ;
#62 = FILL_AREA_STYLE_COLOUR ( '', #265 ) ;
#63 =( NAMED_UNIT ( * ) PLANE_ANGLE_UNIT ( ) SI_UNIT ( $, .RADIAN. ) );
#64 = STYLED_ITEM ( 'NONE', ( #143 ), #232 ) ;
#65 = SURFACE_STYLE_FILL_AREA ( #226 ) ;
#66 = UNCERTAINTY_MEASURE_WITH_UNIT (LENGTH_MEASURE( 1.000000000000000082E-05 ), #179, 'distance_accuracy_value', 'NONE');
#67 = DIRECTION ( 'NONE',  ( 0.000000000000000000, -0.000000000000000000, 1.000000000000000000 ) ) ;
#68 = CARTESIAN_POINT ( 'NONE',  ( 0.2499999999999999722, 3.000000000000000444, 3.061616997868383018E-17 ) ) ;
#69 = EDGE_LOOP ( 'NONE', ( #5, #142, #78 ) ) ;
#70 = MECHANICAL_DESIGN_GEOMETRIC_PRESENTATION_REPRESENTATION (  '', ( #64 ), #201 ) ;
#71 = DIRECTION ( 'NONE',  ( 1.000000000000000000, 0.000000000000000000, 0.000000000000000000 ) ) ;
#72 = APPLICATION_PROTOCOL_DEFINITION ( 'draft international standard', 'automotive_design', 1998, #216 ) ;
#73 = CARTESIAN_POINT ( 'NONE',  ( 0.000000000000000000, 0.4330127018922180770, 0.000000000000000000 ) ) ;
#74 =( CONVERSION_BASED_UNIT ( 'INCH', #174 ) LENGTH_UNIT ( ) NAMED_UNIT ( #147 ) );
#75 = COLOUR_RGB ( '',1.000000000000000000, 0.000000000000000000, 0.000000000000000000 ) ;
#76 = DIMENSIONAL_EXPONENTS ( 1.000000000000000000, 0.000000000000000000, 0.000000000000000000, 0.000000000000000000, 0.000000000000000000, 0.000000000000000000, 0.000000000000000000 ) ;
#77 = FACE_OUTER_BOUND ( 'NONE', #190, .T. ) ;
#78 = ORIENTED_EDGE ( 'NONE', *, *, #58, .T. ) ;
#79 = PRESENTATION_STYLE_ASSIGNMENT (( #213 ) ) ;
#80 = CLOSED_SHELL ( 'NONE', ( #186, #131, #177, #209 ) ) ;
#81 = CARTESIAN_POINT ( 'NONE',  ( -6.123233995736770966E-17, 3.000000000000000444, 0.000000000000000000 ) ) ;
#82 = AXIS2_PLACEMENT_3D ( 'NONE', #117, #199, #61 ) ;
#83 = DIRECTION ( 'NONE',  ( -1.252875704100928464E-16, 1.000000000000000000, -0.000000000000000000 ) ) ;
#84 =( NAMED_UNIT ( * ) PLANE_ANGLE_UNIT ( ) SI_UNIT ( $, .RADIAN. ) );
#85 = CARTESIAN_POINT ( 'NONE',  ( 0.000000000000000000, 39.37007874015748143, 0.000000000000000000 ) ) ;
#86 = AXIS2_PLACEMENT_3D ( 'NONE', #212, #153, #231 ) ;
#87 = VERTEX_POINT ( 'NONE', #251 ) ;
#88 = PRODUCT ( '83794', '83794', '', ( #129 ) ) ;
#89 = LENGTH_MEASURE_WITH_UNIT ( LENGTH_MEASURE( 0.02539999999999999897 ), #102 );
#90 =( CONVERSION_BASED_UNIT ( 'INCH', #89 ) LENGTH_UNIT ( ) NAMED_UNIT ( #191 ) );
#91 = LENGTH_MEASURE_WITH_UNIT ( LENGTH_MEASURE( 0.02539999999999999897 ), #188 );
#92 = VERTEX_POINT ( 'NONE', #107 ) ;
#93 = CARTESIAN_POINT ( 'NONE',  ( 0.000000000000000000, 39.37007874015748143, 0.000000000000000000 ) ) ;
#94 = CARTESIAN_POINT ( 'NONE',  ( -0.2500000000000001110, 3.000000000000000444, 0.000000000000000000 ) ) ;
#95 = ORIENTED_EDGE ( 'NONE', *, *, #246, .T. ) ;
#96 = EDGE_CURVE ( 'NONE', #105, #87, #113, .T. ) ;
#97 = CARTESIAN_POINT ( 'NONE',  ( 0.000000000000000000, 0.4330127018922180770, 0.000000000000000000 ) ) ;
#98 = CARTESIAN_POINT ( 'NONE',  ( 0.2500000000000000000, 0.4330127018922179105, 3.061616997868383018E-17 ) ) ;
#99 = DIRECTION ( 'NONE',  ( -1.252875704100928464E-16, 1.000000000000000000, -0.000000000000000000 ) ) ;
#100 = PLANE ( 'NONE',  #134 ) ;
#101 = FACE_OUTER_BOUND ( 'NONE', #69, .T. ) ;
#102 =( LENGTH_UNIT ( ) NAMED_UNIT ( * ) SI_UNIT ( $, .METRE. ) );
#103 = ORIENTED_EDGE ( 'NONE', *, *, #119, .T. ) ;
#104 = DIRECTION ( 'NONE',  ( 0.000000000000000000, 0.000000000000000000, 1.000000000000000000 ) ) ;
#105 = VERTEX_POINT ( 'NONE', #170 ) ;
#106 =( LENGTH_UNIT ( ) NAMED_UNIT ( * ) SI_UNIT ( $, .METRE. ) );
#107 = CARTESIAN_POINT ( 'NONE',  ( -0.2499999999999994449, 0.4330127018922179105, 0.000000000000000000 ) ) ;
#108 =( GEOMETRIC_REPRESENTATION_CONTEXT ( 3 ) GLOBAL_UNCERTAINTY_ASSIGNED_CONTEXT ( ( #66 ) ) GLOBAL_UNIT_ASSIGNED_CONTEXT ( ( #179, #84, #159 ) ) REPRESENTATION_CONTEXT ( 'NONE', 'WORKASPACE' ) );
#109 = EDGE_CURVE ( 'NONE', #187, #92, #140, .T. ) ;
#110 =( NAMED_UNIT ( * ) PLANE_ANGLE_UNIT ( ) SI_UNIT ( $, .RADIAN. ) );
#111 = LINE ( 'NONE', #194, #19 ) ;
#112 = ADVANCED_FACE ( 'NONE', ( #167 ), #136, .T. ) ;
#113 = LINE ( 'NONE', #236, #145 ) ;
#114 = CARTESIAN_POINT ( 'NONE',  ( 2.603792618961250911E-16, 0.4330127018922180770, 0.000000000000000000 ) ) ;
#115 = AXIS2_PLACEMENT_3D ( 'NONE', #93, #215, #29 ) ;
#116 = PRESENTATION_STYLE_ASSIGNMENT (( #223 ) ) ;
#117 = CARTESIAN_POINT ( 'NONE',  ( 0.2499999999999999722, 3.000000000000000444, 0.000000000000000000 ) ) ;
#118 = PRODUCT_DEFINITION_FORMATION_WITH_SPECIFIED_SOURCE ( 'ANY', '', #88, .NOT_KNOWN. ) ;
#119 = EDGE_CURVE ( 'NONE', #92, #125, #111, .T. ) ;
#120 = FILL_AREA_STYLE_COLOUR ( '', #75 ) ;
#121 = SURFACE_SIDE_STYLE ('',( #65 ) ) ;
#122 = ORIENTED_EDGE ( 'NONE', *, *, #200, .F. ) ;
#123 =( GEOMETRIC_REPRESENTATION_CONTEXT ( 3 ) GLOBAL_UNCERTAINTY_ASSIGNED_CONTEXT ( ( #250 ) ) GLOBAL_UNIT_ASSIGNED_CONTEXT ( ( #43, #21, #247 ) ) REPRESENTATION_CONTEXT ( 'NONE', 'WORKASPACE' ) );
#124 = SURFACE_STYLE_USAGE ( .BOTH. , #184 ) ;
#125 = VERTEX_POINT ( 'NONE', #94 ) ;
#126 = DIRECTION ( 'NONE',  ( -1.000000000000000000, 0.000000000000000000, 0.000000000000000000 ) ) ;
#127 = CARTESIAN_POINT ( 'NONE',  ( 0.2499999999999998057, 3.000000000000000444, 3.061616997868381785E-17 ) ) ;
#128 = CARTESIAN_POINT ( 'NONE',  ( -6.123233995736770966E-17, 3.000000000000000444, 0.000000000000000000 ) ) ;
#129 = PRODUCT_CONTEXT ( 'NONE', #216, 'mechanical' ) ;
#130 = DIMENSIONAL_EXPONENTS ( 1.000000000000000000, 0.000000000000000000, 0.000000000000000000, 0.000000000000000000, 0.000000000000000000, 0.000000000000000000, 0.000000000000000000 ) ;
#131 = ADVANCED_FACE ( 'NONE', ( #77 ), #100, .F. ) ;
#132 = ORIENTED_EDGE ( 'NONE', *, *, #200, .T. ) ;
#133 = ORIENTED_EDGE ( 'NONE', *, *, #255, .T. ) ;
#134 = AXIS2_PLACEMENT_3D ( 'NONE', #114, #37, #160 ) ;
#135 = SURFACE_SIDE_STYLE ('',( #157 ) ) ;
#136 = CONICAL_SURFACE ( 'NONE', #115, 22.73032555864674364, 0.5235987755983000369 ) ;
#137 =( LENGTH_UNIT ( ) NAMED_UNIT ( * ) SI_UNIT ( $, .METRE. ) );
#138 = CARTESIAN_POINT ( 'NONE',  ( -6.123233995736772199E-17, 3.000000000000000444, 0.000000000000000000 ) ) ;
#139 = MANIFOLD_SOLID_BREP ( 'Revolve - Tool Body (Pointed)', #80 ) ;
#140 = CIRCLE ( 'NONE', #86, 0.2499999999999997224 ) ;
#141 = DIRECTION ( 'NONE',  ( 0.000000000000000000, 1.000000000000000000, 0.000000000000000000 ) ) ;
#142 = ORIENTED_EDGE ( 'NONE', *, *, #96, .T. ) ;
#143 = PRESENTATION_STYLE_ASSIGNMENT (( #248 ) ) ;
#144 = SURFACE_STYLE_FILL_AREA ( #4 ) ;
#145 = VECTOR ( 'NONE', #259, 39.37007874015748143 ) ;
#146 = ORIENTED_EDGE ( 'NONE', *, *, #221, .T. ) ;
#147 = DIMENSIONAL_EXPONENTS ( 1.000000000000000000, 0.000000000000000000, 0.000000000000000000, 0.000000000000000000, 0.000000000000000000, 0.000000000000000000, 0.000000000000000000 ) ;
#148 = APPLICATION_CONTEXT ( 'automotive_design' ) ;
#149 = EDGE_CURVE ( 'NONE', #196, #87, #3, .T. ) ;
#150 = DIRECTION ( 'NONE',  ( -1.252875704100928464E-16, 1.000000000000000000, -0.000000000000000000 ) ) ;
#151 = AXIS2_PLACEMENT_3D ( 'NONE', #138, #99, #38 ) ;
#152 = APPLICATION_PROTOCOL_DEFINITION ( 'draft international standard', 'automotive_design', 1998, #148 ) ;
#153 = DIRECTION ( 'NONE',  ( -1.252875704100928464E-16, 1.000000000000000000, -0.000000000000000000 ) ) ;
#154 = DIRECTION ( 'NONE',  ( -0.000000000000000000, -1.000000000000000000, -0.000000000000000000 ) ) ;
#155 = FILL_AREA_STYLE ('',( #11 ) ) ;
#156 = DIRECTION ( 'NONE',  ( -1.252875704100928464E-16, 1.000000000000000000, -0.000000000000000000 ) ) ;
#157 = SURFACE_STYLE_FILL_AREA ( #263 ) ;
#158 = CARTESIAN_POINT ( 'NONE',  ( 0.000000000000000000, 0.4330127018922180770, 0.2499999999999999722 ) ) ;
#159 =( NAMED_UNIT ( * ) SI_UNIT ( $, .STERADIAN. ) SOLID_ANGLE_UNIT ( ) );
#160 = DIRECTION ( 'NONE',  ( -1.000000000000000000, -1.252875704100928464E-16, 0.000000000000000000 ) ) ;
#161 = DIRECTION ( 'NONE',  ( 0.000000000000000000, 1.000000000000000000, 0.000000000000000000 ) ) ;
#162 =( NAMED_UNIT ( * ) SI_UNIT ( $, .STERADIAN. ) SOLID_ANGLE_UNIT ( ) );
#163 = ORIENTED_EDGE ( 'NONE', *, *, #58, .F. ) ;
#164 = EDGE_LOOP ( 'NONE', ( #49, #163 ) ) ;
#165 = VECTOR ( 'NONE', #32, 39.37007874015748143 ) ;
#166 = DIRECTION ( 'NONE',  ( 0.000000000000000000, 0.8660254037844380415, 0.5000000000000009992 ) ) ;
#167 = FACE_OUTER_BOUND ( 'NONE', #208, .T. ) ;
#168 = ORIENTED_EDGE ( 'NONE', *, *, #109, .T. ) ;
#169 = AXIS2_PLACEMENT_3D ( 'NONE', #73, #154, #238 ) ;
#170 = CARTESIAN_POINT ( 'NONE',  ( 0.000000000000000000, 0.000000000000000000, 0.000000000000000000 ) ) ;
#171 =( GEOMETRIC_REPRESENTATION_CONTEXT ( 3 ) GLOBAL_UNCERTAINTY_ASSIGNED_CONTEXT ( ( #2 ) ) GLOBAL_UNIT_ASSIGNED_CONTEXT ( ( #90, #63, #40 ) ) REPRESENTATION_CONTEXT ( 'NONE', 'WORKASPACE' ) );
#172 = DIMENSIONAL_EXPONENTS ( 1.000000000000000000, 0.000000000000000000, 0.000000000000000000, 0.000000000000000000, 0.000000000000000000, 0.000000000000000000, 0.000000000000000000 ) ;
#173 = ORIENTED_EDGE ( 'NONE', *, *, #27, .T. ) ;
#174 = LENGTH_MEASURE_WITH_UNIT ( LENGTH_MEASURE( 0.02539999999999999897 ), #30 );
#175 = FILL_AREA_STYLE_COLOUR ( '', #195 ) ;
#176 = LENGTH_MEASURE_WITH_UNIT ( LENGTH_MEASURE( 0.02539999999999999897 ), #18 );
#177 = ADVANCED_FACE ( 'NONE', ( #244 ), #33, .T. ) ;
#178 = DIRECTION ( 'NONE',  ( -1.000000000000000000, 0.000000000000000000, 0.000000000000000000 ) ) ;
#179 =( CONVERSION_BASED_UNIT ( 'INCH', #176 ) LENGTH_UNIT ( ) NAMED_UNIT ( #130 ) );
#180 = PRESENTATION_LAYER_ASSIGNMENT (  '', '', ( #13 ) ) ;
#181 = ORIENTED_EDGE ( 'NONE', *, *, #149, .T. ) ;
#182 = MECHANICAL_DESIGN_GEOMETRIC_PRESENTATION_REPRESENTATION (  '', ( #13 ), #123 ) ;
#183 = MECHANICAL_DESIGN_GEOMETRIC_PRESENTATION_REPRESENTATION (  '', ( #44 ), #108 ) ;
#184 = SURFACE_SIDE_STYLE ('',( #144 ) ) ;
#185 = EDGE_LOOP ( 'NONE', ( #146, #173, #198, #217 ) ) ;
#186 = ADVANCED_FACE ( 'NONE', ( #59 ), #242, .T. ) ;
#187 = VERTEX_POINT ( 'NONE', #98 ) ;
#188 =( LENGTH_UNIT ( ) NAMED_UNIT ( * ) SI_UNIT ( $, .METRE. ) );
#189 = COLOUR_RGB ( '',0.7921568627450980005, 0.8196078431372548767, 0.9333333333333333481 ) ;
#190 = EDGE_LOOP ( 'NONE', ( #258, #20 ) ) ;
#191 = DIMENSIONAL_EXPONENTS ( 1.000000000000000000, 0.000000000000000000, 0.000000000000000000, 0.000000000000000000, 0.000000000000000000, 0.000000000000000000, 0.000000000000000000 ) ;
#192 = LINE ( 'NONE', #127, #165 ) ;
#193 = PRODUCT_DEFINITION_SHAPE ( 'NONE', 'NONE',  #50 ) ;
#194 = CARTESIAN_POINT ( 'NONE',  ( -0.2499999999999999167, 3.000000000000000444, 0.000000000000000000 ) ) ;
#195 = COLOUR_RGB ( '',0.7921568627450980005, 0.8196078431372548767, 0.9333333333333333481 ) ;
#196 = VERTEX_POINT ( 'NONE', #158 ) ;
#197 = CARTESIAN_POINT ( 'NONE',  ( 0.000000000000000000, 0.000000000000000000, 0.000000000000000000 ) ) ;
#198 = ORIENTED_EDGE ( 'NONE', *, *, #246, .F. ) ;
#199 = DIRECTION ( 'NONE',  ( 1.252875704100928464E-16, -1.000000000000000000, 0.000000000000000000 ) ) ;
#200 = EDGE_CURVE ( 'NONE', #237, #125, #31, .T. ) ;
#201 =( GEOMETRIC_REPRESENTATION_CONTEXT ( 3 ) GLOBAL_UNCERTAINTY_ASSIGNED_CONTEXT ( ( #210 ) ) GLOBAL_UNIT_ASSIGNED_CONTEXT ( ( #24, #46, #162 ) ) REPRESENTATION_CONTEXT ( 'NONE', 'WORKASPACE' ) );
#202 = DIRECTION ( 'NONE',  ( -0.000000000000000000, -1.000000000000000000, -0.000000000000000000 ) ) ;
#203 =( GEOMETRIC_REPRESENTATION_CONTEXT ( 3 ) GLOBAL_UNCERTAINTY_ASSIGNED_CONTEXT ( ( #228 ) ) GLOBAL_UNIT_ASSIGNED_CONTEXT ( ( #8, #28, #214 ) ) REPRESENTATION_CONTEXT ( 'NONE', 'WORKASPACE' ) );
#204 = SURFACE_STYLE_USAGE ( .BOTH. , #16 ) ;
#205 = PRESENTATION_LAYER_ASSIGNMENT (  '', '', ( #55 ) ) ;
#206 = LENGTH_MEASURE_WITH_UNIT ( LENGTH_MEASURE( 0.02539999999999999897 ), #106 );
#207 = LENGTH_MEASURE_WITH_UNIT ( LENGTH_MEASURE( 0.02539999999999999897 ), #137 );
#208 = EDGE_LOOP ( 'NONE', ( #219, #133, #181 ) ) ;
#209 = ADVANCED_FACE ( 'NONE', ( #224 ), #39, .F. ) ;
#210 = UNCERTAINTY_MEASURE_WITH_UNIT (LENGTH_MEASURE( 1.000000000000000082E-05 ), #24, 'distance_accuracy_value', 'NONE');
#211 = AXIS2_PLACEMENT_3D ( 'NONE', #197, #257, #71 ) ;
#212 = CARTESIAN_POINT ( 'NONE',  ( 2.603792618961250418E-16, 0.4330127018922179105, 0.000000000000000000 ) ) ;
#213 = SURFACE_STYLE_USAGE ( .BOTH. , #54 ) ;
#214 =( NAMED_UNIT ( * ) SI_UNIT ( $, .STERADIAN. ) SOLID_ANGLE_UNIT ( ) );
#215 = DIRECTION ( 'NONE',  ( 0.000000000000000000, 1.000000000000000000, 0.000000000000000000 ) ) ;
#216 = APPLICATION_CONTEXT ( 'automotive_design' ) ;
#217 = ORIENTED_EDGE ( 'NONE', *, *, #119, .F. ) ;
#218 = MECHANICAL_DESIGN_GEOMETRIC_PRESENTATION_REPRESENTATION (  '', ( #55 ), #245 ) ;
#219 = ORIENTED_EDGE ( 'NONE', *, *, #96, .F. ) ;
#220 = DIRECTION ( 'NONE',  ( 0.000000000000000000, 0.000000000000000000, -1.000000000000000000 ) ) ;
#221 = EDGE_CURVE ( 'NONE', #92, #187, #35, .T. ) ;
#222 = PLANE ( 'NONE',  #41 ) ;
#223 = SURFACE_STYLE_USAGE ( .BOTH. , #135 ) ;
#224 = FACE_OUTER_BOUND ( 'NONE', #254, .T. ) ;
#225 = CLOSED_SHELL ( 'NONE', ( #239, #227, #112 ) ) ;
#226 = FILL_AREA_STYLE ('',( #42 ) ) ;
#227 = ADVANCED_FACE ( 'NONE', ( #12 ), #222, .T. ) ;
#228 = UNCERTAINTY_MEASURE_WITH_UNIT (LENGTH_MEASURE( 1.000000000000000082E-05 ), #8, 'distance_accuracy_value', 'NONE');
#229 = CIRCLE ( 'NONE', #169, 0.2499999999999999722 ) ;
#230 = PRESENTATION_STYLE_ASSIGNMENT (( #124 ) ) ;
#231 = DIRECTION ( 'NONE',  ( -1.000000000000000000, 0.000000000000000000, 0.000000000000000000 ) ) ;
#232 = MANIFOLD_SOLID_BREP ( 'Revolve - Cutting Edge', #225 ) ;
#233 = COLOUR_RGB ( '',1.000000000000000000, 0.000000000000000000, 0.000000000000000000 ) ;
#234 =( NAMED_UNIT ( * ) SI_UNIT ( $, .STERADIAN. ) SOLID_ANGLE_UNIT ( ) );
#235 = SHAPE_DEFINITION_REPRESENTATION ( #193, #15 ) ;
#236 = CARTESIAN_POINT ( 'NONE',  ( 0.000000000000000000, 0.000000000000000000, 0.000000000000000000 ) ) ;
#237 = VERTEX_POINT ( 'NONE', #68 ) ;
#238 = DIRECTION ( 'NONE',  ( 0.000000000000000000, 0.000000000000000000, -1.000000000000000000 ) ) ;
#239 = ADVANCED_FACE ( 'NONE', ( #101 ), #262, .T. ) ;
#240 = SURFACE_STYLE_FILL_AREA ( #261 ) ;
#241 = DIRECTION ( 'NONE',  ( -1.000000000000000000, 0.000000000000000000, 0.000000000000000000 ) ) ;
#242 = CYLINDRICAL_SURFACE ( 'NONE', #26, 0.2499999999999998612 ) ;
#243 = CIRCLE ( 'NONE', #48, 0.2500000000000000555 ) ;
#244 = FACE_OUTER_BOUND ( 'NONE', #22, .T. ) ;
#245 =( GEOMETRIC_REPRESENTATION_CONTEXT ( 3 ) GLOBAL_UNCERTAINTY_ASSIGNED_CONTEXT ( ( #47 ) ) GLOBAL_UNIT_ASSIGNED_CONTEXT ( ( #74, #110, #234 ) ) REPRESENTATION_CONTEXT ( 'NONE', 'WORKASPACE' ) );
#246 = EDGE_CURVE ( 'NONE', #125, #237, #243, .T. ) ;
#247 =( NAMED_UNIT ( * ) SI_UNIT ( $, .STERADIAN. ) SOLID_ANGLE_UNIT ( ) );
#248 = SURFACE_STYLE_USAGE ( .BOTH. , #121 ) ;
#249 = AXIS2_PLACEMENT_3D ( 'NONE', #34, #83, #57 ) ;
#250 = UNCERTAINTY_MEASURE_WITH_UNIT (LENGTH_MEASURE( 1.000000000000000082E-05 ), #43, 'distance_accuracy_value', 'NONE');
#251 = CARTESIAN_POINT ( 'NONE',  ( 3.061616997868382402E-17, 0.4330127018922180770, -0.2499999999999999722 ) ) ;
#252 = DIMENSIONAL_EXPONENTS ( 1.000000000000000000, 0.000000000000000000, 0.000000000000000000, 0.000000000000000000, 0.000000000000000000, 0.000000000000000000, 0.000000000000000000 ) ;
#253 = VECTOR ( 'NONE', #166, 39.37007874015748143 ) ;
#254 = EDGE_LOOP ( 'NONE', ( #95, #132 ) ) ;
#255 = EDGE_CURVE ( 'NONE', #105, #196, #25, .T. ) ;
#256 = STYLED_ITEM ( 'NONE', ( #230 ), #239 ) ;
#257 = DIRECTION ( 'NONE',  ( 0.000000000000000000, 0.000000000000000000, 1.000000000000000000 ) ) ;
#258 = ORIENTED_EDGE ( 'NONE', *, *, #221, .F. ) ;
#259 = DIRECTION ( 'NONE',  ( 6.123233995736778362E-17, 0.8660254037844380415, -0.5000000000000009992 ) ) ;
#260 = AXIS2_PLACEMENT_3D ( 'NONE', #97, #202, #220 ) ;
#261 = FILL_AREA_STYLE ('',( #175 ) ) ;
#262 = CONICAL_SURFACE ( 'NONE', #45, 22.73032555864674364, 0.5235987755983000369 ) ;
#263 = FILL_AREA_STYLE ('',( #62 ) ) ;
#264 = CARTESIAN_POINT ( 'NONE',  ( -6.123233995736772199E-17, 3.000000000000000444, 0.000000000000000000 ) ) ;
#265 = COLOUR_RGB ( '',1.000000000000000000, 0.000000000000000000, 0.000000000000000000 ) ;
ENDSEC;
END-ISO-10303-21;
