ISO-10303-21;
HEADER;
FILE_DESCRIPTION (( 'STEP AP214' ),
    '1' );
FILE_NAME ('44197W.STEP',
    '2023-06-22T19:37:57',
    ( '' ),
    ( '' ),
    'SwSTEP 2.0',
    'SolidWorks 2023',
    '' );
FILE_SCHEMA (( 'AUTOMOTIVE_DESIGN' ));
ENDSEC;

DATA;
#1 =( LENGTH_UNIT ( ) NAMED_UNIT ( * ) SI_UNIT ( $, .METRE. ) );
#2 = SURFACE_SIDE_STYLE ('',( #247 ) ) ;
#3 = FILL_AREA_STYLE ('',( #94 ) ) ;
#4 = FILL_AREA_STYLE ('',( #121 ) ) ;
#5 =( GEOMETRIC_REPRESENTATION_CONTEXT ( 3 ) GLOBAL_UNCERTAINTY_ASSIGNED_CONTEXT ( ( #215 ) ) GLOBAL_UNIT_ASSIGNED_CONTEXT ( ( #103, #63, #9 ) ) REPRESENTATION_CONTEXT ( 'NONE', 'WORKASPACE' ) );
#6 = FILL_AREA_STYLE_COLOUR ( '', #263 ) ;
#7 = EDGE_LOOP ( 'NONE', ( #27, #282 ) ) ;
#8 = AXIS2_PLACEMENT_3D ( 'NONE', #302, #84, #160 ) ;
#9 =( NAMED_UNIT ( * ) SI_UNIT ( $, .STERADIAN. ) SOLID_ANGLE_UNIT ( ) );
#10 = EDGE_CURVE ( 'NONE', #17, #142, #19, .T. ) ;
#11 =( LENGTH_UNIT ( ) NAMED_UNIT ( * ) SI_UNIT ( $, .METRE. ) );
#12 = CARTESIAN_POINT ( 'NONE',  ( 7.582401355855259480E-33, 1.000000000000000000, 0.000000000000000000 ) ) ;
#13 = EDGE_CURVE ( 'NONE', #142, #17, #66, .T. ) ;
#14 = ORIENTED_EDGE ( 'NONE', *, *, #226, .T. ) ;
#15 = ORIENTED_EDGE ( 'NONE', *, *, #178, .T. ) ;
#16 = FILL_AREA_STYLE_COLOUR ( '', #24 ) ;
#17 = VERTEX_POINT ( 'NONE', #172 ) ;
#18 = EDGE_LOOP ( 'NONE', ( #190, #15, #147, #81 ) ) ;
#19 = CIRCLE ( 'NONE', #145, 0.1562500000000001110 ) ;
#20 = UNCERTAINTY_MEASURE_WITH_UNIT (LENGTH_MEASURE( 1.000000000000000082E-05 ), #214, 'distance_accuracy_value', 'NONE');
#21 = EDGE_LOOP ( 'NONE', ( #207, #43, #14, #48 ) ) ;
#22 = EDGE_CURVE ( 'NONE', #287, #33, #296, .T. ) ;
#23 = AXIS2_PLACEMENT_3D ( 'NONE', #154, #35, #98 ) ;
#24 = COLOUR_RGB ( '',1.000000000000000000, 0.000000000000000000, 0.000000000000000000 ) ;
#25 = SURFACE_STYLE_FILL_AREA ( #42 ) ;
#26 = CARTESIAN_POINT ( 'NONE',  ( -0.1562500000000001665, 3.000000000000000444, 0.000000000000000000 ) ) ;
#27 = ORIENTED_EDGE ( 'NONE', *, *, #189, .T. ) ;
#28 = DIMENSIONAL_EXPONENTS ( 1.000000000000000000, 0.000000000000000000, 0.000000000000000000, 0.000000000000000000, 0.000000000000000000, 0.000000000000000000, 0.000000000000000000 ) ;
#29 = EDGE_LOOP ( 'NONE', ( #168, #164 ) ) ;
#30 =( CONVERSION_BASED_UNIT ( 'INCH', #126 ) LENGTH_UNIT ( ) NAMED_UNIT ( #271 ) );
#31 = CARTESIAN_POINT ( 'NONE',  ( 0.1562500000000000278, 3.000000000000000444, 0.000000000000000000 ) ) ;
#32 = PRESENTATION_STYLE_ASSIGNMENT (( #90 ) ) ;
#33 = VERTEX_POINT ( 'NONE', #200 ) ;
#34 = LENGTH_MEASURE_WITH_UNIT ( LENGTH_MEASURE( 0.02539999999999999897 ), #38 );
#35 = DIRECTION ( 'NONE',  ( -0.000000000000000000, -1.000000000000000000, -0.000000000000000000 ) ) ;
#36 = ADVANCED_FACE ( 'NONE', ( #122 ), #152, .T. ) ;
#37 = ORIENTED_EDGE ( 'NONE', *, *, #284, .F. ) ;
#38 =( LENGTH_UNIT ( ) NAMED_UNIT ( * ) SI_UNIT ( $, .METRE. ) );
#39 =( CONVERSION_BASED_UNIT ( 'INCH', #64 ) LENGTH_UNIT ( ) NAMED_UNIT ( #56 ) );
#40 = COLOUR_RGB ( '',1.000000000000000000, 0.000000000000000000, 0.000000000000000000 ) ;
#41 = FACE_OUTER_BOUND ( 'NONE', #232, .T. ) ;
#42 = FILL_AREA_STYLE ('',( #303 ) ) ;
#43 = ORIENTED_EDGE ( 'NONE', *, *, #284, .T. ) ;
#44 = AXIS2_PLACEMENT_3D ( 'NONE', #170, #260, #52 ) ;
#45 = EDGE_LOOP ( 'NONE', ( #246, #114, #50, #306 ) ) ;
#46 = PLANE ( 'NONE',  #105 ) ;
#47 = CARTESIAN_POINT ( 'NONE',  ( -0.1562500000000000278, 1.000000000000000000, 0.000000000000000000 ) ) ;
#48 = ORIENTED_EDGE ( 'NONE', *, *, #54, .F. ) ;
#49 = STYLED_ITEM ( 'NONE', ( #130 ), #265 ) ;
#50 = ORIENTED_EDGE ( 'NONE', *, *, #189, .F. ) ;
#51 = VECTOR ( 'NONE', #95, 39.37007874015748143 ) ;
#52 = DIRECTION ( 'NONE',  ( 1.000000000000000000, 0.000000000000000000, 0.000000000000000000 ) ) ;
#53 = SURFACE_SIDE_STYLE ('',( #261 ) ) ;
#54 = EDGE_CURVE ( 'NONE', #33, #143, #125, .T. ) ;
#55 = CARTESIAN_POINT ( 'NONE',  ( -6.123233995736772199E-17, 3.000000000000000444, 0.000000000000000000 ) ) ;
#56 = DIMENSIONAL_EXPONENTS ( 1.000000000000000000, 0.000000000000000000, 0.000000000000000000, 0.000000000000000000, 0.000000000000000000, 0.000000000000000000, 0.000000000000000000 ) ;
#57 = CARTESIAN_POINT ( 'NONE',  ( 0.1562500000000000278, 1.000000000000000000, 1.913510623667740388E-17 ) ) ;
#58 = DIRECTION ( 'NONE',  ( -0.000000000000000000, -1.000000000000000000, -0.000000000000000000 ) ) ;
#59 = MECHANICAL_DESIGN_GEOMETRIC_PRESENTATION_REPRESENTATION (  '', ( #65 ), #224 ) ;
#60 = CYLINDRICAL_SURFACE ( 'NONE', #23, 0.1562500000000000000 ) ;
#61 = DIRECTION ( 'NONE',  ( -1.000000000000000000, 0.000000000000000000, 0.000000000000000000 ) ) ;
#62 = COLOUR_RGB ( '',1.000000000000000000, 0.000000000000000000, 0.000000000000000000 ) ;
#63 =( NAMED_UNIT ( * ) PLANE_ANGLE_UNIT ( ) SI_UNIT ( $, .RADIAN. ) );
#64 = LENGTH_MEASURE_WITH_UNIT ( LENGTH_MEASURE( 0.02539999999999999897 ), #11 );
#65 = STYLED_ITEM ( 'NONE', ( #213 ), #171 ) ;
#66 = CIRCLE ( 'NONE', #279, 0.1562500000000001110 ) ;
#67 = SURFACE_STYLE_USAGE ( .BOTH. , #69 ) ;
#68 = PRODUCT_DEFINITION_CONTEXT ( 'detailed design', #289, 'design' ) ;
#69 = SURFACE_SIDE_STYLE ('',( #117 ) ) ;
#70 = SURFACE_SIDE_STYLE ('',( #291 ) ) ;
#71 = MECHANICAL_DESIGN_GEOMETRIC_PRESENTATION_REPRESENTATION (  '', ( #119 ), #78 ) ;
#72 = PRESENTATION_LAYER_ASSIGNMENT (  '', '', ( #49 ) ) ;
#73 = CARTESIAN_POINT ( 'NONE',  ( 7.323045813778617637E-35, 1.000000000000000000, 0.000000000000000000 ) ) ;
#74 = DIRECTION ( 'NONE',  ( -3.061616997868386099E-17, 1.000000000000000000, -0.000000000000000000 ) ) ;
#75 = DIRECTION ( 'NONE',  ( -3.061616997868386099E-17, 1.000000000000000000, -0.000000000000000000 ) ) ;
#76 = DIMENSIONAL_EXPONENTS ( 1.000000000000000000, 0.000000000000000000, 0.000000000000000000, 0.000000000000000000, 0.000000000000000000, 0.000000000000000000, 0.000000000000000000 ) ;
#77 = SURFACE_STYLE_FILL_AREA ( #136 ) ;
#78 =( GEOMETRIC_REPRESENTATION_CONTEXT ( 3 ) GLOBAL_UNCERTAINTY_ASSIGNED_CONTEXT ( ( #252 ) ) GLOBAL_UNIT_ASSIGNED_CONTEXT ( ( #270, #204, #85 ) ) REPRESENTATION_CONTEXT ( 'NONE', 'WORKASPACE' ) );
#79 = CARTESIAN_POINT ( 'NONE',  ( 0.000000000000000000, 0.000000000000000000, 0.000000000000000000 ) ) ;
#80 = COLOUR_RGB ( '',0.7921568627450980005, 0.8196078431372548767, 0.9333333333333333481 ) ;
#81 = ORIENTED_EDGE ( 'NONE', *, *, #134, .F. ) ;
#82 =( LENGTH_UNIT ( ) NAMED_UNIT ( * ) SI_UNIT ( $, .METRE. ) );
#83 = LINE ( 'NONE', #222, #257 ) ;
#84 = DIRECTION ( 'NONE',  ( -0.000000000000000000, -1.000000000000000000, -0.000000000000000000 ) ) ;
#85 =( NAMED_UNIT ( * ) SI_UNIT ( $, .STERADIAN. ) SOLID_ANGLE_UNIT ( ) );
#86 = MECHANICAL_DESIGN_GEOMETRIC_PRESENTATION_REPRESENTATION (  '', ( #49 ), #155 ) ;
#87 = FILL_AREA_STYLE ('',( #16 ) ) ;
#88 = ORIENTED_EDGE ( 'NONE', *, *, #234, .F. ) ;
#89 = VERTEX_POINT ( 'NONE', #264 ) ;
#90 = SURFACE_STYLE_USAGE ( .BOTH. , #106 ) ;
#91 = FILL_AREA_STYLE ('',( #187 ) ) ;
#92 = APPLICATION_PROTOCOL_DEFINITION ( 'draft international standard', 'automotive_design', 1998, #128 ) ;
#93 = SURFACE_STYLE_USAGE ( .BOTH. , #53 ) ;
#94 = FILL_AREA_STYLE_COLOUR ( '', #40 ) ;
#95 = DIRECTION ( 'NONE',  ( -0.000000000000000000, -1.000000000000000000, -0.000000000000000000 ) ) ;
#96 = DIRECTION ( 'NONE',  ( 0.000000000000000000, 0.000000000000000000, -1.000000000000000000 ) ) ;
#97 =( GEOMETRIC_REPRESENTATION_CONTEXT ( 3 ) GLOBAL_UNCERTAINTY_ASSIGNED_CONTEXT ( ( #208 ) ) GLOBAL_UNIT_ASSIGNED_CONTEXT ( ( #30, #297, #102 ) ) REPRESENTATION_CONTEXT ( 'NONE', 'WORKASPACE' ) );
#98 = DIRECTION ( 'NONE',  ( 0.000000000000000000, 0.000000000000000000, -1.000000000000000000 ) ) ;
#99 = DIMENSIONAL_EXPONENTS ( 1.000000000000000000, 0.000000000000000000, 0.000000000000000000, 0.000000000000000000, 0.000000000000000000, 0.000000000000000000, 0.000000000000000000 ) ;
#100 = CARTESIAN_POINT ( 'NONE',  ( 0.1562500000000000000, 3.000000000000000444, 1.913510623667740080E-17 ) ) ;
#101 = PRODUCT_RELATED_PRODUCT_CATEGORY ( 'part', '', ( #274 ) ) ;
#102 =( NAMED_UNIT ( * ) SI_UNIT ( $, .STERADIAN. ) SOLID_ANGLE_UNIT ( ) );
#103 =( CONVERSION_BASED_UNIT ( 'INCH', #34 ) LENGTH_UNIT ( ) NAMED_UNIT ( #76 ) );
#104 =( NAMED_UNIT ( * ) PLANE_ANGLE_UNIT ( ) SI_UNIT ( $, .RADIAN. ) );
#105 = AXIS2_PLACEMENT_3D ( 'NONE', #185, #162, #230 ) ;
#106 = SURFACE_SIDE_STYLE ('',( #25 ) ) ;
#107 = CYLINDRICAL_SURFACE ( 'NONE', #231, 0.1562500000000000000 ) ;
#108 =( CONVERSION_BASED_UNIT ( 'INCH', #205 ) LENGTH_UNIT ( ) NAMED_UNIT ( #174 ) );
#109 = FACE_OUTER_BOUND ( 'NONE', #7, .T. ) ;
#110 = ORIENTED_EDGE ( 'NONE', *, *, #134, .T. ) ;
#111 = MECHANICAL_DESIGN_GEOMETRIC_PRESENTATION_REPRESENTATION (  '', ( #308 ), #97 ) ;
#112 = PLANE ( 'NONE',  #199 ) ;
#113 = STYLED_ITEM ( 'NONE', ( #295 ), #116 ) ;
#114 = ORIENTED_EDGE ( 'NONE', *, *, #22, .T. ) ;
#115 = VECTOR ( 'NONE', #219, 39.37007874015748143 ) ;
#116 = MANIFOLD_SOLID_BREP ( 'Revolve - Cutting Edge', #294 ) ;
#117 = SURFACE_STYLE_FILL_AREA ( #91 ) ;
#118 = DIRECTION ( 'NONE',  ( -3.061616997868386099E-17, 1.000000000000000000, -0.000000000000000000 ) ) ;
#119 = STYLED_ITEM ( 'NONE', ( #262 ), #159 ) ;
#120 = CARTESIAN_POINT ( 'NONE',  ( -0.1562500000000001388, 3.000000000000000444, 0.000000000000000000 ) ) ;
#121 = FILL_AREA_STYLE_COLOUR ( '', #157 ) ;
#122 = FACE_OUTER_BOUND ( 'NONE', #18, .T. ) ;
#123 = CIRCLE ( 'NONE', #286, 0.1562500000000000000 ) ;
#124 = FACE_OUTER_BOUND ( 'NONE', #210, .T. ) ;
#125 = CIRCLE ( 'NONE', #194, 0.1562500000000000000 ) ;
#126 = LENGTH_MEASURE_WITH_UNIT ( LENGTH_MEASURE( 0.02539999999999999897 ), #180 );
#127 = DIRECTION ( 'NONE',  ( -3.061616997868386099E-17, 1.000000000000000000, -0.000000000000000000 ) ) ;
#128 = APPLICATION_CONTEXT ( 'automotive_design' ) ;
#129 =( LENGTH_UNIT ( ) NAMED_UNIT ( * ) SI_UNIT ( $, .METRE. ) );
#130 = PRESENTATION_STYLE_ASSIGNMENT (( #139 ) ) ;
#131 = PRESENTATION_LAYER_ASSIGNMENT (  '', '', ( #308 ) ) ;
#132 =( GEOMETRIC_REPRESENTATION_CONTEXT ( 3 ) GLOBAL_UNCERTAINTY_ASSIGNED_CONTEXT ( ( #285 ) ) GLOBAL_UNIT_ASSIGNED_CONTEXT ( ( #39, #196, #150 ) ) REPRESENTATION_CONTEXT ( 'NONE', 'WORKASPACE' ) );
#133 = DIRECTION ( 'NONE',  ( -3.061616997868386099E-17, 1.000000000000000000, 0.000000000000000000 ) ) ;
#134 = EDGE_CURVE ( 'NONE', #167, #142, #148, .T. ) ;
#135 = CARTESIAN_POINT ( 'NONE',  ( 0.000000000000000000, 1.000000000000000000, 0.000000000000000000 ) ) ;
#136 = FILL_AREA_STYLE ('',( #6 ) ) ;
#137 = ORIENTED_EDGE ( 'NONE', *, *, #178, .F. ) ;
#138 = VERTEX_POINT ( 'NONE', #57 ) ;
#139 = SURFACE_STYLE_USAGE ( .BOTH. , #70 ) ;
#140 =( NAMED_UNIT ( * ) SI_UNIT ( $, .STERADIAN. ) SOLID_ANGLE_UNIT ( ) );
#141 = PRODUCT_DEFINITION ( 'UNKNOWN', '', #220, #68 ) ;
#142 = VERTEX_POINT ( 'NONE', #26 ) ;
#143 = VERTEX_POINT ( 'NONE', #239 ) ;
#144 = APPLICATION_PROTOCOL_DEFINITION ( 'draft international standard', 'automotive_design', 1998, #289 ) ;
#145 = AXIS2_PLACEMENT_3D ( 'NONE', #235, #118, #188 ) ;
#146 = CARTESIAN_POINT ( 'NONE',  ( 0.000000000000000000, 0.000000000000000000, 0.000000000000000000 ) ) ;
#147 = ORIENTED_EDGE ( 'NONE', *, *, #13, .F. ) ;
#148 = LINE ( 'NONE', #120, #115 ) ;
#149 = SURFACE_STYLE_USAGE ( .BOTH. , #2 ) ;
#150 =( NAMED_UNIT ( * ) SI_UNIT ( $, .STERADIAN. ) SOLID_ANGLE_UNIT ( ) );
#151 = PRESENTATION_LAYER_ASSIGNMENT (  '', '', ( #113 ) ) ;
#152 = CYLINDRICAL_SURFACE ( 'NONE', #305, 0.1562500000000000833 ) ;
#153 = SURFACE_SIDE_STYLE ('',( #77 ) ) ;
#154 = CARTESIAN_POINT ( 'NONE',  ( 0.000000000000000000, 0.000000000000000000, 0.000000000000000000 ) ) ;
#155 =( GEOMETRIC_REPRESENTATION_CONTEXT ( 3 ) GLOBAL_UNCERTAINTY_ASSIGNED_CONTEXT ( ( #236 ) ) GLOBAL_UNIT_ASSIGNED_CONTEXT ( ( #108, #104, #254 ) ) REPRESENTATION_CONTEXT ( 'NONE', 'WORKASPACE' ) );
#156 = CARTESIAN_POINT ( 'NONE',  ( -6.123233995736772199E-17, 3.000000000000000444, 0.000000000000000000 ) ) ;
#157 = COLOUR_RGB ( '',0.7921568627450980005, 0.8196078431372548767, 0.9333333333333333481 ) ;
#158 = PRODUCT_DEFINITION_SHAPE ( 'NONE', 'NONE',  #141 ) ;
#159 = ADVANCED_FACE ( 'NONE', ( #221 ), #60, .T. ) ;
#160 = DIRECTION ( 'NONE',  ( 0.000000000000000000, 0.000000000000000000, -1.000000000000000000 ) ) ;
#161 = AXIS2_PLACEMENT_3D ( 'NONE', #300, #251, #201 ) ;
#162 = DIRECTION ( 'NONE',  ( 0.000000000000000000, 1.000000000000000000, 0.000000000000000000 ) ) ;
#163 = ADVANCED_FACE ( 'NONE', ( #301 ), #107, .T. ) ;
#164 = ORIENTED_EDGE ( 'NONE', *, *, #10, .T. ) ;
#165 = DIRECTION ( 'NONE',  ( 0.000000000000000000, 0.000000000000000000, -1.000000000000000000 ) ) ;
#166 = SHAPE_DEFINITION_REPRESENTATION ( #158, #184 ) ;
#167 = VERTEX_POINT ( 'NONE', #47 ) ;
#168 = ORIENTED_EDGE ( 'NONE', *, *, #13, .T. ) ;
#169 = MECHANICAL_DESIGN_GEOMETRIC_PRESENTATION_REPRESENTATION (  '', ( #273 ), #5 ) ;
#170 = CARTESIAN_POINT ( 'NONE',  ( 0.000000000000000000, 0.000000000000000000, 0.000000000000000000 ) ) ;
#171 = ADVANCED_FACE ( 'NONE', ( #109 ), #112, .T. ) ;
#172 = CARTESIAN_POINT ( 'NONE',  ( 0.1562500000000000278, 3.000000000000000444, 1.913510623667740388E-17 ) ) ;
#173 = AXIS2_PLACEMENT_3D ( 'NONE', #31, #202, #198 ) ;
#174 = DIMENSIONAL_EXPONENTS ( 1.000000000000000000, 0.000000000000000000, 0.000000000000000000, 0.000000000000000000, 0.000000000000000000, 0.000000000000000000, 0.000000000000000000 ) ;
#175 = DIRECTION ( 'NONE',  ( -0.000000000000000000, -1.000000000000000000, -0.000000000000000000 ) ) ;
#176 = CIRCLE ( 'NONE', #209, 0.1562500000000000278 ) ;
#177 = PLANE ( 'NONE',  #173 ) ;
#178 = EDGE_CURVE ( 'NONE', #138, #17, #253, .T. ) ;
#179 =( GEOMETRIC_REPRESENTATION_CONTEXT ( 3 ) GLOBAL_UNCERTAINTY_ASSIGNED_CONTEXT ( ( #255 ) ) GLOBAL_UNIT_ASSIGNED_CONTEXT ( ( #267, #293, #243 ) ) REPRESENTATION_CONTEXT ( 'NONE', 'WORKASPACE' ) );
#180 =( LENGTH_UNIT ( ) NAMED_UNIT ( * ) SI_UNIT ( $, .METRE. ) );
#181 = AXIS2_PLACEMENT_3D ( 'NONE', #156, #127, #225 ) ;
#182 = DIRECTION ( 'NONE',  ( -3.061616997868386099E-17, 1.000000000000000000, -0.000000000000000000 ) ) ;
#183 = CARTESIAN_POINT ( 'NONE',  ( 0.000000000000000000, 0.000000000000000000, 0.000000000000000000 ) ) ;
#184 = ADVANCED_BREP_SHAPE_REPRESENTATION ( '44197W', ( #116, #218, #44 ), #132 ) ;
#185 = CARTESIAN_POINT ( 'NONE',  ( 0.000000000000000000, 1.000000000000000000, 0.000000000000000000 ) ) ;
#186 = ORIENTED_EDGE ( 'NONE', *, *, #307, .F. ) ;
#187 = FILL_AREA_STYLE_COLOUR ( '', #62 ) ;
#188 = DIRECTION ( 'NONE',  ( -1.000000000000000000, 0.000000000000000000, 0.000000000000000000 ) ) ;
#189 = EDGE_CURVE ( 'NONE', #143, #33, #123, .T. ) ;
#190 = ORIENTED_EDGE ( 'NONE', *, *, #269, .T. ) ;
#191 = CARTESIAN_POINT ( 'NONE',  ( -6.123233995736772199E-17, 3.000000000000000444, 0.000000000000000000 ) ) ;
#192 = DIRECTION ( 'NONE',  ( 0.000000000000000000, 0.000000000000000000, -1.000000000000000000 ) ) ;
#193 = CARTESIAN_POINT ( 'NONE',  ( 1.913510623667739463E-17, 0.000000000000000000, 0.1562500000000000000 ) ) ;
#194 = AXIS2_PLACEMENT_3D ( 'NONE', #240, #223, #96 ) ;
#195 = DIRECTION ( 'NONE',  ( -1.000000000000000000, 0.000000000000000000, 0.000000000000000000 ) ) ;
#196 =( NAMED_UNIT ( * ) PLANE_ANGLE_UNIT ( ) SI_UNIT ( $, .RADIAN. ) );
#197 = PRESENTATION_LAYER_ASSIGNMENT (  '', '', ( #119 ) ) ;
#198 = DIRECTION ( 'NONE',  ( 1.000000000000000000, 3.061616997868386099E-17, 0.000000000000000000 ) ) ;
#199 = AXIS2_PLACEMENT_3D ( 'NONE', #146, #217, #192 ) ;
#200 = CARTESIAN_POINT ( 'NONE',  ( 1.913510623667739463E-17, 0.000000000000000000, 0.1562500000000000000 ) ) ;
#201 = DIRECTION ( 'NONE',  ( -1.000000000000000000, 0.000000000000000000, 0.000000000000000000 ) ) ;
#202 = DIRECTION ( 'NONE',  ( 3.061616997868386099E-17, -1.000000000000000000, 0.000000000000000000 ) ) ;
#203 = DIRECTION ( 'NONE',  ( -0.000000000000000000, -1.000000000000000000, -0.000000000000000000 ) ) ;
#204 =( NAMED_UNIT ( * ) PLANE_ANGLE_UNIT ( ) SI_UNIT ( $, .RADIAN. ) );
#205 = LENGTH_MEASURE_WITH_UNIT ( LENGTH_MEASURE( 0.02539999999999999897 ), #129 );
#206 = SURFACE_STYLE_USAGE ( .BOTH. , #153 ) ;
#207 = ORIENTED_EDGE ( 'NONE', *, *, #22, .F. ) ;
#208 = UNCERTAINTY_MEASURE_WITH_UNIT (LENGTH_MEASURE( 1.000000000000000082E-05 ), #30, 'distance_accuracy_value', 'NONE');
#209 = AXIS2_PLACEMENT_3D ( 'NONE', #135, #277, #283 ) ;
#210 = EDGE_LOOP ( 'NONE', ( #137, #258, #110, #244 ) ) ;
#211 =( LENGTH_UNIT ( ) NAMED_UNIT ( * ) SI_UNIT ( $, .METRE. ) );
#212 = FACE_OUTER_BOUND ( 'NONE', #237, .T. ) ;
#213 = PRESENTATION_STYLE_ASSIGNMENT (( #67 ) ) ;
#214 =( CONVERSION_BASED_UNIT ( 'INCH', #233 ) LENGTH_UNIT ( ) NAMED_UNIT ( #99 ) );
#215 = UNCERTAINTY_MEASURE_WITH_UNIT (LENGTH_MEASURE( 1.000000000000000082E-05 ), #103, 'distance_accuracy_value', 'NONE');
#216 = ADVANCED_FACE ( 'NONE', ( #41 ), #280, .F. ) ;
#217 = DIRECTION ( 'NONE',  ( 0.000000000000000000, -1.000000000000000000, -0.000000000000000000 ) ) ;
#218 = MANIFOLD_SOLID_BREP ( 'Revolve - Tool Body (Straight Shanked)', #276 ) ;
#219 = DIRECTION ( 'NONE',  ( -3.061616997868386099E-17, 1.000000000000000000, -0.000000000000000000 ) ) ;
#220 = PRODUCT_DEFINITION_FORMATION_WITH_SPECIFIED_SOURCE ( 'ANY', '', #274, .NOT_KNOWN. ) ;
#221 = FACE_OUTER_BOUND ( 'NONE', #45, .T. ) ;
#222 = CARTESIAN_POINT ( 'NONE',  ( 0.000000000000000000, 0.000000000000000000, -0.1562500000000000000 ) ) ;
#223 = DIRECTION ( 'NONE',  ( -0.000000000000000000, -1.000000000000000000, -0.000000000000000000 ) ) ;
#224 =( GEOMETRIC_REPRESENTATION_CONTEXT ( 3 ) GLOBAL_UNCERTAINTY_ASSIGNED_CONTEXT ( ( #20 ) ) GLOBAL_UNIT_ASSIGNED_CONTEXT ( ( #214, #288, #140 ) ) REPRESENTATION_CONTEXT ( 'NONE', 'WORKASPACE' ) );
#225 = DIRECTION ( 'NONE',  ( -1.000000000000000000, 0.000000000000000000, 0.000000000000000000 ) ) ;
#226 = EDGE_CURVE ( 'NONE', #89, #143, #83, .T. ) ;
#227 = FACE_OUTER_BOUND ( 'NONE', #29, .T. ) ;
#228 = CIRCLE ( 'NONE', #161, 0.1562500000000000278 ) ;
#229 = MECHANICAL_DESIGN_GEOMETRIC_PRESENTATION_REPRESENTATION (  '', ( #113 ), #179 ) ;
#230 = DIRECTION ( 'NONE',  ( 0.000000000000000000, -0.000000000000000000, 1.000000000000000000 ) ) ;
#231 = AXIS2_PLACEMENT_3D ( 'NONE', #79, #175, #165 ) ;
#232 = EDGE_LOOP ( 'NONE', ( #256, #88 ) ) ;
#233 = LENGTH_MEASURE_WITH_UNIT ( LENGTH_MEASURE( 0.02539999999999999897 ), #211 );
#234 = EDGE_CURVE ( 'NONE', #138, #167, #228, .T. ) ;
#235 = CARTESIAN_POINT ( 'NONE',  ( -6.123233995736772199E-17, 3.000000000000000444, 0.000000000000000000 ) ) ;
#236 = UNCERTAINTY_MEASURE_WITH_UNIT (LENGTH_MEASURE( 1.000000000000000082E-05 ), #108, 'distance_accuracy_value', 'NONE');
#237 = EDGE_LOOP ( 'NONE', ( #186, #37 ) ) ;
#238 = VECTOR ( 'NONE', #298, 39.37007874015748143 ) ;
#239 = CARTESIAN_POINT ( 'NONE',  ( 0.000000000000000000, 0.000000000000000000, -0.1562500000000000000 ) ) ;
#240 = CARTESIAN_POINT ( 'NONE',  ( 0.000000000000000000, 0.000000000000000000, 0.000000000000000000 ) ) ;
#241 = LENGTH_MEASURE_WITH_UNIT ( LENGTH_MEASURE( 0.02539999999999999897 ), #1 );
#242 = PRESENTATION_LAYER_ASSIGNMENT (  '', '', ( #65 ) ) ;
#243 =( NAMED_UNIT ( * ) SI_UNIT ( $, .STERADIAN. ) SOLID_ANGLE_UNIT ( ) );
#244 = ORIENTED_EDGE ( 'NONE', *, *, #10, .F. ) ;
#245 = ADVANCED_FACE ( 'NONE', ( #227 ), #177, .F. ) ;
#246 = ORIENTED_EDGE ( 'NONE', *, *, #307, .T. ) ;
#247 = SURFACE_STYLE_FILL_AREA ( #4 ) ;
#248 = PRESENTATION_STYLE_ASSIGNMENT (( #206 ) ) ;
#249 = ADVANCED_FACE ( 'NONE', ( #124 ), #272, .T. ) ;
#250 = LENGTH_MEASURE_WITH_UNIT ( LENGTH_MEASURE( 0.02539999999999999897 ), #82 );
#251 = DIRECTION ( 'NONE',  ( -3.061616997868386099E-17, 1.000000000000000000, -0.000000000000000000 ) ) ;
#252 = UNCERTAINTY_MEASURE_WITH_UNIT (LENGTH_MEASURE( 1.000000000000000082E-05 ), #270, 'distance_accuracy_value', 'NONE');
#253 = LINE ( 'NONE', #100, #238 ) ;
#254 =( NAMED_UNIT ( * ) SI_UNIT ( $, .STERADIAN. ) SOLID_ANGLE_UNIT ( ) );
#255 = UNCERTAINTY_MEASURE_WITH_UNIT (LENGTH_MEASURE( 1.000000000000000082E-05 ), #267, 'distance_accuracy_value', 'NONE');
#256 = ORIENTED_EDGE ( 'NONE', *, *, #269, .F. ) ;
#257 = VECTOR ( 'NONE', #203, 39.37007874015748143 ) ;
#258 = ORIENTED_EDGE ( 'NONE', *, *, #234, .T. ) ;
#259 = CIRCLE ( 'NONE', #304, 0.1562500000000000278 ) ;
#260 = DIRECTION ( 'NONE',  ( 0.000000000000000000, 0.000000000000000000, 1.000000000000000000 ) ) ;
#261 = SURFACE_STYLE_FILL_AREA ( #3 ) ;
#262 = PRESENTATION_STYLE_ASSIGNMENT (( #93 ) ) ;
#263 = COLOUR_RGB ( '',1.000000000000000000, 0.000000000000000000, 0.000000000000000000 ) ;
#264 = CARTESIAN_POINT ( 'NONE',  ( 0.000000000000000000, 1.000000000000000000, -0.1562500000000000278 ) ) ;
#265 = ADVANCED_FACE ( 'NONE', ( #212 ), #46, .T. ) ;
#266 = CIRCLE ( 'NONE', #8, 0.1562500000000000278 ) ;
#267 =( CONVERSION_BASED_UNIT ( 'INCH', #241 ) LENGTH_UNIT ( ) NAMED_UNIT ( #28 ) );
#268 = DIMENSIONAL_EXPONENTS ( 1.000000000000000000, 0.000000000000000000, 0.000000000000000000, 0.000000000000000000, 0.000000000000000000, 0.000000000000000000, 0.000000000000000000 ) ;
#269 = EDGE_CURVE ( 'NONE', #167, #138, #259, .T. ) ;
#270 =( CONVERSION_BASED_UNIT ( 'INCH', #250 ) LENGTH_UNIT ( ) NAMED_UNIT ( #268 ) );
#271 = DIMENSIONAL_EXPONENTS ( 1.000000000000000000, 0.000000000000000000, 0.000000000000000000, 0.000000000000000000, 0.000000000000000000, 0.000000000000000000, 0.000000000000000000 ) ;
#272 = CYLINDRICAL_SURFACE ( 'NONE', #181, 0.1562500000000000833 ) ;
#273 = STYLED_ITEM ( 'NONE', ( #32 ), #218 ) ;
#274 = PRODUCT ( '44197W', '44197W', '', ( #290 ) ) ;
#275 = DIRECTION ( 'NONE',  ( 0.000000000000000000, 0.000000000000000000, -1.000000000000000000 ) ) ;
#276 = CLOSED_SHELL ( 'NONE', ( #36, #216, #249, #245 ) ) ;
#277 = DIRECTION ( 'NONE',  ( -0.000000000000000000, -1.000000000000000000, -0.000000000000000000 ) ) ;
#278 = AXIS2_PLACEMENT_3D ( 'NONE', #73, #133, #292 ) ;
#279 = AXIS2_PLACEMENT_3D ( 'NONE', #191, #75, #195 ) ;
#280 = PLANE ( 'NONE',  #278 ) ;
#281 = CARTESIAN_POINT ( 'NONE',  ( 1.913510623667739771E-17, 1.000000000000000000, 0.1562500000000000278 ) ) ;
#282 = ORIENTED_EDGE ( 'NONE', *, *, #54, .T. ) ;
#283 = DIRECTION ( 'NONE',  ( 0.000000000000000000, 0.000000000000000000, -1.000000000000000000 ) ) ;
#284 = EDGE_CURVE ( 'NONE', #287, #89, #266, .T. ) ;
#285 = UNCERTAINTY_MEASURE_WITH_UNIT (LENGTH_MEASURE( 1.000000000000000082E-05 ), #39, 'distance_accuracy_value', 'NONE');
#286 = AXIS2_PLACEMENT_3D ( 'NONE', #183, #58, #275 ) ;
#287 = VERTEX_POINT ( 'NONE', #281 ) ;
#288 =( NAMED_UNIT ( * ) PLANE_ANGLE_UNIT ( ) SI_UNIT ( $, .RADIAN. ) );
#289 = APPLICATION_CONTEXT ( 'automotive_design' ) ;
#290 = PRODUCT_CONTEXT ( 'NONE', #128, 'mechanical' ) ;
#291 = SURFACE_STYLE_FILL_AREA ( #87 ) ;
#292 = DIRECTION ( 'NONE',  ( -1.000000000000000000, -3.061616997868386099E-17, 0.000000000000000000 ) ) ;
#293 =( NAMED_UNIT ( * ) PLANE_ANGLE_UNIT ( ) SI_UNIT ( $, .RADIAN. ) );
#294 = CLOSED_SHELL ( 'NONE', ( #159, #265, #163, #171 ) ) ;
#295 = PRESENTATION_STYLE_ASSIGNMENT (( #149 ) ) ;
#296 = LINE ( 'NONE', #193, #51 ) ;
#297 =( NAMED_UNIT ( * ) PLANE_ANGLE_UNIT ( ) SI_UNIT ( $, .RADIAN. ) );
#298 = DIRECTION ( 'NONE',  ( -3.061616997868386099E-17, 1.000000000000000000, -0.000000000000000000 ) ) ;
#299 = DIRECTION ( 'NONE',  ( -1.000000000000000000, 0.000000000000000000, 0.000000000000000000 ) ) ;
#300 = CARTESIAN_POINT ( 'NONE',  ( 7.582401355855259480E-33, 1.000000000000000000, 0.000000000000000000 ) ) ;
#301 = FACE_OUTER_BOUND ( 'NONE', #21, .T. ) ;
#302 = CARTESIAN_POINT ( 'NONE',  ( 0.000000000000000000, 1.000000000000000000, 0.000000000000000000 ) ) ;
#303 = FILL_AREA_STYLE_COLOUR ( '', #80 ) ;
#304 = AXIS2_PLACEMENT_3D ( 'NONE', #12, #182, #299 ) ;
#305 = AXIS2_PLACEMENT_3D ( 'NONE', #55, #74, #61 ) ;
#306 = ORIENTED_EDGE ( 'NONE', *, *, #226, .F. ) ;
#307 = EDGE_CURVE ( 'NONE', #89, #287, #176, .T. ) ;
#308 = STYLED_ITEM ( 'NONE', ( #248 ), #163 ) ;
#309 = PRESENTATION_LAYER_ASSIGNMENT (  '', '', ( #273 ) ) ;
ENDSEC;
END-ISO-10303-21;
