ISO-10303-21;
HEADER;
FILE_DESCRIPTION (( 'STEP AP214' ),
    '1' );
FILE_NAME ('59434.STEP',
    '2023-06-30T22:14:38',
    ( '' ),
    ( '' ),
    'SwSTEP 2.0',
    'SolidWorks 2023',
    '' );
FILE_SCHEMA (( 'AUTOMOTIVE_DESIGN' ));
ENDSEC;

DATA;
#1 = SURFACE_SIDE_STYLE ('',( #29 ) ) ;
#2 = DIRECTION ( 'NONE',  ( -1.000000000000000000, 0.000000000000000000, 0.000000000000000000 ) ) ;
#3 = CARTESIAN_POINT ( 'NONE',  ( 0.000000000000000000, 0.3750000000000002220, -0.1249999999999999029 ) ) ;
#4 =( NAMED_UNIT ( * ) PLANE_ANGLE_UNIT ( ) SI_UNIT ( $, .RADIAN. ) );
#5 = SURFACE_STYLE_USAGE ( .BOTH. , #182 ) ;
#6 = CARTESIAN_POINT ( 'NONE',  ( 0.000000000000000000, 0.000000000000000000, 0.000000000000000000 ) ) ;
#7 = CARTESIAN_POINT ( 'NONE',  ( 0.1249999999999999029, 0.3750000000000002220, 1.530808498934182265E-17 ) ) ;
#8 = DIRECTION ( 'NONE',  ( 0.000000000000000000, 0.000000000000000000, -1.000000000000000000 ) ) ;
#9 =( NAMED_UNIT ( * ) SI_UNIT ( $, .STERADIAN. ) SOLID_ANGLE_UNIT ( ) );
#10 = VERTEX_POINT ( 'NONE', #198 ) ;
#11 = LENGTH_MEASURE_WITH_UNIT ( LENGTH_MEASURE( 0.02539999999999999897 ), #305 );
#12 = DIRECTION ( 'NONE',  ( 0.000000000000000000, 0.000000000000000000, 1.000000000000000000 ) ) ;
#13 = ORIENTED_EDGE ( 'NONE', *, *, #63, .F. ) ;
#14 = UNCERTAINTY_MEASURE_WITH_UNIT (LENGTH_MEASURE( 1.000000000000000082E-05 ), #238, 'distance_accuracy_value', 'NONE');
#15 = VECTOR ( 'NONE', #290, 39.37007874015748143 ) ;
#16 = PRODUCT_DEFINITION_CONTEXT ( 'detailed design', #134, 'design' ) ;
#17 = CARTESIAN_POINT ( 'NONE',  ( -1.530808498934190893E-17, 0.1249999999999999029, 0.000000000000000000 ) ) ;
#18 = DIRECTION ( 'NONE',  ( 0.000000000000000000, -0.000000000000000000, 1.000000000000000000 ) ) ;
#19 = VERTEX_POINT ( 'NONE', #80 ) ;
#20 = ORIENTED_EDGE ( 'NONE', *, *, #124, .F. ) ;
#21 = CIRCLE ( 'NONE', #236, 0.1249999999999999029 ) ;
#22 = MECHANICAL_DESIGN_GEOMETRIC_PRESENTATION_REPRESENTATION (  '', ( #117 ), #335 ) ;
#23 = LENGTH_MEASURE_WITH_UNIT ( LENGTH_MEASURE( 0.02539999999999999897 ), #138 );
#24 = EDGE_CURVE ( 'NONE', #19, #356, #171, .T. ) ;
#25 = FILL_AREA_STYLE ('',( #32 ) ) ;
#26 = ORIENTED_EDGE ( 'NONE', *, *, #318, .T. ) ;
#27 = SURFACE_SIDE_STYLE ('',( #287 ) ) ;
#28 = PRESENTATION_STYLE_ASSIGNMENT (( #5 ) ) ;
#29 = SURFACE_STYLE_FILL_AREA ( #25 ) ;
#30 = MECHANICAL_DESIGN_GEOMETRIC_PRESENTATION_REPRESENTATION (  '', ( #136 ), #109 ) ;
#31 =( LENGTH_UNIT ( ) NAMED_UNIT ( * ) SI_UNIT ( $, .METRE. ) );
#32 = FILL_AREA_STYLE_COLOUR ( '', #169 ) ;
#33 = LENGTH_MEASURE_WITH_UNIT ( LENGTH_MEASURE( 0.02539999999999999897 ), #31 );
#34 = CARTESIAN_POINT ( 'NONE',  ( 0.000000000000000000, 0.1249999999999999029, 0.000000000000000000 ) ) ;
#35 =( NAMED_UNIT ( * ) PLANE_ANGLE_UNIT ( ) SI_UNIT ( $, .RADIAN. ) );
#36 = FACE_OUTER_BOUND ( 'NONE', #338, .T. ) ;
#37 = PRESENTATION_LAYER_ASSIGNMENT (  '', '', ( #136 ) ) ;
#38 = ADVANCED_FACE ( 'NONE', ( #304 ), #178, .T. ) ;
#39 = DIMENSIONAL_EXPONENTS ( 1.000000000000000000, 0.000000000000000000, 0.000000000000000000, 0.000000000000000000, 0.000000000000000000, 0.000000000000000000, 0.000000000000000000 ) ;
#40 = EDGE_CURVE ( 'NONE', #245, #355, #159, .T. ) ;
#41 = AXIS2_PLACEMENT_3D ( 'NONE', #86, #265, #373 ) ;
#42 = AXIS2_PLACEMENT_3D ( 'NONE', #368, #157, #324 ) ;
#43 = ORIENTED_EDGE ( 'NONE', *, *, #63, .T. ) ;
#44 = FILL_AREA_STYLE_COLOUR ( '', #89 ) ;
#45 = ORIENTED_EDGE ( 'NONE', *, *, #242, .F. ) ;
#46 = DIRECTION ( 'NONE',  ( -0.000000000000000000, -1.000000000000000000, -0.000000000000000000 ) ) ;
#47 = PRODUCT_DEFINITION_SHAPE ( 'NONE', 'NONE',  #107 ) ;
#48 = CLOSED_SHELL ( 'NONE', ( #300, #163, #38, #133 ) ) ;
#49 = CIRCLE ( 'NONE', #348, 0.1249999999999999029 ) ;
#50 = CARTESIAN_POINT ( 'NONE',  ( -1.530808498934190893E-17, 0.1249999999999999029, 0.000000000000000000 ) ) ;
#51 = SURFACE_STYLE_USAGE ( .BOTH. , #1 ) ;
#52 = EDGE_LOOP ( 'NONE', ( #56, #161, #221, #281, #13 ) ) ;
#53 = LENGTH_MEASURE_WITH_UNIT ( LENGTH_MEASURE( 0.02539999999999999897 ), #83 );
#54 = AXIS2_PLACEMENT_3D ( 'NONE', #108, #101, #141 ) ;
#55 = ORIENTED_EDGE ( 'NONE', *, *, #124, .T. ) ;
#56 = ORIENTED_EDGE ( 'NONE', *, *, #24, .F. ) ;
#57 = SURFACE_STYLE_FILL_AREA ( #319 ) ;
#58 = DIRECTION ( 'NONE',  ( -1.000000000000000000, 0.000000000000000000, 0.000000000000000000 ) ) ;
#59 =( LENGTH_UNIT ( ) NAMED_UNIT ( * ) SI_UNIT ( $, .METRE. ) );
#60 = MANIFOLD_SOLID_BREP ( 'Revolve - Cutting Edge', #173 ) ;
#61 =( NAMED_UNIT ( * ) SI_UNIT ( $, .STERADIAN. ) SOLID_ANGLE_UNIT ( ) );
#62 = DIRECTION ( 'NONE',  ( -1.333265162163505466E-16, 1.000000000000000000, -0.000000000000000000 ) ) ;
#63 = EDGE_CURVE ( 'NONE', #356, #100, #21, .T. ) ;
#64 =( GEOMETRIC_REPRESENTATION_CONTEXT ( 3 ) GLOBAL_UNCERTAINTY_ASSIGNED_CONTEXT ( ( #72 ) ) GLOBAL_UNIT_ASSIGNED_CONTEXT ( ( #291, #4, #61 ) ) REPRESENTATION_CONTEXT ( 'NONE', 'WORKASPACE' ) );
#65 = COLOUR_RGB ( '',0.7921568627450980005, 0.8196078431372548767, 0.9333333333333333481 ) ;
#66 = ORIENTED_EDGE ( 'NONE', *, *, #329, .T. ) ;
#67 = UNCERTAINTY_MEASURE_WITH_UNIT (LENGTH_MEASURE( 1.000000000000000082E-05 ), #214, 'distance_accuracy_value', 'NONE');
#68 = ORIENTED_EDGE ( 'NONE', *, *, #113, .F. ) ;
#69 = DIMENSIONAL_EXPONENTS ( 1.000000000000000000, 0.000000000000000000, 0.000000000000000000, 0.000000000000000000, 0.000000000000000000, 0.000000000000000000, 0.000000000000000000 ) ;
#70 = PRODUCT ( '59434', '59434', '', ( #274 ) ) ;
#71 = SURFACE_STYLE_USAGE ( .BOTH. , #363 ) ;
#72 = UNCERTAINTY_MEASURE_WITH_UNIT (LENGTH_MEASURE( 1.000000000000000082E-05 ), #291, 'distance_accuracy_value', 'NONE');
#73 = DIRECTION ( 'NONE',  ( 1.000000000000000000, 0.000000000000000000, 0.000000000000000000 ) ) ;
#74 = ORIENTED_EDGE ( 'NONE', *, *, #201, .T. ) ;
#75 = EDGE_LOOP ( 'NONE', ( #226, #26 ) ) ;
#76 = AXIS2_PLACEMENT_3D ( 'NONE', #50, #308, #176 ) ;
#77 = SURFACE_SIDE_STYLE ('',( #255 ) ) ;
#78 =( NAMED_UNIT ( * ) PLANE_ANGLE_UNIT ( ) SI_UNIT ( $, .RADIAN. ) );
#79 =( NAMED_UNIT ( * ) SI_UNIT ( $, .STERADIAN. ) SOLID_ANGLE_UNIT ( ) );
#80 = CARTESIAN_POINT ( 'NONE',  ( 1.530808498934190276E-17, 0.3750000000000002220, 0.1249999999999999029 ) ) ;
#81 = DIRECTION ( 'NONE',  ( -1.333265162163505466E-16, 1.000000000000000000, -0.000000000000000000 ) ) ;
#82 = SURFACE_STYLE_USAGE ( .BOTH. , #341 ) ;
#83 =( LENGTH_UNIT ( ) NAMED_UNIT ( * ) SI_UNIT ( $, .METRE. ) );
#84 = PRESENTATION_LAYER_ASSIGNMENT (  '', '', ( #102 ) ) ;
#85 = DIRECTION ( 'NONE',  ( 1.000000000000000000, 0.000000000000000000, 0.000000000000000000 ) ) ;
#86 = CARTESIAN_POINT ( 'NONE',  ( 0.000000000000000000, 0.1249999999999999029, 0.000000000000000000 ) ) ;
#87 = CARTESIAN_POINT ( 'NONE',  ( 0.1249999999999997918, 1.999999999999999334, 1.530808498934181340E-17 ) ) ;
#88 = SHAPE_DEFINITION_REPRESENTATION ( #47, #269 ) ;
#89 = COLOUR_RGB ( '',1.000000000000000000, 0.000000000000000000, 0.000000000000000000 ) ;
#90 = AXIS2_PLACEMENT_3D ( 'NONE', #177, #120, #58 ) ;
#91 = LENGTH_MEASURE_WITH_UNIT ( LENGTH_MEASURE( 0.02539999999999999897 ), #239 );
#92 = ADVANCED_FACE ( 'NONE', ( #365 ), #112, .T. ) ;
#93 = CARTESIAN_POINT ( 'NONE',  ( 0.000000000000000000, 0.3750000000000002220, 0.000000000000000000 ) ) ;
#94 = FACE_OUTER_BOUND ( 'NONE', #106, .T. ) ;
#95 =( NAMED_UNIT ( * ) SI_UNIT ( $, .STERADIAN. ) SOLID_ANGLE_UNIT ( ) );
#96 =( GEOMETRIC_REPRESENTATION_CONTEXT ( 3 ) GLOBAL_UNCERTAINTY_ASSIGNED_CONTEXT ( ( #126 ) ) GLOBAL_UNIT_ASSIGNED_CONTEXT ( ( #227, #78, #306 ) ) REPRESENTATION_CONTEXT ( 'NONE', 'WORKASPACE' ) );
#97 = CIRCLE ( 'NONE', #42, 0.1249999999999992784 ) ;
#98 = EDGE_LOOP ( 'NONE', ( #20, #248 ) ) ;
#99 = ORIENTED_EDGE ( 'NONE', *, *, #119, .F. ) ;
#100 = VERTEX_POINT ( 'NONE', #270 ) ;
#101 = DIRECTION ( 'NONE',  ( -1.333265162163505466E-16, 1.000000000000000000, 0.000000000000000000 ) ) ;
#102 = STYLED_ITEM ( 'NONE', ( #251 ), #166 ) ;
#103 =( GEOMETRIC_REPRESENTATION_CONTEXT ( 3 ) GLOBAL_UNCERTAINTY_ASSIGNED_CONTEXT ( ( #313 ) ) GLOBAL_UNIT_ASSIGNED_CONTEXT ( ( #350, #35, #9 ) ) REPRESENTATION_CONTEXT ( 'NONE', 'WORKASPACE' ) );
#104 = ORIENTED_EDGE ( 'NONE', *, *, #219, .F. ) ;
#105 =( NAMED_UNIT ( * ) PLANE_ANGLE_UNIT ( ) SI_UNIT ( $, .RADIAN. ) );
#106 = EDGE_LOOP ( 'NONE', ( #275, #325 ) ) ;
#107 = PRODUCT_DEFINITION ( 'UNKNOWN', '', #110, #16 ) ;
#108 = CARTESIAN_POINT ( 'NONE',  ( 8.289789884252460785E-16, 0.3750000000000002220, 0.000000000000000000 ) ) ;
#109 =( GEOMETRIC_REPRESENTATION_CONTEXT ( 3 ) GLOBAL_UNCERTAINTY_ASSIGNED_CONTEXT ( ( #14 ) ) GLOBAL_UNIT_ASSIGNED_CONTEXT ( ( #238, #316, #180 ) ) REPRESENTATION_CONTEXT ( 'NONE', 'WORKASPACE' ) );
#110 = PRODUCT_DEFINITION_FORMATION_WITH_SPECIFIED_SOURCE ( 'ANY', '', #70, .NOT_KNOWN. ) ;
#111 =( CONVERSION_BASED_UNIT ( 'INCH', #11 ) LENGTH_UNIT ( ) NAMED_UNIT ( #244 ) );
#112 = CYLINDRICAL_SURFACE ( 'NONE', #302, 0.1249999999999999029 ) ;
#113 = EDGE_CURVE ( 'NONE', #218, #288, #116, .T. ) ;
#114 = FILL_AREA_STYLE_COLOUR ( '', #65 ) ;
#115 = ORIENTED_EDGE ( 'NONE', *, *, #184, .F. ) ;
#116 = CIRCLE ( 'NONE', #364, 0.1249999999999992784 ) ;
#117 = STYLED_ITEM ( 'NONE', ( #179 ), #232 ) ;
#118 = CARTESIAN_POINT ( 'NONE',  ( 6.123233995736766282E-16, 1.999999999999999334, 0.000000000000000000 ) ) ;
#119 = EDGE_CURVE ( 'NONE', #10, #245, #195, .T. ) ;
#120 = DIRECTION ( 'NONE',  ( -1.333265162163505466E-16, 1.000000000000000000, -0.000000000000000000 ) ) ;
#121 = FILL_AREA_STYLE_COLOUR ( '', #283 ) ;
#122 = CARTESIAN_POINT ( 'NONE',  ( -1.530808498934190893E-17, 0.1249999999999999029, 0.000000000000000000 ) ) ;
#123 = PRESENTATION_LAYER_ASSIGNMENT (  '', '', ( #117 ) ) ;
#124 = EDGE_CURVE ( 'NONE', #225, #143, #146, .T. ) ;
#125 = SURFACE_STYLE_USAGE ( .BOTH. , #212 ) ;
#126 = UNCERTAINTY_MEASURE_WITH_UNIT (LENGTH_MEASURE( 1.000000000000000082E-05 ), #227, 'distance_accuracy_value', 'NONE');
#127 = DIMENSIONAL_EXPONENTS ( 1.000000000000000000, 0.000000000000000000, 0.000000000000000000, 0.000000000000000000, 0.000000000000000000, 0.000000000000000000, 0.000000000000000000 ) ;
#128 = DIRECTION ( 'NONE',  ( 0.000000000000000000, 0.000000000000000000, 1.000000000000000000 ) ) ;
#129 = PRESENTATION_LAYER_ASSIGNMENT (  '', '', ( #354 ) ) ;
#130 =( NAMED_UNIT ( * ) PLANE_ANGLE_UNIT ( ) SI_UNIT ( $, .RADIAN. ) );
#131 = PRESENTATION_STYLE_ASSIGNMENT (( #139 ) ) ;
#132 = PLANE ( 'NONE',  #54 ) ;
#133 = ADVANCED_FACE ( 'NONE', ( #151 ), #267, .F. ) ;
#134 = APPLICATION_CONTEXT ( 'automotive_design' ) ;
#135 = AXIS2_PLACEMENT_3D ( 'NONE', #346, #241, #272 ) ;
#136 = STYLED_ITEM ( 'NONE', ( #206 ), #152 ) ;
#137 = DIRECTION ( 'NONE',  ( 1.224646799147353207E-16, -0.000000000000000000, 1.000000000000000000 ) ) ;
#138 =( LENGTH_UNIT ( ) NAMED_UNIT ( * ) SI_UNIT ( $, .METRE. ) );
#139 = SURFACE_STYLE_USAGE ( .BOTH. , #77 ) ;
#140 = CARTESIAN_POINT ( 'NONE',  ( 6.123233995736766282E-16, 1.999999999999999334, 0.000000000000000000 ) ) ;
#141 = DIRECTION ( 'NONE',  ( -1.000000000000000000, -1.333265162163505466E-16, 0.000000000000000000 ) ) ;
#142 = CARTESIAN_POINT ( 'NONE',  ( -0.1249999999999986677, 1.999999999999999334, 0.000000000000000000 ) ) ;
#143 = VERTEX_POINT ( 'NONE', #7 ) ;
#144 = ORIENTED_EDGE ( 'NONE', *, *, #40, .T. ) ;
#145 = SURFACE_STYLE_USAGE ( .BOTH. , #27 ) ;
#146 = CIRCLE ( 'NONE', #353, 0.1249999999999990563 ) ;
#147 = CARTESIAN_POINT ( 'NONE',  ( 0.1249999999999999029, 0.1249999999999999029, 0.000000000000000000 ) ) ;
#148 = CIRCLE ( 'NONE', #187, 0.1249999999999999029 ) ;
#149 = DIRECTION ( 'NONE',  ( -1.333265162163505466E-16, 1.000000000000000000, -0.000000000000000000 ) ) ;
#150 = CARTESIAN_POINT ( 'NONE',  ( 0.1249999999999999029, 1.999999999999999334, 1.530808498934182265E-17 ) ) ;
#151 = FACE_OUTER_BOUND ( 'NONE', #75, .T. ) ;
#152 = ADVANCED_FACE ( 'NONE', ( #36 ), #208, .T. ) ;
#153 = DIRECTION ( 'NONE',  ( -0.000000000000000000, -1.000000000000000000, -0.000000000000000000 ) ) ;
#154 = CARTESIAN_POINT ( 'NONE',  ( 0.000000000000000000, 0.000000000000000000, 0.000000000000000000 ) ) ;
#155 = CARTESIAN_POINT ( 'NONE',  ( 0.000000000000000000, 0.3750000000000002220, 0.000000000000000000 ) ) ;
#156 = STYLED_ITEM ( 'NONE', ( #131 ), #160 ) ;
#157 = DIRECTION ( 'NONE',  ( -1.333265162163505466E-16, 1.000000000000000000, -0.000000000000000000 ) ) ;
#158 = DIRECTION ( 'NONE',  ( 0.000000000000000000, 0.000000000000000000, -1.000000000000000000 ) ) ;
#159 = CIRCLE ( 'NONE', #76, 0.1249999999999999029 ) ;
#160 = ADVANCED_FACE ( 'NONE', ( #94 ), #170, .T. ) ;
#161 = ORIENTED_EDGE ( 'NONE', *, *, #369, .T. ) ;
#162 = CYLINDRICAL_SURFACE ( 'NONE', #278, 0.1249999999999999029 ) ;
#163 = ADVANCED_FACE ( 'NONE', ( #229 ), #132, .F. ) ;
#164 = ORIENTED_EDGE ( 'NONE', *, *, #217, .T. ) ;
#165 = UNCERTAINTY_MEASURE_WITH_UNIT (LENGTH_MEASURE( 1.000000000000000082E-05 ), #330, 'distance_accuracy_value', 'NONE');
#166 = ADVANCED_FACE ( 'NONE', ( #192 ), #162, .T. ) ;
#167 = CARTESIAN_POINT ( 'NONE',  ( -1.530808498934190893E-17, 0.1249999999999999029, 0.000000000000000000 ) ) ;
#168 = PRESENTATION_LAYER_ASSIGNMENT (  '', '', ( #358 ) ) ;
#169 = COLOUR_RGB ( '',1.000000000000000000, 0.000000000000000000, 0.000000000000000000 ) ;
#170 = PLANE ( 'NONE',  #223 ) ;
#171 = LINE ( 'NONE', #256, #209 ) ;
#172 = DIRECTION ( 'NONE',  ( 0.000000000000000000, 1.000000000000000000, 0.000000000000000000 ) ) ;
#173 = CLOSED_SHELL ( 'NONE', ( #152, #166, #160, #92, #232 ) ) ;
#174 = COLOUR_RGB ( '',1.000000000000000000, 0.000000000000000000, 0.000000000000000000 ) ;
#175 =( GEOMETRIC_REPRESENTATION_CONTEXT ( 3 ) GLOBAL_UNCERTAINTY_ASSIGNED_CONTEXT ( ( #67 ) ) GLOBAL_UNIT_ASSIGNED_CONTEXT ( ( #214, #130, #95 ) ) REPRESENTATION_CONTEXT ( 'NONE', 'WORKASPACE' ) );
#176 = DIRECTION ( 'NONE',  ( -1.000000000000000000, 0.000000000000000000, 0.000000000000000000 ) ) ;
#177 = CARTESIAN_POINT ( 'NONE',  ( 6.123233995736766282E-16, 1.999999999999999334, 0.000000000000000000 ) ) ;
#178 = CYLINDRICAL_SURFACE ( 'NONE', #181, 0.1249999999999991812 ) ;
#179 = PRESENTATION_STYLE_ASSIGNMENT (( #51 ) ) ;
#180 =( NAMED_UNIT ( * ) SI_UNIT ( $, .STERADIAN. ) SOLID_ANGLE_UNIT ( ) );
#181 = AXIS2_PLACEMENT_3D ( 'NONE', #140, #362, #199 ) ;
#182 = SURFACE_SIDE_STYLE ('',( #336 ) ) ;
#183 = CARTESIAN_POINT ( 'NONE',  ( 8.289789884252460785E-16, 0.3750000000000002220, 0.000000000000000000 ) ) ;
#184 = EDGE_CURVE ( 'NONE', #100, #355, #148, .T. ) ;
#185 = APPLICATION_PROTOCOL_DEFINITION ( 'draft international standard', 'automotive_design', 1998, #134 ) ;
#186 = COLOUR_RGB ( '',0.7921568627450980005, 0.8196078431372548767, 0.9333333333333333481 ) ;
#187 = AXIS2_PLACEMENT_3D ( 'NONE', #167, #137, #361 ) ;
#188 = CIRCLE ( 'NONE', #342, 0.1249999999999990563 ) ;
#189 = DIMENSIONAL_EXPONENTS ( 1.000000000000000000, 0.000000000000000000, 0.000000000000000000, 0.000000000000000000, 0.000000000000000000, 0.000000000000000000, 0.000000000000000000 ) ;
#190 =( LENGTH_UNIT ( ) NAMED_UNIT ( * ) SI_UNIT ( $, .METRE. ) );
#191 = MECHANICAL_DESIGN_GEOMETRIC_PRESENTATION_REPRESENTATION (  '', ( #156 ), #328 ) ;
#192 = FACE_OUTER_BOUND ( 'NONE', #263, .T. ) ;
#193 = ORIENTED_EDGE ( 'NONE', *, *, #119, .T. ) ;
#194 = DIRECTION ( 'NONE',  ( 0.000000000000000000, 0.000000000000000000, -1.000000000000000000 ) ) ;
#195 = CIRCLE ( 'NONE', #41, 0.1249999999999999029 ) ;
#196 = DIRECTION ( 'NONE',  ( -0.000000000000000000, -1.000000000000000000, -0.000000000000000000 ) ) ;
#197 = AXIS2_PLACEMENT_3D ( 'NONE', #155, #321, #8 ) ;
#198 = CARTESIAN_POINT ( 'NONE',  ( 0.000000000000000000, 0.1249999999999999029, -0.1249999999999999029 ) ) ;
#199 = DIRECTION ( 'NONE',  ( -1.000000000000000000, 0.000000000000000000, 0.000000000000000000 ) ) ;
#200 = DIRECTION ( 'NONE',  ( -0.000000000000000000, -1.000000000000000000, -0.000000000000000000 ) ) ;
#201 = EDGE_CURVE ( 'NONE', #143, #288, #366, .T. ) ;
#202 = STYLED_ITEM ( 'NONE', ( #28 ), #92 ) ;
#203 =( NAMED_UNIT ( * ) SI_UNIT ( $, .STERADIAN. ) SOLID_ANGLE_UNIT ( ) );
#204 = ORIENTED_EDGE ( 'NONE', *, *, #40, .F. ) ;
#205 =( NAMED_UNIT ( * ) PLANE_ANGLE_UNIT ( ) SI_UNIT ( $, .RADIAN. ) );
#206 = PRESENTATION_STYLE_ASSIGNMENT (( #125 ) ) ;
#207 = DIRECTION ( 'NONE',  ( -1.333265162163505466E-16, 1.000000000000000000, -0.000000000000000000 ) ) ;
#208 = SPHERICAL_SURFACE ( 'NONE', #320, 0.1249999999999999029 ) ;
#209 = VECTOR ( 'NONE', #196, 39.37007874015748143 ) ;
#210 = DIRECTION ( 'NONE',  ( -0.000000000000000000, -1.000000000000000000, -0.000000000000000000 ) ) ;
#211 = PRODUCT_RELATED_PRODUCT_CATEGORY ( 'part', '', ( #70 ) ) ;
#212 = SURFACE_SIDE_STYLE ('',( #57 ) ) ;
#213 = DIRECTION ( 'NONE',  ( -1.000000000000000000, 0.000000000000000000, 0.000000000000000000 ) ) ;
#214 =( CONVERSION_BASED_UNIT ( 'INCH', #91 ) LENGTH_UNIT ( ) NAMED_UNIT ( #351 ) );
#215 = AXIS2_PLACEMENT_3D ( 'NONE', #93, #210, #158 ) ;
#216 = VERTEX_POINT ( 'NONE', #3 ) ;
#217 = EDGE_CURVE ( 'NONE', #225, #218, #343, .T. ) ;
#218 = VERTEX_POINT ( 'NONE', #142 ) ;
#219 = EDGE_CURVE ( 'NONE', #216, #10, #262, .T. ) ;
#220 = DIMENSIONAL_EXPONENTS ( 1.000000000000000000, 0.000000000000000000, 0.000000000000000000, 0.000000000000000000, 0.000000000000000000, 0.000000000000000000, 0.000000000000000000 ) ;
#221 = ORIENTED_EDGE ( 'NONE', *, *, #219, .T. ) ;
#222 = FILL_AREA_STYLE ('',( #257 ) ) ;
#223 = AXIS2_PLACEMENT_3D ( 'NONE', #331, #172, #18 ) ;
#224 = LENGTH_MEASURE_WITH_UNIT ( LENGTH_MEASURE( 0.02539999999999999897 ), #298 );
#225 = VERTEX_POINT ( 'NONE', #371 ) ;
#226 = ORIENTED_EDGE ( 'NONE', *, *, #113, .T. ) ;
#227 =( CONVERSION_BASED_UNIT ( 'INCH', #23 ) LENGTH_UNIT ( ) NAMED_UNIT ( #127 ) );
#228 = VECTOR ( 'NONE', #81, 39.37007874015748143 ) ;
#229 = FACE_OUTER_BOUND ( 'NONE', #98, .T. ) ;
#230 = FILL_AREA_STYLE ('',( #370 ) ) ;
#231 = DIRECTION ( 'NONE',  ( 0.000000000000000000, 0.000000000000000000, 1.000000000000000000 ) ) ;
#232 = ADVANCED_FACE ( 'NONE', ( #234 ), #286, .T. ) ;
#233 = FILL_AREA_STYLE ('',( #284 ) ) ;
#234 = FACE_OUTER_BOUND ( 'NONE', #352, .T. ) ;
#235 = SURFACE_STYLE_FILL_AREA ( #233 ) ;
#236 = AXIS2_PLACEMENT_3D ( 'NONE', #310, #259, #367 ) ;
#237 = CIRCLE ( 'NONE', #197, 0.1249999999999999029 ) ;
#238 =( CONVERSION_BASED_UNIT ( 'INCH', #243 ) LENGTH_UNIT ( ) NAMED_UNIT ( #220 ) );
#239 =( LENGTH_UNIT ( ) NAMED_UNIT ( * ) SI_UNIT ( $, .METRE. ) );
#240 =( CONVERSION_BASED_UNIT ( 'INCH', #53 ) LENGTH_UNIT ( ) NAMED_UNIT ( #327 ) );
#241 = DIRECTION ( 'NONE',  ( 1.333265162163505466E-16, -1.000000000000000000, 0.000000000000000000 ) ) ;
#242 = EDGE_CURVE ( 'NONE', #245, #356, #311, .T. ) ;
#243 = LENGTH_MEASURE_WITH_UNIT ( LENGTH_MEASURE( 0.02539999999999999897 ), #59 );
#244 = DIMENSIONAL_EXPONENTS ( 1.000000000000000000, 0.000000000000000000, 0.000000000000000000, 0.000000000000000000, 0.000000000000000000, 0.000000000000000000, 0.000000000000000000 ) ;
#245 = VERTEX_POINT ( 'NONE', #147 ) ;
#246 = DIRECTION ( 'NONE',  ( 1.000000000000000000, 0.000000000000000000, 0.000000000000000000 ) ) ;
#247 = MECHANICAL_DESIGN_GEOMETRIC_PRESENTATION_REPRESENTATION (  '', ( #358 ), #96 ) ;
#248 = ORIENTED_EDGE ( 'NONE', *, *, #295, .F. ) ;
#249 = CARTESIAN_POINT ( 'NONE',  ( -7.654042494670956004E-18, 0.000000000000000000, 0.000000000000000000 ) ) ;
#250 = FILL_AREA_STYLE ('',( #44 ) ) ;
#251 = PRESENTATION_STYLE_ASSIGNMENT (( #71 ) ) ;
#252 = AXIS2_PLACEMENT_3D ( 'NONE', #6, #128, #246 ) ;
#253 = ORIENTED_EDGE ( 'NONE', *, *, #201, .F. ) ;
#254 = UNCERTAINTY_MEASURE_WITH_UNIT (LENGTH_MEASURE( 1.000000000000000082E-05 ), #240, 'distance_accuracy_value', 'NONE');
#255 = SURFACE_STYLE_FILL_AREA ( #250 ) ;
#256 = CARTESIAN_POINT ( 'NONE',  ( 1.530808498934190276E-17, 0.000000000000000000, 0.1249999999999999029 ) ) ;
#257 = FILL_AREA_STYLE_COLOUR ( '', #271 ) ;
#258 = ORIENTED_EDGE ( 'NONE', *, *, #184, .T. ) ;
#259 = DIRECTION ( 'NONE',  ( -0.000000000000000000, -1.000000000000000000, -0.000000000000000000 ) ) ;
#260 = AXIS2_PLACEMENT_3D ( 'NONE', #307, #268, #344 ) ;
#261 = DIRECTION ( 'NONE',  ( -1.000000000000000000, 0.000000000000000000, 0.000000000000000000 ) ) ;
#262 = LINE ( 'NONE', #282, #285 ) ;
#263 = EDGE_LOOP ( 'NONE', ( #66, #296, #45, #99, #104 ) ) ;
#264 = PRESENTATION_STYLE_ASSIGNMENT (( #145 ) ) ;
#265 = DIRECTION ( 'NONE',  ( -0.000000000000000000, -1.000000000000000000, -0.000000000000000000 ) ) ;
#266 = CARTESIAN_POINT ( 'NONE',  ( 8.289789884252460785E-16, 0.3750000000000002220, 0.000000000000000000 ) ) ;
#267 = PLANE ( 'NONE',  #135 ) ;
#268 = DIRECTION ( 'NONE',  ( -0.000000000000000000, -1.000000000000000000, -0.000000000000000000 ) ) ;
#269 = ADVANCED_BREP_SHAPE_REPRESENTATION ( '59434', ( #60, #315, #252 ), #103 ) ;
#270 = CARTESIAN_POINT ( 'NONE',  ( -0.1249999999999999029, 0.1249999999999999029, 1.530808498934189968E-17 ) ) ;
#271 = COLOUR_RGB ( '',1.000000000000000000, 0.000000000000000000, 0.000000000000000000 ) ;
#272 = DIRECTION ( 'NONE',  ( 1.000000000000000000, 1.333265162163505466E-16, 0.000000000000000000 ) ) ;
#273 = APPLICATION_PROTOCOL_DEFINITION ( 'draft international standard', 'automotive_design', 1998, #334 ) ;
#274 = PRODUCT_CONTEXT ( 'NONE', #334, 'mechanical' ) ;
#275 = ORIENTED_EDGE ( 'NONE', *, *, #329, .F. ) ;
#276 = CARTESIAN_POINT ( 'NONE',  ( 0.000000000000000000, 0.000000000000000000, 0.000000000000000000 ) ) ;
#277 = EDGE_LOOP ( 'NONE', ( #253, #360, #164, #326 ) ) ;
#278 = AXIS2_PLACEMENT_3D ( 'NONE', #276, #46, #194 ) ;
#279 = PRESENTATION_STYLE_ASSIGNMENT (( #82 ) ) ;
#280 = SURFACE_STYLE_FILL_AREA ( #222 ) ;
#281 = ORIENTED_EDGE ( 'NONE', *, *, #345, .F. ) ;
#282 = CARTESIAN_POINT ( 'NONE',  ( 0.000000000000000000, 0.000000000000000000, -0.1249999999999999029 ) ) ;
#283 = COLOUR_RGB ( '',1.000000000000000000, 0.000000000000000000, 0.000000000000000000 ) ;
#284 = FILL_AREA_STYLE_COLOUR ( '', #186 ) ;
#285 = VECTOR ( 'NONE', #200, 39.37007874015748143 ) ;
#286 = SPHERICAL_SURFACE ( 'NONE', #372, 0.1249999999999999029 ) ;
#287 = SURFACE_STYLE_FILL_AREA ( #312 ) ;
#288 = VERTEX_POINT ( 'NONE', #150 ) ;
#289 = DIRECTION ( 'NONE',  ( -0.000000000000000000, -1.000000000000000000, -0.000000000000000000 ) ) ;
#290 = DIRECTION ( 'NONE',  ( -1.333265162163505466E-16, 1.000000000000000000, -0.000000000000000000 ) ) ;
#291 =( CONVERSION_BASED_UNIT ( 'INCH', #33 ) LENGTH_UNIT ( ) NAMED_UNIT ( #189 ) );
#292 = DIRECTION ( 'NONE',  ( 0.000000000000000000, 0.000000000000000000, -1.000000000000000000 ) ) ;
#293 = PRESENTATION_LAYER_ASSIGNMENT (  '', '', ( #202 ) ) ;
#294 = LENGTH_MEASURE_WITH_UNIT ( LENGTH_MEASURE( 0.02539999999999999897 ), #190 );
#295 = EDGE_CURVE ( 'NONE', #143, #225, #188, .T. ) ;
#296 = ORIENTED_EDGE ( 'NONE', *, *, #24, .T. ) ;
#297 = CIRCLE ( 'NONE', #215, 0.1249999999999999029 ) ;
#298 =( LENGTH_UNIT ( ) NAMED_UNIT ( * ) SI_UNIT ( $, .METRE. ) );
#299 = UNCERTAINTY_MEASURE_WITH_UNIT (LENGTH_MEASURE( 1.000000000000000082E-05 ), #111, 'distance_accuracy_value', 'NONE');
#300 = ADVANCED_FACE ( 'NONE', ( #337 ), #317, .T. ) ;
#301 = ORIENTED_EDGE ( 'NONE', *, *, #217, .F. ) ;
#302 = AXIS2_PLACEMENT_3D ( 'NONE', #154, #289, #349 ) ;
#303 =( GEOMETRIC_REPRESENTATION_CONTEXT ( 3 ) GLOBAL_UNCERTAINTY_ASSIGNED_CONTEXT ( ( #165 ) ) GLOBAL_UNIT_ASSIGNED_CONTEXT ( ( #330, #105, #79 ) ) REPRESENTATION_CONTEXT ( 'NONE', 'WORKASPACE' ) );
#304 = FACE_OUTER_BOUND ( 'NONE', #277, .T. ) ;
#305 =( LENGTH_UNIT ( ) NAMED_UNIT ( * ) SI_UNIT ( $, .METRE. ) );
#306 =( NAMED_UNIT ( * ) SI_UNIT ( $, .STERADIAN. ) SOLID_ANGLE_UNIT ( ) );
#307 = CARTESIAN_POINT ( 'NONE',  ( 0.000000000000000000, 0.1249999999999999029, 0.000000000000000000 ) ) ;
#308 = DIRECTION ( 'NONE',  ( 0.000000000000000000, 0.000000000000000000, -1.000000000000000000 ) ) ;
#309 = MECHANICAL_DESIGN_GEOMETRIC_PRESENTATION_REPRESENTATION (  '', ( #102 ), #303 ) ;
#310 = CARTESIAN_POINT ( 'NONE',  ( 0.000000000000000000, 0.1249999999999999029, 0.000000000000000000 ) ) ;
#311 = CIRCLE ( 'NONE', #260, 0.1249999999999999029 ) ;
#312 = FILL_AREA_STYLE ('',( #114 ) ) ;
#313 = UNCERTAINTY_MEASURE_WITH_UNIT (LENGTH_MEASURE( 1.000000000000000082E-05 ), #350, 'distance_accuracy_value', 'NONE');
#314 = ORIENTED_EDGE ( 'NONE', *, *, #345, .T. ) ;
#315 = MANIFOLD_SOLID_BREP ( 'Revolve - Tool Body (Straight Shanked)', #48 ) ;
#316 =( NAMED_UNIT ( * ) PLANE_ANGLE_UNIT ( ) SI_UNIT ( $, .RADIAN. ) );
#317 = CYLINDRICAL_SURFACE ( 'NONE', #90, 0.1249999999999991812 ) ;
#318 = EDGE_CURVE ( 'NONE', #288, #218, #97, .T. ) ;
#319 = FILL_AREA_STYLE ('',( #121 ) ) ;
#320 = AXIS2_PLACEMENT_3D ( 'NONE', #17, #12, #73 ) ;
#321 = DIRECTION ( 'NONE',  ( -0.000000000000000000, -1.000000000000000000, -0.000000000000000000 ) ) ;
#322 = CARTESIAN_POINT ( 'NONE',  ( 1.530808498934190276E-17, 0.1249999999999999029, 0.1249999999999999029 ) ) ;
#323 = ORIENTED_EDGE ( 'NONE', *, *, #242, .T. ) ;
#324 = DIRECTION ( 'NONE',  ( -1.000000000000000000, 0.000000000000000000, 0.000000000000000000 ) ) ;
#325 = ORIENTED_EDGE ( 'NONE', *, *, #369, .F. ) ;
#326 = ORIENTED_EDGE ( 'NONE', *, *, #318, .F. ) ;
#327 = DIMENSIONAL_EXPONENTS ( 1.000000000000000000, 0.000000000000000000, 0.000000000000000000, 0.000000000000000000, 0.000000000000000000, 0.000000000000000000, 0.000000000000000000 ) ;
#328 =( GEOMETRIC_REPRESENTATION_CONTEXT ( 3 ) GLOBAL_UNCERTAINTY_ASSIGNED_CONTEXT ( ( #299 ) ) GLOBAL_UNIT_ASSIGNED_CONTEXT ( ( #111, #333, #357 ) ) REPRESENTATION_CONTEXT ( 'NONE', 'WORKASPACE' ) );
#329 = EDGE_CURVE ( 'NONE', #216, #19, #297, .T. ) ;
#330 =( CONVERSION_BASED_UNIT ( 'INCH', #224 ) LENGTH_UNIT ( ) NAMED_UNIT ( #69 ) );
#331 = CARTESIAN_POINT ( 'NONE',  ( 0.000000000000000000, 0.3750000000000002220, 0.000000000000000000 ) ) ;
#332 = EDGE_LOOP ( 'NONE', ( #55, #74, #68, #301 ) ) ;
#333 =( NAMED_UNIT ( * ) PLANE_ANGLE_UNIT ( ) SI_UNIT ( $, .RADIAN. ) );
#334 = APPLICATION_CONTEXT ( 'automotive_design' ) ;
#335 =( GEOMETRIC_REPRESENTATION_CONTEXT ( 3 ) GLOBAL_UNCERTAINTY_ASSIGNED_CONTEXT ( ( #254 ) ) GLOBAL_UNIT_ASSIGNED_CONTEXT ( ( #240, #205, #203 ) ) REPRESENTATION_CONTEXT ( 'NONE', 'WORKASPACE' ) );
#336 = SURFACE_STYLE_FILL_AREA ( #230 ) ;
#337 = FACE_OUTER_BOUND ( 'NONE', #332, .T. ) ;
#338 = EDGE_LOOP ( 'NONE', ( #43, #258, #204, #323 ) ) ;
#339 = CARTESIAN_POINT ( 'NONE',  ( -0.1249999999999985706, 1.999999999999999334, 0.000000000000000000 ) ) ;
#340 = MECHANICAL_DESIGN_GEOMETRIC_PRESENTATION_REPRESENTATION (  '', ( #202 ), #64 ) ;
#341 = SURFACE_SIDE_STYLE ('',( #235 ) ) ;
#342 = AXIS2_PLACEMENT_3D ( 'NONE', #266, #207, #261 ) ;
#343 = LINE ( 'NONE', #339, #15 ) ;
#344 = DIRECTION ( 'NONE',  ( 0.000000000000000000, 0.000000000000000000, -1.000000000000000000 ) ) ;
#345 = EDGE_CURVE ( 'NONE', #100, #10, #49, .T. ) ;
#346 = CARTESIAN_POINT ( 'NONE',  ( 0.1249999999999999029, 1.999999999999999334, 0.000000000000000000 ) ) ;
#347 = PRESENTATION_LAYER_ASSIGNMENT (  '', '', ( #156 ) ) ;
#348 = AXIS2_PLACEMENT_3D ( 'NONE', #34, #153, #292 ) ;
#349 = DIRECTION ( 'NONE',  ( 0.000000000000000000, 0.000000000000000000, -1.000000000000000000 ) ) ;
#350 =( CONVERSION_BASED_UNIT ( 'INCH', #294 ) LENGTH_UNIT ( ) NAMED_UNIT ( #39 ) );
#351 = DIMENSIONAL_EXPONENTS ( 1.000000000000000000, 0.000000000000000000, 0.000000000000000000, 0.000000000000000000, 0.000000000000000000, 0.000000000000000000, 0.000000000000000000 ) ;
#352 = EDGE_LOOP ( 'NONE', ( #115, #314, #193, #144 ) ) ;
#353 = AXIS2_PLACEMENT_3D ( 'NONE', #183, #62, #213 ) ;
#354 = STYLED_ITEM ( 'NONE', ( #264 ), #315 ) ;
#355 = VERTEX_POINT ( 'NONE', #249 ) ;
#356 = VERTEX_POINT ( 'NONE', #322 ) ;
#357 =( NAMED_UNIT ( * ) SI_UNIT ( $, .STERADIAN. ) SOLID_ANGLE_UNIT ( ) );
#358 = STYLED_ITEM ( 'NONE', ( #279 ), #60 ) ;
#359 = MECHANICAL_DESIGN_GEOMETRIC_PRESENTATION_REPRESENTATION (  '', ( #354 ), #175 ) ;
#360 = ORIENTED_EDGE ( 'NONE', *, *, #295, .T. ) ;
#361 = DIRECTION ( 'NONE',  ( 1.000000000000000000, 0.000000000000000000, -1.224646799147353207E-16 ) ) ;
#362 = DIRECTION ( 'NONE',  ( -1.333265162163505466E-16, 1.000000000000000000, -0.000000000000000000 ) ) ;
#363 = SURFACE_SIDE_STYLE ('',( #280 ) ) ;
#364 = AXIS2_PLACEMENT_3D ( 'NONE', #118, #149, #2 ) ;
#365 = FACE_OUTER_BOUND ( 'NONE', #52, .T. ) ;
#366 = LINE ( 'NONE', #87, #228 ) ;
#367 = DIRECTION ( 'NONE',  ( 0.000000000000000000, 0.000000000000000000, -1.000000000000000000 ) ) ;
#368 = CARTESIAN_POINT ( 'NONE',  ( 6.123233995736766282E-16, 1.999999999999999334, 0.000000000000000000 ) ) ;
#369 = EDGE_CURVE ( 'NONE', #19, #216, #237, .T. ) ;
#370 = FILL_AREA_STYLE_COLOUR ( '', #174 ) ;
#371 = CARTESIAN_POINT ( 'NONE',  ( -0.1249999999999982236, 0.3750000000000002220, 0.000000000000000000 ) ) ;
#372 = AXIS2_PLACEMENT_3D ( 'NONE', #122, #231, #85 ) ;
#373 = DIRECTION ( 'NONE',  ( 0.000000000000000000, 0.000000000000000000, -1.000000000000000000 ) ) ;
ENDSEC;
END-ISO-10303-21;
